  0
SECTION
  2
HEADER
  9
$ACADVER
  1
AC1015
  9
$ACADMAINTVER
 70
    13
  9
$DWGCODEPAGE
  3
ANSI_1252
  9
$INSBASE
 10
0.0
 20
0.0
 30
0.0
  9
$EXTMIN
 10
0.127000000000011
 20
-0.0000000000000128
 30
0.0
  9
$EXTMAX
 10
135.8729999999999
 20
855.0
 30
0.0
  9
$LIMMIN
 10
0.0
 20
0.0
  9
$LIMMAX
 10
12.0
 20
9.0
  9
$ORTHOMODE
 70
     0
  9
$REGENMODE
 70
     1
  9
$FILLMODE
 70
     1
  9
$QTEXTMODE
 70
     0
  9
$MIRRTEXT
 70
     1
  9
$LTSCALE
 40
1.0
  9
$ATTMODE
 70
     1
  9
$TEXTSIZE
 40
0.2
  9
$TRACEWID
 40
0.05
  9
$TEXTSTYLE
  7
Standard
  9
$CLAYER
  8
0
  9
$CELTYPE
  6
Continuous
  9
$CECOLOR
 62
   256
  9
$CELTSCALE
 40
1.0
  9
$DISPSILH
 70
     0
  9
$DIMSCALE
 40
1.0
  9
$DIMASZ
 40
0.18
  9
$DIMEXO
 40
0.0625
  9
$DIMDLI
 40
0.38
  9
$DIMRND
 40
0.0
  9
$DIMDLE
 40
0.0
  9
$DIMEXE
 40
0.18
  9
$DIMTP
 40
0.0
  9
$DIMTM
 40
0.0
  9
$DIMTXT
 40
0.18
  9
$DIMCEN
 40
0.09
  9
$DIMTSZ
 40
0.0
  9
$DIMTOL
 70
     0
  9
$DIMLIM
 70
     0
  9
$DIMTIH
 70
     1
  9
$DIMTOH
 70
     1
  9
$DIMSE1
 70
     0
  9
$DIMSE2
 70
     0
  9
$DIMTAD
 70
     0
  9
$DIMZIN
 70
     0
  9
$DIMBLK
  1

  9
$DIMASO
 70
     1
  9
$DIMSHO
 70
     1
  9
$DIMPOST
  1

  9
$DIMAPOST
  1

  9
$DIMALT
 70
     0
  9
$DIMALTD
 70
     2
  9
$DIMALTF
 40
25.4
  9
$DIMLFAC
 40
1.0
  9
$DIMTOFL
 70
     0
  9
$DIMTVP
 40
0.0
  9
$DIMTIX
 70
     0
  9
$DIMSOXD
 70
     0
  9
$DIMSAH
 70
     0
  9
$DIMBLK1
  1

  9
$DIMBLK2
  1

  9
$DIMSTYLE
  2
Standard
  9
$DIMCLRD
 70
     0
  9
$DIMCLRE
 70
     0
  9
$DIMCLRT
 70
     0
  9
$DIMTFAC
 40
1.0
  9
$DIMGAP
 40
0.09
  9
$DIMJUST
 70
     0
  9
$DIMSD1
 70
     0
  9
$DIMSD2
 70
     0
  9
$DIMTOLJ
 70
     1
  9
$DIMTZIN
 70
     0
  9
$DIMALTZ
 70
     0
  9
$DIMALTTZ
 70
     0
  9
$DIMUPT
 70
     0
  9
$DIMDEC
 70
     4
  9
$DIMTDEC
 70
     4
  9
$DIMALTU
 70
     2
  9
$DIMALTTD
 70
     2
  9
$DIMTXSTY
  7
Standard
  9
$DIMAUNIT
 70
     0
  9
$DIMADEC
 70
     0
  9
$DIMALTRND
 40
0.0
  9
$DIMAZIN
 70
     0
  9
$DIMDSEP
 70
    46
  9
$DIMATFIT
 70
     3
  9
$DIMFRAC
 70
     0
  9
$DIMLDRBLK
  1

  9
$DIMLUNIT
 70
     2
  9
$DIMLWD
 70
    -2
  9
$DIMLWE
 70
    -2
  9
$DIMTMOVE
 70
     0
  9
$LUNITS
 70
     2
  9
$LUPREC
 70
     4
  9
$SKETCHINC
 40
0.1
  9
$FILLETRAD
 40
0.0
  9
$AUNITS
 70
     0
  9
$AUPREC
 70
     0
  9
$MENU
  1
.
  9
$ELEVATION
 40
0.0
  9
$PELEVATION
 40
0.0
  9
$THICKNESS
 40
0.0
  9
$LIMCHECK
 70
     0
  9
$CHAMFERA
 40
0.0
  9
$CHAMFERB
 40
0.0
  9
$CHAMFERC
 40
0.0
  9
$CHAMFERD
 40
0.0
  9
$SKPOLY
 70
     0
  9
$TDCREATE
 40
2454874.770892280
  9
$TDUCREATE
 40
2454874.729225613
  9
$TDUPDATE
 40
2454874.773572951
  9
$TDUUPDATE
 40
2454874.731906284
  9
$TDINDWG
 40
0.0026806713
  9
$TDUSRTIMER
 40
0.0026806713
  9
$USRTIMER
 70
     1
  9
$ANGBASE
 50
0.0
  9
$ANGDIR
 70
     0
  9
$PDMODE
 70
     0
  9
$PDSIZE
 40
0.0
  9
$PLINEWID
 40
0.0
  9
$SPLFRAME
 70
     0
  9
$SPLINETYPE
 70
     6
  9
$SPLINESEGS
 70
     8
  9
$HANDSEED
  5
304
  9
$SURFTAB1
 70
     6
  9
$SURFTAB2
 70
     6
  9
$SURFTYPE
 70
     6
  9
$SURFU
 70
     6
  9
$SURFV
 70
     6
  9
$UCSBASE
  2

  9
$UCSNAME
  2

  9
$UCSORG
 10
0.0
 20
0.0
 30
0.0
  9
$UCSXDIR
 10
1.0
 20
0.0
 30
0.0
  9
$UCSYDIR
 10
0.0
 20
1.0
 30
0.0
  9
$UCSORTHOREF
  2

  9
$UCSORTHOVIEW
 70
     1
  9
$UCSORGTOP
 10
0.0
 20
0.0
 30
0.0
  9
$UCSORGBOTTOM
 10
0.0
 20
0.0
 30
0.0
  9
$UCSORGLEFT
 10
0.0
 20
0.0
 30
0.0
  9
$UCSORGRIGHT
 10
0.0
 20
0.0
 30
0.0
  9
$UCSORGFRONT
 10
0.0
 20
0.0
 30
0.0
  9
$UCSORGBACK
 10
0.0
 20
0.0
 30
0.0
  9
$PUCSBASE
  2

  9
$PUCSNAME
  2

  9
$PUCSORG
 10
0.0
 20
0.0
 30
0.0
  9
$PUCSXDIR
 10
1.0
 20
0.0
 30
0.0
  9
$PUCSYDIR
 10
0.0
 20
1.0
 30
0.0
  9
$PUCSORTHOREF
  2

  9
$PUCSORTHOVIEW
 70
     0
  9
$PUCSORGTOP
 10
0.0
 20
0.0
 30
0.0
  9
$PUCSORGBOTTOM
 10
0.0
 20
0.0
 30
0.0
  9
$PUCSORGLEFT
 10
0.0
 20
0.0
 30
0.0
  9
$PUCSORGRIGHT
 10
0.0
 20
0.0
 30
0.0
  9
$PUCSORGFRONT
 10
0.0
 20
0.0
 30
0.0
  9
$PUCSORGBACK
 10
0.0
 20
0.0
 30
0.0
  9
$USERI1
 70
     0
  9
$USERI2
 70
     0
  9
$USERI3
 70
     0
  9
$USERI4
 70
     0
  9
$USERI5
 70
     0
  9
$USERR1
 40
0.0
  9
$USERR2
 40
0.0
  9
$USERR3
 40
0.0
  9
$USERR4
 40
0.0
  9
$USERR5
 40
0.0
  9
$WORLDVIEW
 70
     1
  9
$SHADEDGE
 70
     3
  9
$SHADEDIF
 70
    70
  9
$TILEMODE
 70
     1
  9
$MAXACTVP
 70
    64
  9
$PINSBASE
 10
0.0
 20
0.0
 30
0.0
  9
$PLIMCHECK
 70
     0
  9
$PEXTMIN
 10
1.000000000000000E+20
 20
1.000000000000000E+20
 30
1.000000000000000E+20
  9
$PEXTMAX
 10
-1.000000000000000E+20
 20
-1.000000000000000E+20
 30
-1.000000000000000E+20
  9
$PLIMMIN
 10
0.0
 20
0.0
  9
$PLIMMAX
 10
12.0
 20
9.0
  9
$UNITMODE
 70
     0
  9
$VISRETAIN
 70
     1
  9
$PLINEGEN
 70
     0
  9
$PSLTSCALE
 70
     1
  9
$TREEDEPTH
 70
  3020
  9
$CMLSTYLE
  2
Standard
  9
$CMLJUST
 70
     0
  9
$CMLSCALE
 40
1.0
  9
$PROXYGRAPHICS
 70
     1
  9
$MEASUREMENT
 70
     0
  9
$CELWEIGHT
370
    -1
  9
$ENDCAPS
280
     0
  9
$JOINSTYLE
280
     0
  9
$LWDISPLAY
290
     0
  9
$INSUNITS
 70
     0
  9
$HYPERLINKBASE
  1

  9
$STYLESHEET
  1

  9
$XEDIT
290
     1
  9
$CEPSNTYPE
380
     0
  9
$PSTYLEMODE
290
     1
  9
$FINGERPRINTGUID
  2
{0D10656E-89BC-4F67-AD87-ACB893E77150}
  9
$VERSIONGUID
  2
{0431285A-5E96-4E2B-818F-A376E91A4440}
  9
$EXTNAMES
290
     1
  9
$PSVPSCALE
 40
0.0
  9
$OLESTARTUP
290
     0
  0
ENDSEC
  0
SECTION
  2
CLASSES
  0
CLASS
  1
ACDBDICTIONARYWDFLT
  2
AcDbDictionaryWithDefault
  3
AutoCAD 2000
 90
        0
280
     0
281
     0
  0
CLASS
  1
ACDBPLACEHOLDER
  2
AcDbPlaceHolder
  3
AutoCAD 2000
 90
        0
280
     0
281
     0
  0
CLASS
  1
LAYOUT
  2
AcDbLayout
  3
AutoCAD 2000
 90
        0
280
     0
281
     0
  0
CLASS
  1
DICTIONARYVAR
  2
AcDbDictionaryVar
  3
AutoCAD 2000
 90
        0
280
     0
281
     0
  0
ENDSEC
  0
SECTION
  2
TABLES
  0
TABLE
  2
VPORT
  5
8
330
0
100
AcDbSymbolTable
 70
     2
  0
VPORT
  5
303
330
8
100
AcDbSymbolTableRecord
100
AcDbViewportTableRecord
  2
*Active
 70
     0
 10
0.0
 20
0.0
 11
1.0
 21
1.0
 12
68.0
 22
427.5
 13
0.0
 23
0.0
 14
1.0
 24
1.0
 15
0.0
 25
0.0
 16
0.0
 26
0.0
 36
1.0
 17
0.0
 27
0.0
 37
0.0
 40
860.3999999999999
 41
1.968387776606954
 42
50.0
 43
0.0
 44
0.0
 50
0.0
 51
0.0
 71
     0
 72
   100
 73
     1
 74
     3
 75
     0
 76
     0
 77
     0
 78
     0
281
     0
 65
     1
110
0.0
120
0.0
130
0.0
111
1.0
121
0.0
131
0.0
112
0.0
122
1.0
132
0.0
 79
     1
146
0.0
  0
ENDTAB
  0
TABLE
  2
LTYPE
  5
5
330
0
100
AcDbSymbolTable
 70
     1
  0
LTYPE
  5
13
330
5
100
AcDbSymbolTableRecord
100
AcDbLinetypeTableRecord
  2
ByBlock
 70
     0
  3

 72
    65
 73
     0
 40
0.0
  0
LTYPE
  5
14
330
5
100
AcDbSymbolTableRecord
100
AcDbLinetypeTableRecord
  2
ByLayer
 70
     0
  3

 72
    65
 73
     0
 40
0.0
  0
LTYPE
  5
15
330
5
100
AcDbSymbolTableRecord
100
AcDbLinetypeTableRecord
  2
Continuous
 70
     0
  3
Solid line
 72
    65
 73
     0
 40
0.0
  0
ENDTAB
  0
TABLE
  2
LAYER
  5
2
330
0
100
AcDbSymbolTable
 70
     1
  0
LAYER
  5
10
330
2
100
AcDbSymbolTableRecord
100
AcDbLayerTableRecord
  2
0
 70
     0
 62
     7
  6
Continuous
370
    -3
390
F
  0
ENDTAB
  0
TABLE
  2
STYLE
  5
3
330
0
100
AcDbSymbolTable
 70
     1
  0
STYLE
  5
11
330
3
100
AcDbSymbolTableRecord
100
AcDbTextStyleTableRecord
  2
Standard
 70
     0
 40
0.0
 41
1.0
 50
0.0
 71
     0
 42
0.2
  3
txt
  4

  0
ENDTAB
  0
TABLE
  2
VIEW
  5
6
330
0
100
AcDbSymbolTable
 70
     0
  0
ENDTAB
  0
TABLE
  2
UCS
  5
7
330
0
100
AcDbSymbolTable
 70
     0
  0
ENDTAB
  0
TABLE
  2
APPID
  5
9
330
0
100
AcDbSymbolTable
 70
     1
  0
APPID
  5
12
330
9
100
AcDbSymbolTableRecord
100
AcDbRegAppTableRecord
  2
ACAD
 70
     0
  0
ENDTAB
  0
TABLE
  2
DIMSTYLE
  5
A
330
0
100
AcDbSymbolTable
 70
     1
100
AcDbDimStyleTable
 71
     0
  0
DIMSTYLE
105
2FD
330
A
100
AcDbSymbolTableRecord
100
AcDbDimStyleTableRecord
  2
Standard
 70
     0
340
11
  0
ENDTAB
  0
TABLE
  2
BLOCK_RECORD
  5
1
330
0
100
AcDbSymbolTable
 70
     0
  0
BLOCK_RECORD
  5
1E
330
1
100
AcDbSymbolTableRecord
100
AcDbBlockTableRecord
  2
*Model_Space
340
21
  0
BLOCK_RECORD
  5
1A
330
1
100
AcDbSymbolTableRecord
100
AcDbBlockTableRecord
  2
*Paper_Space
340
1D
  0
ENDTAB
  0
ENDSEC
  0
SECTION
  2
BLOCKS
  0
BLOCK
  5
1F
330
1E
100
AcDbEntity
  8
0
100
AcDbBlockBegin
  2
*Model_Space
 70
     0
 10
0.0
 20
0.0
 30
0.0
  3
*Model_Space
  1

  0
ENDBLK
  5
20
330
1E
100
AcDbEntity
  8
0
100
AcDbBlockEnd
  0
BLOCK
  5
1B
330
1A
100
AcDbEntity
 67
     1
  8
0
100
AcDbBlockBegin
  2
*Paper_Space
 70
     0
 10
0.0
 20
0.0
 30
0.0
  3
*Paper_Space
  1

  0
ENDBLK
  5
1C
330
1A
100
AcDbEntity
 67
     1
  8
0
100
AcDbBlockEnd
  0
ENDSEC
  0
SECTION
  2
ENTITIES
  0
LINE
  5
22
330
1E
100
AcDbEntity
  8
0
100
AcDbLine
 10
5.999890000000009
 20
0.000164999999991
 30
0.0
 11
10.7193
 21
0.0002269999999924
 31
0.0
  0
LINE
  5
23
330
1E
100
AcDbEntity
  8
0
100
AcDbLine
 10
5.999890000000009
 20
0.000164999999991
 30
0.0
 11
10.7194
 21
0.0001019999999895
 31
0.0
  0
LINE
  5
24
330
1E
100
AcDbEntity
  8
0
100
AcDbLine
 10
5.999890000000009
 20
0.000164999999991
 30
0.0
 11
5.999890000000009
 21
10.00019999999999
 31
0.0
  0
LINE
  5
25
330
1E
100
AcDbEntity
  8
0
100
AcDbLine
 10
44.27349999999999
 20
0.0000129999999875
 30
0.0
 11
67.9999
 21
-0.0000000000000128
 31
0.0
  0
LINE
  5
26
330
1E
100
AcDbEntity
  8
0
100
AcDbLine
 10
44.27349999999999
 20
0.0000129999999875
 30
0.0
 11
67.9999
 21
-0.0000000000000128
 31
0.0
  0
LINE
  5
27
330
1E
100
AcDbEntity
  8
0
100
AcDbLine
 10
24.1593
 20
0.0000479999999883
 30
0.0
 11
44.27349999999999
 21
0.0000129999999875
 31
0.0
  0
LINE
  5
28
330
1E
100
AcDbEntity
  8
0
100
AcDbLine
 10
24.1593
 20
0.0000479999999883
 30
0.0
 11
44.27349999999999
 21
0.0000129999999875
 31
0.0
  0
LINE
  5
29
330
1E
100
AcDbEntity
  8
0
100
AcDbLine
 10
10.7194
 20
0.0001019999999895
 30
0.0
 11
24.1593
 21
0.0000479999999883
 31
0.0
  0
LINE
  5
2A
330
1E
100
AcDbEntity
  8
0
100
AcDbLine
 10
10.7193
 20
0.0002269999999924
 30
0.0
 11
24.1593
 21
0.0002809999999936
 31
0.0
  0
LINE
  5
2B
330
1E
100
AcDbEntity
  8
0
100
AcDbLine
 10
24.1593
 20
0.0002809999999936
 30
0.0
 11
44.27349999999999
 21
0.0003169999999945
 31
0.0
  0
LINE
  5
2C
330
1E
100
AcDbEntity
  8
0
100
AcDbLine
 10
67.9999
 20
-0.0000000000000128
 30
0.0
 11
91.72629999999999
 21
0.0000129999999875
 31
0.0
  0
LINE
  5
2D
330
1E
100
AcDbEntity
  8
0
100
AcDbLine
 10
44.27349999999999
 20
0.0003169999999945
 30
0.0
 11
67.9999
 21
0.0003289999999948
 31
0.0
  0
LINE
  5
2E
330
1E
100
AcDbEntity
  8
0
100
AcDbLine
 10
5.999890000000009
 20
10.00019999999999
 30
0.0
 11
5.999890000000009
 21
0.0001649999999911
 31
0.0
  0
LINE
  5
2F
330
1E
100
AcDbEntity
  8
0
100
AcDbLine
 10
5.999890000000009
 20
10.00019999999999
 30
0.0
 11
10.7193
 21
10.00019999999999
 31
0.0
  0
LINE
  5
30
330
1E
100
AcDbEntity
  8
0
100
AcDbLine
 10
10.7193
 20
10.00019999999999
 30
0.0
 11
24.1593
 21
10.00029999999999
 31
0.0
  0
LINE
  5
31
330
1E
100
AcDbEntity
  8
0
100
AcDbLine
 10
50.49990833147
 20
10.00029999999999
 30
0.0
 11
50.50052677284571
 21
678.076755603028
 31
0.0
  0
LINE
  5
32
330
1E
100
AcDbEntity
  8
0
100
AcDbLine
 10
50.49990833147
 20
10.00029999999999
 30
0.0
 11
50.50052677284571
 21
678.0767556030269
 31
0.0
  0
LINE
  5
33
330
1E
100
AcDbEntity
  8
0
100
AcDbLine
 10
24.1593
 20
10.00029999999999
 30
0.0
 11
44.27349999999999
 21
10.00029999999999
 31
0.0
  0
LINE
  5
34
330
1E
100
AcDbEntity
  8
0
100
AcDbLine
 10
47.9999
 20
685.9969999999999
 30
0.0
 11
47.9999
 21
687.2489999999999
 31
0.0
  0
LINE
  5
35
330
1E
100
AcDbEntity
  8
0
100
AcDbLine
 10
47.9999
 20
685.9969999999999
 30
0.0
 11
49.5223
 21
692.5939999999999
 31
0.0
  0
LINE
  5
36
330
1E
100
AcDbEntity
  8
0
100
AcDbLine
 10
47.9999
 20
685.9969999999999
 30
0.0
 11
49.52239999999999
 21
679.3439999999999
 31
0.0
  0
LINE
  5
37
330
1E
100
AcDbEntity
  8
0
100
AcDbLine
 10
47.9999
 20
687.2489999999999
 30
0.0
 11
49.5223
 21
693.846
 31
0.0
  0
LINE
  5
38
330
1E
100
AcDbEntity
  8
0
100
AcDbLine
 10
47.9999
 20
687.2489999999999
 30
0.0
 11
47.9999
 21
685.9969999999999
 31
0.0
  0
LINE
  5
39
330
1E
100
AcDbEntity
  8
0
100
AcDbLine
 10
49.5223
 20
692.5939999999999
 30
0.0
 11
53.8577
 21
698.211
 31
0.0
  0
LINE
  5
3A
330
1E
100
AcDbEntity
  8
0
100
AcDbLine
 10
49.52239999999999
 20
679.3439999999999
 30
0.0
 11
53.8579
 21
673.7269999999999
 31
0.0
  0
LINE
  5
3B
330
1E
100
AcDbEntity
  8
0
100
AcDbLine
 10
50.4999
 20
685.993
 30
0.0
 11
51.832
 21
691.766
 31
0.0
  0
LINE
  5
3C
330
1E
100
AcDbEntity
  8
0
100
AcDbLine
 10
50.4999
 20
685.993
 30
0.0
 11
51.83209999999999
 21
680.172
 31
0.0
  0
LINE
  5
3D
330
1E
100
AcDbEntity
  8
0
100
AcDbLine
 10
50.4999
 20
695.112591133459
 30
0.0
 11
50.4999
 21
708.525
 31
0.0
  0
LINE
  5
3E
330
1E
100
AcDbEntity
  8
0
100
AcDbLine
 10
50.4999
 20
708.525
 30
0.0
 11
51.832
 21
714.297
 31
0.0
  0
LINE
  5
3F
330
1E
100
AcDbEntity
  8
0
100
AcDbLine
 10
50.4999
 20
708.525
 30
0.0
 11
50.4999
 21
695.112591133459
 31
0.0
  0
LINE
  5
40
330
1E
100
AcDbEntity
  8
0
100
AcDbLine
 10
49.5223
 20
693.846
 30
0.0
 11
53.8577
 21
699.463
 31
0.0
  0
LINE
  5
41
330
1E
100
AcDbEntity
  8
0
100
AcDbLine
 10
50.50055496154939
 20
708.527837953654
 30
0.0
 11
50.5005560171369
 21
709.668145160767
 31
0.0
  0
LINE
  5
42
330
1E
100
AcDbEntity
  8
0
100
AcDbLine
 10
51.832
 20
691.766
 30
0.0
 11
55.6255
 21
696.681
 31
0.0
  0
LINE
  5
43
330
1E
100
AcDbEntity
  8
0
100
AcDbLine
 10
50.50055496154939
 20
708.527837953654
 30
0.0
 11
50.5005560171369
 21
709.668145160767
 31
0.0
  0
LINE
  5
44
330
1E
100
AcDbEntity
  8
0
100
AcDbLine
 10
29.8255
 20
778.926
 30
0.0
 11
54.5649
 21
804.6839999999999
 31
0.0
  0
LINE
  5
45
330
1E
100
AcDbEntity
  8
0
100
AcDbLine
 10
29.8255
 20
778.926
 30
0.0
 11
30.3253145716211
 21
779.4258145716209
 31
0.0
  0
LINE
  5
47
330
1E
100
AcDbEntity
  8
0
100
AcDbLine
 10
30.3253145716211
 20
779.4258145716209
 30
0.0
 11
49.0362
 21
760.716
 31
0.0
  0
LINE
  5
49
330
1E
100
AcDbEntity
  8
0
100
AcDbLine
 10
0.127000000000011
 20
808.624
 30
0.0
 11
1.06895300000001
 21
809.566
 31
0.0
  0
LINE
  5
4A
330
1E
100
AcDbEntity
  8
0
100
AcDbLine
 10
0.127000000000011
 20
808.624
 30
0.0
 11
29.8255
 21
778.926
 31
0.0
  0
LINE
  5
4B
330
1E
100
AcDbEntity
  8
0
100
AcDbLine
 10
1.06895300000001
 20
809.566
 30
0.0
 11
3.751360000000009
 21
812.2489999999999
 31
0.0
  0
LINE
  5
4C
330
1E
100
AcDbEntity
  8
0
100
AcDbLine
 10
1.06895300000001
 20
809.566
 30
0.0
 11
3.751360000000009
 21
812.2489999999999
 31
0.0
  0
LINE
  5
4D
330
1E
100
AcDbEntity
  8
0
100
AcDbLine
 10
3.751360000000009
 20
812.2489999999999
 30
0.0
 11
7.765900000000009
 21
816.263
 31
0.0
  0
LINE
  5
4E
330
1E
100
AcDbEntity
  8
0
100
AcDbLine
 10
7.765900000000009
 20
816.263
 30
0.0
 11
12.5013
 21
820.9989999999999
 31
0.0
  0
LINE
  5
4F
330
1E
100
AcDbEntity
  8
0
100
AcDbLine
 10
23.9337
 20
832.431
 30
0.0
 11
24.87569999999999
 21
833.373
 31
0.0
  0
LINE
  5
51
330
1E
100
AcDbEntity
  8
0
100
AcDbLine
 10
24.87569999999999
 20
833.373
 30
0.0
 11
54.71084657671081
 21
804.5372226078619
 31
0.0
  0
LINE
  5
52
330
1E
100
AcDbEntity
  8
0
100
AcDbLine
 10
21.25129999999999
 20
829.7489999999999
 30
0.0
 11
23.9337
 21
832.431
 31
0.0
  0
LINE
  5
53
330
1E
100
AcDbEntity
  8
0
100
AcDbLine
 10
17.23679999999999
 20
825.7339999999999
 30
0.0
 11
21.25129999999999
 21
829.7489999999999
 31
0.0
  0
LINE
  5
54
330
1E
100
AcDbEntity
  8
0
100
AcDbLine
 10
12.5013
 20
820.9989999999999
 30
0.0
 11
17.23679999999999
 21
825.7339999999999
 31
0.0
  0
LINE
  5
56
330
1E
100
AcDbEntity
  8
0
100
AcDbLine
 10
49.0362
 20
760.716
 30
0.0
 11
49.658
 21
759.9580000000001
 31
0.0
  0
LINE
  5
57
330
1E
100
AcDbEntity
  8
0
100
AcDbLine
 10
49.658
 20
759.9580000000001
 30
0.0
 11
50.12
 21
759.0939999999999
 31
0.0
  0
LINE
  5
58
330
1E
100
AcDbEntity
  8
0
100
AcDbLine
 10
50.12
 20
759.0939999999999
 30
0.0
 11
50.40449999999999
 21
758.156
 31
0.0
  0
LINE
  5
59
330
1E
100
AcDbEntity
  8
0
100
AcDbLine
 10
51.832
 20
714.297
 30
0.0
 11
52.24267425372
 21
714.829084870709
 31
0.0
  0
LINE
  5
5A
330
1E
100
AcDbEntity
  8
0
100
AcDbLine
 10
50.40449999999999
 20
758.156
 30
0.0
 11
50.50055398947489
 21
757.1814668081371
 31
0.0
  0
LINE
  5
64
330
1E
100
AcDbEntity
  8
0
100
AcDbLine
 10
50.4999
 20
709.671
 30
0.0
 11
51.832
 21
715.4689999999999
 31
0.0
  0
LINE
  5
65
330
1E
100
AcDbEntity
  8
0
100
AcDbLine
 10
50.4999
 20
709.671
 30
0.0
 11
50.6318549312819
 21
709.0967617771629
 31
0.0
  0
LINE
  5
66
330
1E
100
AcDbEntity
  8
0
100
AcDbLine
 10
50.4999
 20
709.671
 30
0.0
 11
50.50055398947487
 21
757.1814668081373
 31
0.0
  0
LINE
  5
67
330
1E
100
AcDbEntity
  8
0
100
AcDbLine
 10
51.83209999999999
 20
680.172
 30
0.0
 11
55.6256
 21
675.258
 31
0.0
  0
LINE
  5
68
330
1E
100
AcDbEntity
  8
0
100
AcDbLine
 10
53.8577
 20
698.211
 30
0.0
 11
60.3461
 21
701.9639999999999
 31
0.0
  0
LINE
  5
69
330
1E
100
AcDbEntity
  8
0
100
AcDbLine
 10
53.8579
 20
673.7269999999999
 30
0.0
 11
60.3464
 21
669.975
 31
0.0
  0
LINE
  5
6A
330
1E
100
AcDbEntity
  8
0
100
AcDbLine
 10
57.8585384522271
 20
671.4136154777291
 30
0.0
 11
58.99989999999999
 21
660.0
 31
0.0
  0
LINE
  5
6B
330
1E
100
AcDbEntity
  8
0
100
AcDbLine
 10
58.99989999999999
 20
660.0
 30
0.0
 11
59.6848
 21
660.0
 31
0.0
  0
LINE
  5
6C
330
1E
100
AcDbEntity
  8
0
100
AcDbLine
 10
57.8585384522271
 20
671.4136154777291
 30
0.0
 11
58.99989999999999
 21
660.0
 31
0.0
  0
LINE
  5
6D
330
1E
100
AcDbEntity
  8
0
100
AcDbLine
 10
55.6256
 20
675.258
 30
0.0
 11
61.3031
 21
671.9739999999999
 31
0.0
  0
LINE
  5
6E
330
1E
100
AcDbEntity
  8
0
100
AcDbLine
 10
56.4514
 20
684.332
 30
0.0
 11
59.16109999999999
 21
680.822
 31
0.0
  0
LINE
  5
6F
330
1E
100
AcDbEntity
  8
0
100
AcDbLine
 10
55.4999
 20
688.49
 30
0.0
 11
56.4514
 21
692.613
 31
0.0
  0
LINE
  5
70
330
1E
100
AcDbEntity
  8
0
100
AcDbLine
 10
55.4999
 20
688.49
 30
0.0
 11
56.4514
 21
684.332
 31
0.0
  0
LINE
  5
71
330
1E
100
AcDbEntity
  8
0
100
AcDbLine
 10
56.4514
 20
692.613
 30
0.0
 11
59.161
 21
696.1239999999999
 31
0.0
  0
LINE
  5
72
330
1E
100
AcDbEntity
  8
0
100
AcDbLine
 10
59.6848
 20
660.0
 30
0.0
 11
61.636
 21
659.9989999999999
 31
0.0
  0
LINE
  5
73
330
1E
100
AcDbEntity
  8
0
100
AcDbLine
 10
59.6848
 20
660.0
 30
0.0
 11
61.636
 21
660.0010000000001
 31
0.0
  0
LINE
  5
74
330
1E
100
AcDbEntity
  8
0
100
AcDbLine
 10
59.16109999999999
 20
680.822
 30
0.0
 11
63.2165
 21
678.4760000000001
 31
0.0
  0
LINE
  5
75
330
1E
100
AcDbEntity
  8
0
100
AcDbLine
 10
59.161
 20
696.1239999999999
 30
0.0
 11
63.21629999999999
 21
698.4689999999999
 31
0.0
  0
LINE
  5
76
330
1E
100
AcDbEntity
  8
0
100
AcDbLine
 10
55.6255
 20
696.681
 30
0.0
 11
61.3029
 21
699.965
 31
0.0
  0
LINE
  5
77
330
1E
100
AcDbEntity
  8
0
100
AcDbLine
 10
53.8577
 20
699.463
 30
0.0
 11
60.3461
 21
703.216
 31
0.0
  0
LINE
  5
78
330
1E
100
AcDbEntity
  8
0
100
AcDbLine
 10
60.3461
 20
701.9639999999999
 30
0.0
 11
68.0158
 21
703.2819999999999
 31
0.0
  0
LINE
  5
79
330
1E
100
AcDbEntity
  8
0
100
AcDbLine
 10
61.636
 20
660.0010000000001
 30
0.0
 11
64.5556
 21
660.0010000000001
 31
0.0
  0
LINE
  5
7A
330
1E
100
AcDbEntity
  8
0
100
AcDbLine
 10
61.636
 20
659.9989999999999
 30
0.0
 11
64.3392988517855
 21
659.9989999999999
 31
0.0
  0
LINE
  5
7B
330
1E
100
AcDbEntity
  8
0
100
AcDbLine
 10
61.3031
 20
671.9739999999999
 30
0.0
 11
68.0001
 21
670.821
 31
0.0
  0
LINE
  5
7C
330
1E
100
AcDbEntity
  8
0
100
AcDbLine
 10
60.3464
 20
669.975
 30
0.0
 11
68.0001
 21
668.6569999999999
 31
0.0
  0
LINE
  5
7D
330
1E
100
AcDbEntity
  8
0
100
AcDbLine
 10
64.3284
 20
650.5069999999999
 30
0.0
 11
71.2749808442023
 21
488.665790758836
 31
0.0
  0
LINE
  5
7E
330
1E
100
AcDbEntity
  8
0
100
AcDbLine
 10
64.3284
 20
650.5069999999999
 30
0.0
 11
64.3393
 21
660.0
 31
0.0
  0
LINE
  5
7F
330
1E
100
AcDbEntity
  8
0
100
AcDbLine
 10
64.3393
 20
660.0
 30
0.0
 11
64.47020000000001
 21
660.0
 31
0.0
  0
LINE
  5
80
330
1E
100
AcDbEntity
  8
0
100
AcDbLine
 10
64.47020000000001
 20
660.0
 30
0.0
 11
65.3358
 21
660.0
 31
0.0
  0
LINE
  5
81
330
1E
100
AcDbEntity
  8
0
100
AcDbLine
 10
64.4525
 20
650.821
 30
0.0
 11
78.5993
 21
314.5829999999999
 31
0.0
  0
LINE
  5
82
330
1E
100
AcDbEntity
  8
0
100
AcDbLine
 10
65.3358
 20
660.0
 30
0.0
 11
66.80469999999999
 21
660.0
 31
0.0
  0
LINE
  5
83
330
1E
100
AcDbEntity
  8
0
100
AcDbLine
 10
66.80469999999999
 20
660.0
 30
0.0
 11
68.65300000000001
 21
660.0
 31
0.0
  0
LINE
  5
84
330
1E
100
AcDbEntity
  8
0
100
AcDbLine
 10
67.9999
 20
660.0010000000001
 30
0.0
 11
71.4442
 21
660.0010000000001
 31
0.0
  0
LINE
  5
85
330
1E
100
AcDbEntity
  8
0
100
AcDbLine
 10
64.5556
 20
660.0010000000001
 30
0.0
 11
67.9999
 21
660.0010000000001
 31
0.0
  0
LINE
  5
86
330
1E
100
AcDbEntity
  8
0
100
AcDbLine
 10
63.2165
 20
678.4760000000001
 30
0.0
 11
68.0
 21
677.653
 31
0.0
  0
LINE
  5
87
330
1E
100
AcDbEntity
  8
0
100
AcDbLine
 10
63.21629999999999
 20
698.4689999999999
 30
0.0
 11
68.0098
 21
699.293
 31
0.0
  0
LINE
  5
88
330
1E
100
AcDbEntity
  8
0
100
AcDbLine
 10
61.3029
 20
699.965
 30
0.0
 11
68.0138
 21
701.118
 31
0.0
  0
LINE
  5
89
330
1E
100
AcDbEntity
  8
0
100
AcDbLine
 10
60.3461
 20
703.216
 30
0.0
 11
68.0158
 21
704.534
 31
0.0
  0
LINE
  5
8A
330
1E
100
AcDbEntity
  8
0
100
AcDbLine
 10
55.9791
 20
719.826
 30
0.0
 11
61.4943
 21
723.0169999999999
 31
0.0
  0
LINE
  5
8D
330
1E
100
AcDbEntity
  8
0
100
AcDbLine
 10
59.7421
 20
803.8
 30
0.0
 11
60.053
 21
804.2999999999999
 31
0.0
  0
LINE
  5
8E
330
1E
100
AcDbEntity
  8
0
100
AcDbLine
 10
59.7421
 20
803.8
 30
0.0
 11
59.997
 21
803.8
 31
0.0
  0
LINE
  5
90
330
1E
100
AcDbEntity
  8
0
100
AcDbLine
 10
60.053
 20
804.2999999999999
 30
0.0
 11
60.053
 21
805.2999999999999
 31
0.0
  0
LINE
  5
91
330
1E
100
AcDbEntity
  8
0
100
AcDbLine
 10
58.80919999999999
 20
804.2999999999999
 30
0.0
 11
59.1201
 21
803.8
 31
0.0
  0
LINE
  5
92
330
1E
100
AcDbEntity
  8
0
100
AcDbLine
 10
58.80919999999999
 20
804.2999999999999
 30
0.0
 11
58.80919999999999
 21
805.2999999999999
 31
0.0
  0
LINE
  5
93
330
1E
100
AcDbEntity
  8
0
100
AcDbLine
 10
59.1201
 20
803.8
 30
0.0
 11
59.7421
 21
803.8
 31
0.0
  0
LINE
  5
94
330
1E
100
AcDbEntity
  8
0
100
AcDbLine
 10
59.1201
 20
803.8
 30
0.0
 11
59.49699999999999
 21
803.8
 31
0.0
  0
LINE
  5
95
330
1E
100
AcDbEntity
  8
0
100
AcDbLine
 10
55.997
 20
803.243747628084
 30
0.0
 11
55.997
 21
834.5
 31
0.0
  0
LINE
  5
96
330
1E
100
AcDbEntity
  8
0
100
AcDbLine
 10
54.5649
 20
804.6839999999999
 30
0.0
 11
64.4725
 21
794.72
 31
0.0
  0
LINE
  5
97
330
1E
100
AcDbEntity
  8
0
100
AcDbLine
 10
55.997
 20
854.4999999999999
 30
0.0
 11
55.997
 21
835.5
 31
0.0
  0
LINE
  5
98
330
1E
100
AcDbEntity
  8
0
100
AcDbLine
 10
55.997
 20
854.4999999999999
 30
0.0
 11
56.397
 21
854.4999999999999
 31
0.0
  0
LINE
  5
99
330
1E
100
AcDbEntity
  8
0
100
AcDbLine
 10
55.997
 20
854.4999999999999
 30
0.0
 11
56.497
 21
855.0
 31
0.0
  0
LINE
  5
9A
330
1E
100
AcDbEntity
  8
0
100
AcDbLine
 10
55.997
 20
835.5
 30
0.0
 11
56.397
 21
835.5
 31
0.0
  0
LINE
  5
9B
330
1E
100
AcDbEntity
  8
0
100
AcDbLine
 10
55.997
 20
835.5
 30
0.0
 11
56.99699999999999
 21
835.0
 31
0.0
  0
LINE
  5
9C
330
1E
100
AcDbEntity
  8
0
100
AcDbLine
 10
55.997
 20
835.5
 30
0.0
 11
55.997
 21
854.4999999999999
 31
0.0
  0
LINE
  5
9D
330
1E
100
AcDbEntity
  8
0
100
AcDbLine
 10
58.80919999999999
 20
811.1
 30
0.0
 11
58.80919999999999
 21
812.1
 31
0.0
  0
LINE
  5
9E
330
1E
100
AcDbEntity
  8
0
100
AcDbLine
 10
58.80919999999999
 20
811.1
 30
0.0
 11
59.1201
 21
810.5999999999999
 31
0.0
  0
LINE
  5
9F
330
1E
100
AcDbEntity
  8
0
100
AcDbLine
 10
58.80919999999999
 20
818.9
 30
0.0
 11
59.1201
 21
819.3999999999999
 31
0.0
  0
LINE
  5
A0
330
1E
100
AcDbEntity
  8
0
100
AcDbLine
 10
58.80919999999999
 20
818.9
 30
0.0
 11
58.80919999999999
 21
817.9
 31
0.0
  0
LINE
  5
A1
330
1E
100
AcDbEntity
  8
0
100
AcDbLine
 10
58.80919999999999
 20
824.6999999999999
 30
0.0
 11
58.80919999999999
 21
825.7000000000001
 31
0.0
  0
LINE
  5
A2
330
1E
100
AcDbEntity
  8
0
100
AcDbLine
 10
58.80919999999999
 20
824.6999999999999
 30
0.0
 11
59.1201
 21
824.2
 31
0.0
  0
LINE
  5
A3
330
1E
100
AcDbEntity
  8
0
100
AcDbLine
 10
58.80919999999999
 20
831.4999999999999
 30
0.0
 11
58.80919999999999
 21
832.4999999999999
 31
0.0
  0
LINE
  5
A4
330
1E
100
AcDbEntity
  8
0
100
AcDbLine
 10
58.80919999999999
 20
831.4999999999999
 30
0.0
 11
59.1201
 21
831.0
 31
0.0
  0
LINE
  5
A5
330
1E
100
AcDbEntity
  8
0
100
AcDbLine
 10
58.80919999999999
 20
832.4999999999999
 30
0.0
 11
58.80919999999999
 21
831.4999999999999
 31
0.0
  0
LINE
  5
A6
330
1E
100
AcDbEntity
  8
0
100
AcDbLine
 10
58.80919999999999
 20
832.4999999999999
 30
0.0
 11
59.1201
 21
833.0
 31
0.0
  0
LINE
  5
A7
330
1E
100
AcDbEntity
  8
0
100
AcDbLine
 10
58.80919999999999
 20
825.7000000000001
 30
0.0
 11
58.80919999999999
 21
824.6999999999999
 31
0.0
  0
LINE
  5
A8
330
1E
100
AcDbEntity
  8
0
100
AcDbLine
 10
58.80919999999999
 20
825.7000000000001
 30
0.0
 11
59.1201
 21
826.2
 31
0.0
  0
LINE
  5
A9
330
1E
100
AcDbEntity
  8
0
100
AcDbLine
 10
58.80919999999999
 20
817.9
 30
0.0
 11
59.1201
 21
817.3999999999999
 31
0.0
  0
LINE
  5
AA
330
1E
100
AcDbEntity
  8
0
100
AcDbLine
 10
58.80919999999999
 20
817.9
 30
0.0
 11
58.80919999999999
 21
818.9
 31
0.0
  0
LINE
  5
AB
330
1E
100
AcDbEntity
  8
0
100
AcDbLine
 10
58.80919999999999
 20
812.1
 30
0.0
 11
59.1201
 21
812.6000000000001
 31
0.0
  0
LINE
  5
AC
330
1E
100
AcDbEntity
  8
0
100
AcDbLine
 10
58.80919999999999
 20
812.1
 30
0.0
 11
58.80919999999999
 21
811.1
 31
0.0
  0
LINE
  5
AE
330
1E
100
AcDbEntity
  8
0
100
AcDbLine
 10
60.053
 20
805.2999999999999
 30
0.0
 11
60.053
 21
804.2999999999999
 31
0.0
  0
LINE
  5
AF
330
1E
100
AcDbEntity
  8
0
100
AcDbLine
 10
59.7421
 20
805.7999999999999
 30
0.0
 11
59.9644267100977
 21
805.7999999999999
 31
0.0
  0
LINE
  5
B0
330
1E
100
AcDbEntity
  8
0
100
AcDbLine
 10
59.7421
 20
805.7999999999999
 30
0.0
 11
60.053
 21
805.2999999999999
 31
0.0
  0
LINE
  5
B1
330
1E
100
AcDbEntity
  8
0
100
AcDbLine
 10
59.1201
 20
810.5999999999999
 30
0.0
 11
59.7421
 21
810.5999999999999
 31
0.0
  0
LINE
  5
B2
330
1E
100
AcDbEntity
  8
0
100
AcDbLine
 10
59.1201
 20
810.5999999999999
 30
0.0
 11
59.49699999999999
 21
810.5999999999999
 31
0.0
  0
LINE
  5
B3
330
1E
100
AcDbEntity
  8
0
100
AcDbLine
 10
59.7421
 20
810.5999999999999
 30
0.0
 11
60.3319
 21
810.5999999999999
 31
0.0
  0
LINE
  5
B4
330
1E
100
AcDbEntity
  8
0
100
AcDbLine
 10
59.7421
 20
810.5999999999999
 30
0.0
 11
60.053
 21
811.1
 31
0.0
  0
LINE
  5
B5
330
1E
100
AcDbEntity
  8
0
100
AcDbLine
 10
59.1201
 20
819.3999999999999
 30
0.0
 11
59.7421
 21
819.3999999999999
 31
0.0
  0
LINE
  5
B6
330
1E
100
AcDbEntity
  8
0
100
AcDbLine
 10
59.1201
 20
831.0
 30
0.0
 11
59.7421
 21
831.0
 31
0.0
  0
LINE
  5
B7
330
1E
100
AcDbEntity
  8
0
100
AcDbLine
 10
59.1201
 20
831.0
 30
0.0
 11
59.49699999999999
 21
831.0
 31
0.0
  0
LINE
  5
B8
330
1E
100
AcDbEntity
  8
0
100
AcDbLine
 10
59.1201
 20
833.0
 30
0.0
 11
59.7421
 21
833.0
 31
0.0
  0
LINE
  5
B9
330
1E
100
AcDbEntity
  8
0
100
AcDbLine
 10
59.1201
 20
826.2
 30
0.0
 11
59.7421
 21
826.2
 31
0.0
  0
LINE
  5
BA
330
1E
100
AcDbEntity
  8
0
100
AcDbLine
 10
59.1201
 20
824.2
 30
0.0
 11
59.7421
 21
824.2
 31
0.0
  0
LINE
  5
BB
330
1E
100
AcDbEntity
  8
0
100
AcDbLine
 10
59.1201
 20
824.2
 30
0.0
 11
59.49699999999999
 21
824.2
 31
0.0
  0
LINE
  5
BC
330
1E
100
AcDbEntity
  8
0
100
AcDbLine
 10
59.7421
 20
819.3999999999999
 30
0.0
 11
60.3319
 21
819.3999999999999
 31
0.0
  0
LINE
  5
BD
330
1E
100
AcDbEntity
  8
0
100
AcDbLine
 10
59.7421
 20
819.3999999999999
 30
0.0
 11
60.053
 21
818.9
 31
0.0
  0
LINE
  5
BE
330
1E
100
AcDbEntity
  8
0
100
AcDbLine
 10
59.7421
 20
831.0
 30
0.0
 11
60.053
 21
831.4999999999999
 31
0.0
  0
LINE
  5
BF
330
1E
100
AcDbEntity
  8
0
100
AcDbLine
 10
59.7421
 20
831.0
 30
0.0
 11
60.3319
 21
831.0
 31
0.0
  0
LINE
  5
C0
330
1E
100
AcDbEntity
  8
0
100
AcDbLine
 10
59.7421
 20
833.0
 30
0.0
 11
60.053
 21
832.4999999999999
 31
0.0
  0
LINE
  5
C1
330
1E
100
AcDbEntity
  8
0
100
AcDbLine
 10
59.7421
 20
833.0
 30
0.0
 11
60.3319
 21
833.0
 31
0.0
  0
LINE
  5
C2
330
1E
100
AcDbEntity
  8
0
100
AcDbLine
 10
59.7421
 20
826.2
 30
0.0
 11
60.053
 21
825.7000000000001
 31
0.0
  0
LINE
  5
C3
330
1E
100
AcDbEntity
  8
0
100
AcDbLine
 10
59.7421
 20
826.2
 30
0.0
 11
60.3319
 21
826.2
 31
0.0
  0
LINE
  5
C4
330
1E
100
AcDbEntity
  8
0
100
AcDbLine
 10
59.7421
 20
824.2
 30
0.0
 11
60.053
 21
824.6999999999999
 31
0.0
  0
LINE
  5
C5
330
1E
100
AcDbEntity
  8
0
100
AcDbLine
 10
59.7421
 20
824.2
 30
0.0
 11
60.3319
 21
824.2
 31
0.0
  0
LINE
  5
C6
330
1E
100
AcDbEntity
  8
0
100
AcDbLine
 10
59.7421
 20
817.3999999999999
 30
0.0
 11
60.053
 21
817.9
 31
0.0
  0
LINE
  5
C7
330
1E
100
AcDbEntity
  8
0
100
AcDbLine
 10
59.7421
 20
817.3999999999999
 30
0.0
 11
60.3319
 21
817.3999999999999
 31
0.0
  0
LINE
  5
C8
330
1E
100
AcDbEntity
  8
0
100
AcDbLine
 10
59.1201
 20
817.3999999999999
 30
0.0
 11
59.49699999999999
 21
817.3999999999999
 31
0.0
  0
LINE
  5
C9
330
1E
100
AcDbEntity
  8
0
100
AcDbLine
 10
59.1201
 20
817.3999999999999
 30
0.0
 11
59.7421
 21
817.3999999999999
 31
0.0
  0
LINE
  5
CA
330
1E
100
AcDbEntity
  8
0
100
AcDbLine
 10
59.1201
 20
812.6000000000001
 30
0.0
 11
59.7421
 21
812.6000000000001
 31
0.0
  0
LINE
  5
CC
330
1E
100
AcDbEntity
  8
0
100
AcDbLine
 10
60.053
 20
811.1
 30
0.0
 11
60.053
 21
812.1
 31
0.0
  0
LINE
  5
CE
330
1E
100
AcDbEntity
  8
0
100
AcDbLine
 10
60.053
 20
818.9
 30
0.0
 11
60.053
 21
817.9
 31
0.0
  0
LINE
  5
CF
330
1E
100
AcDbEntity
  8
0
100
AcDbLine
 10
60.053
 20
824.6999999999999
 30
0.0
 11
60.053
 21
825.7000000000001
 31
0.0
  0
LINE
  5
D1
330
1E
100
AcDbEntity
  8
0
100
AcDbLine
 10
60.053
 20
831.4999999999999
 30
0.0
 11
60.053
 21
832.4999999999999
 31
0.0
  0
LINE
  5
D3
330
1E
100
AcDbEntity
  8
0
100
AcDbLine
 10
60.053
 20
832.4999999999999
 30
0.0
 11
60.053
 21
831.4999999999999
 31
0.0
  0
LINE
  5
D6
330
1E
100
AcDbEntity
  8
0
100
AcDbLine
 10
60.053
 20
825.7000000000001
 30
0.0
 11
60.053
 21
824.6999999999999
 31
0.0
  0
LINE
  5
D8
330
1E
100
AcDbEntity
  8
0
100
AcDbLine
 10
60.053
 20
817.9
 30
0.0
 11
60.053
 21
818.9
 31
0.0
  0
LINE
  5
DA
330
1E
100
AcDbEntity
  8
0
100
AcDbLine
 10
60.053
 20
812.1
 30
0.0
 11
60.053
 21
811.1
 31
0.0
  0
LINE
  5
DB
330
1E
100
AcDbEntity
  8
0
100
AcDbLine
 10
59.7421
 20
812.6000000000001
 30
0.0
 11
60.053
 21
812.1
 31
0.0
  0
LINE
  5
DC
330
1E
100
AcDbEntity
  8
0
100
AcDbLine
 10
59.7421
 20
812.6000000000001
 30
0.0
 11
60.3319
 21
812.6000000000001
 31
0.0
  0
LINE
  5
DD
330
1E
100
AcDbEntity
  8
0
100
AcDbLine
 10
59.1201
 20
805.7999999999999
 30
0.0
 11
59.7421
 21
805.7999999999999
 31
0.0
  0
LINE
  5
DE
330
1E
100
AcDbEntity
  8
0
100
AcDbLine
 10
58.80919999999999
 20
805.2999999999999
 30
0.0
 11
58.80919999999999
 21
804.2999999999999
 31
0.0
  0
LINE
  5
DF
330
1E
100
AcDbEntity
  8
0
100
AcDbLine
 10
58.80919999999999
 20
805.2999999999999
 30
0.0
 11
59.1201
 21
805.7999999999999
 31
0.0
  0
LINE
  5
E0
330
1E
100
AcDbEntity
  8
0
100
AcDbLine
 10
59.49699999999999
 20
834.5
 30
0.0
 11
61.99699999999999
 21
834.5
 31
0.0
  0
LINE
  5
E1
330
1E
100
AcDbEntity
  8
0
100
AcDbLine
 10
57.597
 20
834.5
 30
0.0
 11
59.49699999999999
 21
834.5
 31
0.0
  0
LINE
  5
E2
330
1E
100
AcDbEntity
  8
0
100
AcDbLine
 10
56.897
 20
855.0
 30
0.0
 11
57.997
 21
855.0
 31
0.0
  0
LINE
  5
E3
330
1E
100
AcDbEntity
  8
0
100
AcDbLine
 10
56.497
 20
855.0
 30
0.0
 11
56.897
 21
855.0
 31
0.0
  0
LINE
  5
E4
330
1E
100
AcDbEntity
  8
0
100
AcDbLine
 10
56.397
 20
854.4999999999999
 30
0.0
 11
57.597
 21
854.4999999999999
 31
0.0
  0
LINE
  5
E5
330
1E
100
AcDbEntity
  8
0
100
AcDbLine
 10
56.397
 20
835.5
 30
0.0
 11
57.597
 21
835.5
 31
0.0
  0
LINE
  5
E6
330
1E
100
AcDbEntity
  8
0
100
AcDbLine
 10
60.197
 20
835.0
 30
0.0
 11
62.497
 21
835.0
 31
0.0
  0
LINE
  5
E7
330
1E
100
AcDbEntity
  8
0
100
AcDbLine
 10
58.497
 20
835.0
 30
0.0
 11
60.197
 21
835.0
 31
0.0
  0
LINE
  5
E8
330
1E
100
AcDbEntity
  8
0
100
AcDbLine
 10
57.597
 20
854.4999999999999
 30
0.0
 11
59.49699999999999
 21
854.4999999999999
 31
0.0
  0
LINE
  5
E9
330
1E
100
AcDbEntity
  8
0
100
AcDbLine
 10
59.49699999999999
 20
854.4999999999999
 30
0.0
 11
61.99699999999999
 21
854.4999999999999
 31
0.0
  0
LINE
  5
EA
330
1E
100
AcDbEntity
  8
0
100
AcDbLine
 10
59.897
 20
855.0
 30
0.0
 11
62.297
 21
855.0
 31
0.0
  0
LINE
  5
EB
330
1E
100
AcDbEntity
  8
0
100
AcDbLine
 10
59.49699999999999
 20
835.5
 30
0.0
 11
61.99699999999999
 21
835.5
 31
0.0
  0
LINE
  5
EC
330
1E
100
AcDbEntity
  8
0
100
AcDbLine
 10
57.997
 20
855.0
 30
0.0
 11
59.897
 21
855.0
 31
0.0
  0
LINE
  5
ED
330
1E
100
AcDbEntity
  8
0
100
AcDbLine
 10
57.597
 20
835.5
 30
0.0
 11
59.49699999999999
 21
835.5
 31
0.0
  0
LINE
  5
EE
330
1E
100
AcDbEntity
  8
0
100
AcDbLine
 10
57.397
 20
835.0
 30
0.0
 11
58.497
 21
835.0
 31
0.0
  0
LINE
  5
EF
330
1E
100
AcDbEntity
  8
0
100
AcDbLine
 10
56.99699999999999
 20
835.0
 30
0.0
 11
57.397
 21
835.0
 31
0.0
  0
LINE
  5
F0
330
1E
100
AcDbEntity
  8
0
100
AcDbLine
 10
56.397
 20
834.5
 30
0.0
 11
57.597
 21
834.5
 31
0.0
  0
LINE
  5
F1
330
1E
100
AcDbEntity
  8
0
100
AcDbLine
 10
55.997
 20
834.5
 30
0.0
 11
55.997
 21
803.243747628084
 31
0.0
  0
LINE
  5
F2
330
1E
100
AcDbEntity
  8
0
100
AcDbLine
 10
55.997
 20
834.5
 30
0.0
 11
56.397
 21
834.5
 31
0.0
  0
LINE
  5
F3
330
1E
100
AcDbEntity
  8
0
100
AcDbLine
 10
55.997
 20
834.5
 30
0.0
 11
56.99699999999999
 21
835.0
 31
0.0
  0
LINE
  5
F6
330
1E
100
AcDbEntity
  8
0
100
AcDbLine
 10
61.3029
 20
723.6669999999999
 30
0.0
 11
67.9999
 21
724.819
 31
0.0
  0
LINE
  5
F7
330
1E
100
AcDbEntity
  8
0
100
AcDbLine
 10
67.9999
 20
724.1360000000001
 30
0.0
 11
74.50549999999999
 21
723.0169999999999
 31
0.0
  0
LINE
  5
F8
330
1E
100
AcDbEntity
  8
0
100
AcDbLine
 10
62.3097
 20
818.9
 30
0.0
 11
62.3097
 21
817.9
 31
0.0
  0
LINE
  5
F9
330
1E
100
AcDbEntity
  8
0
100
AcDbLine
 10
62.3097
 20
818.9
 30
0.0
 11
62.7092
 21
819.3999999999999
 31
0.0
  0
LINE
  5
FA
330
1E
100
AcDbEntity
  8
0
100
AcDbLine
 10
62.3097
 20
832.4999999999999
 30
0.0
 11
62.7092
 21
833.0
 31
0.0
  0
LINE
  5
FB
330
1E
100
AcDbEntity
  8
0
100
AcDbLine
 10
62.3097
 20
832.4999999999999
 30
0.0
 11
62.3097
 21
831.4999999999999
 31
0.0
  0
LINE
  5
FC
330
1E
100
AcDbEntity
  8
0
100
AcDbLine
 10
62.3097
 20
831.4999999999999
 30
0.0
 11
62.3097
 21
832.4999999999999
 31
0.0
  0
LINE
  5
FD
330
1E
100
AcDbEntity
  8
0
100
AcDbLine
 10
62.3097
 20
831.4999999999999
 30
0.0
 11
62.7092
 21
831.0
 31
0.0
  0
LINE
  5
FE
330
1E
100
AcDbEntity
  8
0
100
AcDbLine
 10
62.3097
 20
825.7000000000001
 30
0.0
 11
62.3097
 21
824.6999999999999
 31
0.0
  0
LINE
  5
FF
330
1E
100
AcDbEntity
  8
0
100
AcDbLine
 10
62.3097
 20
825.7000000000001
 30
0.0
 11
62.7092
 21
826.2
 31
0.0
  0
LINE
  5
100
330
1E
100
AcDbEntity
  8
0
100
AcDbLine
 10
62.3097
 20
824.6999999999999
 30
0.0
 11
62.7092
 21
824.2
 31
0.0
  0
LINE
  5
101
330
1E
100
AcDbEntity
  8
0
100
AcDbLine
 10
62.3097
 20
824.6999999999999
 30
0.0
 11
62.3097
 21
825.7000000000001
 31
0.0
  0
LINE
  5
102
330
1E
100
AcDbEntity
  8
0
100
AcDbLine
 10
62.3097
 20
817.9
 30
0.0
 11
62.7092
 21
817.3999999999999
 31
0.0
  0
LINE
  5
103
330
1E
100
AcDbEntity
  8
0
100
AcDbLine
 10
62.3097
 20
817.9
 30
0.0
 11
62.3097
 21
818.9
 31
0.0
  0
LINE
  5
104
330
1E
100
AcDbEntity
  8
0
100
AcDbLine
 10
62.3097
 20
811.1
 30
0.0
 11
62.7092
 21
810.5999999999999
 31
0.0
  0
LINE
  5
105
330
1E
100
AcDbEntity
  8
0
100
AcDbLine
 10
62.3097
 20
811.1
 30
0.0
 11
62.3097
 21
812.1
 31
0.0
  0
LINE
  5
106
330
1E
100
AcDbEntity
  8
0
100
AcDbLine
 10
62.3097
 20
812.1
 30
0.0
 11
62.7092
 21
812.6000000000001
 31
0.0
  0
LINE
  5
107
330
1E
100
AcDbEntity
  8
0
100
AcDbLine
 10
62.3097
 20
812.1
 30
0.0
 11
62.3097
 21
811.1
 31
0.0
  0
LINE
  5
108
330
1E
100
AcDbEntity
  8
0
100
AcDbLine
 10
62.3097
 20
805.2999999999999
 30
0.0
 11
62.7092
 21
805.7999999999999
 31
0.0
  0
LINE
  5
109
330
1E
100
AcDbEntity
  8
0
100
AcDbLine
 10
62.3097
 20
805.2999999999999
 30
0.0
 11
62.3097
 21
804.2999999999999
 31
0.0
  0
LINE
  5
10A
330
1E
100
AcDbEntity
  8
0
100
AcDbLine
 10
62.3097
 20
804.2999999999999
 30
0.0
 11
62.3097
 21
805.2999999999999
 31
0.0
  0
LINE
  5
10B
330
1E
100
AcDbEntity
  8
0
100
AcDbLine
 10
62.3097
 20
804.2999999999999
 30
0.0
 11
62.7092
 21
803.8
 31
0.0
  0
LINE
  5
10C
330
1E
100
AcDbEntity
  8
0
100
AcDbLine
 10
62.3097
 20
798.5
 30
0.0
 11
62.7092
 21
799.0
 31
0.0
  0
LINE
  5
10D
330
1E
100
AcDbEntity
  8
0
100
AcDbLine
 10
62.3097
 20
798.5
 30
0.0
 11
62.3097
 21
797.5
 31
0.0
  0
LINE
  5
10E
330
1E
100
AcDbEntity
  8
0
100
AcDbLine
 10
62.7092
 20
797.0
 30
0.0
 11
63.5082
 21
797.0
 31
0.0
  0
LINE
  5
10F
330
1E
100
AcDbEntity
  8
0
100
AcDbLine
 10
62.7092
 20
797.0
 30
0.0
 11
63.0196
 21
797.0
 31
0.0
  0
LINE
  5
110
330
1E
100
AcDbEntity
  8
0
100
AcDbLine
 10
63.5082
 20
797.0
 30
0.0
 11
63.90769999999999
 21
797.5
 31
0.0
  0
LINE
  5
111
330
1E
100
AcDbEntity
  8
0
100
AcDbLine
 10
63.5082
 20
797.0
 30
0.0
 11
63.8186
 21
797.0
 31
0.0
  0
LINE
  5
112
330
1E
100
AcDbEntity
  8
0
100
AcDbLine
 10
63.90769999999999
 20
797.5
 30
0.0
 11
63.90769999999999
 21
798.5
 31
0.0
  0
LINE
  5
114
330
1E
100
AcDbEntity
  8
0
100
AcDbLine
 10
63.90769999999999
 20
798.5
 30
0.0
 11
63.90769999999999
 21
797.5
 31
0.0
  0
LINE
  5
116
330
1E
100
AcDbEntity
  8
0
100
AcDbLine
 10
63.5082
 20
799.0
 30
0.0
 11
63.90769999999999
 21
798.5
 31
0.0
  0
LINE
  5
117
330
1E
100
AcDbEntity
  8
0
100
AcDbLine
 10
63.5082
 20
799.0
 30
0.0
 11
63.8186
 21
799.0
 31
0.0
  0
LINE
  5
118
330
1E
100
AcDbEntity
  8
0
100
AcDbLine
 10
62.7092
 20
819.3999999999999
 30
0.0
 11
63.5082
 21
819.3999999999999
 31
0.0
  0
LINE
  5
119
330
1E
100
AcDbEntity
  8
0
100
AcDbLine
 10
62.7092
 20
831.0
 30
0.0
 11
63.5082
 21
831.0
 31
0.0
  0
LINE
  5
11A
330
1E
100
AcDbEntity
  8
0
100
AcDbLine
 10
62.7092
 20
831.0
 30
0.0
 11
63.0196
 21
831.0
 31
0.0
  0
LINE
  5
11B
330
1E
100
AcDbEntity
  8
0
100
AcDbLine
 10
62.7092
 20
833.0
 30
0.0
 11
63.5082
 21
833.0
 31
0.0
  0
LINE
  5
11C
330
1E
100
AcDbEntity
  8
0
100
AcDbLine
 10
62.7092
 20
826.2
 30
0.0
 11
63.5082
 21
826.2
 31
0.0
  0
LINE
  5
11D
330
1E
100
AcDbEntity
  8
0
100
AcDbLine
 10
62.7092
 20
824.2
 30
0.0
 11
63.5082
 21
824.2
 31
0.0
  0
LINE
  5
11E
330
1E
100
AcDbEntity
  8
0
100
AcDbLine
 10
62.7092
 20
824.2
 30
0.0
 11
63.0196
 21
824.2
 31
0.0
  0
LINE
  5
11F
330
1E
100
AcDbEntity
  8
0
100
AcDbLine
 10
62.7092
 20
817.3999999999999
 30
0.0
 11
63.5082
 21
817.3999999999999
 31
0.0
  0
LINE
  5
120
330
1E
100
AcDbEntity
  8
0
100
AcDbLine
 10
62.7092
 20
817.3999999999999
 30
0.0
 11
63.0196
 21
817.3999999999999
 31
0.0
  0
LINE
  5
121
330
1E
100
AcDbEntity
  8
0
100
AcDbLine
 10
62.7092
 20
810.5999999999999
 30
0.0
 11
63.0196
 21
810.5999999999999
 31
0.0
  0
LINE
  5
122
330
1E
100
AcDbEntity
  8
0
100
AcDbLine
 10
62.7092
 20
810.5999999999999
 30
0.0
 11
63.5082
 21
810.5999999999999
 31
0.0
  0
LINE
  5
123
330
1E
100
AcDbEntity
  8
0
100
AcDbLine
 10
62.7092
 20
812.6000000000001
 30
0.0
 11
63.5082
 21
812.6000000000001
 31
0.0
  0
LINE
  5
124
330
1E
100
AcDbEntity
  8
0
100
AcDbLine
 10
62.7092
 20
803.8
 30
0.0
 11
63.5082
 21
803.8
 31
0.0
  0
LINE
  5
125
330
1E
100
AcDbEntity
  8
0
100
AcDbLine
 10
62.7092
 20
803.8
 30
0.0
 11
63.0196
 21
803.8
 31
0.0
  0
LINE
  5
126
330
1E
100
AcDbEntity
  8
0
100
AcDbLine
 10
63.5082
 20
803.8
 30
0.0
 11
63.90769999999999
 21
804.2999999999999
 31
0.0
  0
LINE
  5
127
330
1E
100
AcDbEntity
  8
0
100
AcDbLine
 10
63.5082
 20
803.8
 30
0.0
 11
63.8186
 21
803.8
 31
0.0
  0
LINE
  5
128
330
1E
100
AcDbEntity
  8
0
100
AcDbLine
 10
63.90769999999999
 20
804.2999999999999
 30
0.0
 11
63.90769999999999
 21
805.2999999999999
 31
0.0
  0
LINE
  5
12A
330
1E
100
AcDbEntity
  8
0
100
AcDbLine
 10
63.90769999999999
 20
805.2999999999999
 30
0.0
 11
63.90769999999999
 21
804.2999999999999
 31
0.0
  0
LINE
  5
12C
330
1E
100
AcDbEntity
  8
0
100
AcDbLine
 10
63.5082
 20
819.3999999999999
 30
0.0
 11
63.90769999999999
 21
818.9
 31
0.0
  0
LINE
  5
12D
330
1E
100
AcDbEntity
  8
0
100
AcDbLine
 10
63.5082
 20
819.3999999999999
 30
0.0
 11
63.8186
 21
819.3999999999999
 31
0.0
  0
LINE
  5
12E
330
1E
100
AcDbEntity
  8
0
100
AcDbLine
 10
63.5082
 20
831.0
 30
0.0
 11
63.90769999999999
 21
831.4999999999999
 31
0.0
  0
LINE
  5
12F
330
1E
100
AcDbEntity
  8
0
100
AcDbLine
 10
63.5082
 20
831.0
 30
0.0
 11
63.8186
 21
831.0
 31
0.0
  0
LINE
  5
130
330
1E
100
AcDbEntity
  8
0
100
AcDbLine
 10
63.5082
 20
833.0
 30
0.0
 11
63.90769999999999
 21
832.4999999999999
 31
0.0
  0
LINE
  5
131
330
1E
100
AcDbEntity
  8
0
100
AcDbLine
 10
63.5082
 20
833.0
 30
0.0
 11
63.8186
 21
833.0
 31
0.0
  0
LINE
  5
132
330
1E
100
AcDbEntity
  8
0
100
AcDbLine
 10
63.5082
 20
826.2
 30
0.0
 11
63.90769999999999
 21
825.7000000000001
 31
0.0
  0
LINE
  5
133
330
1E
100
AcDbEntity
  8
0
100
AcDbLine
 10
63.5082
 20
826.2
 30
0.0
 11
63.8186
 21
826.2
 31
0.0
  0
LINE
  5
134
330
1E
100
AcDbEntity
  8
0
100
AcDbLine
 10
63.5082
 20
824.2
 30
0.0
 11
63.90769999999999
 21
824.6999999999999
 31
0.0
  0
LINE
  5
135
330
1E
100
AcDbEntity
  8
0
100
AcDbLine
 10
63.5082
 20
824.2
 30
0.0
 11
63.8186
 21
824.2
 31
0.0
  0
LINE
  5
136
330
1E
100
AcDbEntity
  8
0
100
AcDbLine
 10
63.5082
 20
817.3999999999999
 30
0.0
 11
63.90769999999999
 21
817.9
 31
0.0
  0
LINE
  5
137
330
1E
100
AcDbEntity
  8
0
100
AcDbLine
 10
63.5082
 20
817.3999999999999
 30
0.0
 11
63.8186
 21
817.3999999999999
 31
0.0
  0
LINE
  5
138
330
1E
100
AcDbEntity
  8
0
100
AcDbLine
 10
63.5082
 20
810.5999999999999
 30
0.0
 11
63.8186
 21
810.5999999999999
 31
0.0
  0
LINE
  5
139
330
1E
100
AcDbEntity
  8
0
100
AcDbLine
 10
63.5082
 20
810.5999999999999
 30
0.0
 11
63.90769999999999
 21
811.1
 31
0.0
  0
LINE
  5
13B
330
1E
100
AcDbEntity
  8
0
100
AcDbLine
 10
63.90769999999999
 20
811.1
 30
0.0
 11
63.90769999999999
 21
812.1
 31
0.0
  0
LINE
  5
13C
330
1E
100
AcDbEntity
  8
0
100
AcDbLine
 10
63.90769999999999
 20
818.9
 30
0.0
 11
63.90769999999999
 21
817.9
 31
0.0
  0
LINE
  5
13E
330
1E
100
AcDbEntity
  8
0
100
AcDbLine
 10
63.90769999999999
 20
831.4999999999999
 30
0.0
 11
63.90769999999999
 21
832.4999999999999
 31
0.0
  0
LINE
  5
140
330
1E
100
AcDbEntity
  8
0
100
AcDbLine
 10
63.90769999999999
 20
832.4999999999999
 30
0.0
 11
63.90769999999999
 21
831.4999999999999
 31
0.0
  0
LINE
  5
143
330
1E
100
AcDbEntity
  8
0
100
AcDbLine
 10
63.90769999999999
 20
825.7000000000001
 30
0.0
 11
63.90769999999999
 21
824.6999999999999
 31
0.0
  0
LINE
  5
144
330
1E
100
AcDbEntity
  8
0
100
AcDbLine
 10
63.90769999999999
 20
824.6999999999999
 30
0.0
 11
63.90769999999999
 21
825.7000000000001
 31
0.0
  0
LINE
  5
147
330
1E
100
AcDbEntity
  8
0
100
AcDbLine
 10
63.90769999999999
 20
817.9
 30
0.0
 11
63.90769999999999
 21
818.9
 31
0.0
  0
LINE
  5
149
330
1E
100
AcDbEntity
  8
0
100
AcDbLine
 10
63.90769999999999
 20
812.1
 30
0.0
 11
63.90769999999999
 21
811.1
 31
0.0
  0
LINE
  5
14A
330
1E
100
AcDbEntity
  8
0
100
AcDbLine
 10
63.5082
 20
812.6000000000001
 30
0.0
 11
63.90769999999999
 21
812.1
 31
0.0
  0
LINE
  5
14B
330
1E
100
AcDbEntity
  8
0
100
AcDbLine
 10
63.5082
 20
812.6000000000001
 30
0.0
 11
63.8186
 21
812.6000000000001
 31
0.0
  0
LINE
  5
14C
330
1E
100
AcDbEntity
  8
0
100
AcDbLine
 10
63.5082
 20
805.7999999999999
 30
0.0
 11
63.90769999999999
 21
805.2999999999999
 31
0.0
  0
LINE
  5
14D
330
1E
100
AcDbEntity
  8
0
100
AcDbLine
 10
63.5082
 20
805.7999999999999
 30
0.0
 11
63.8186
 21
805.7999999999999
 31
0.0
  0
LINE
  5
14E
330
1E
100
AcDbEntity
  8
0
100
AcDbLine
 10
62.7092
 20
805.7999999999999
 30
0.0
 11
63.5082
 21
805.7999999999999
 31
0.0
  0
LINE
  5
14F
330
1E
100
AcDbEntity
  8
0
100
AcDbLine
 10
62.7092
 20
799.0
 30
0.0
 11
63.5082
 21
799.0
 31
0.0
  0
LINE
  5
150
330
1E
100
AcDbEntity
  8
0
100
AcDbLine
 10
62.3097
 20
797.5
 30
0.0
 11
62.3097
 21
798.5
 31
0.0
  0
LINE
  5
151
330
1E
100
AcDbEntity
  8
0
100
AcDbLine
 10
62.3097
 20
797.5
 30
0.0
 11
62.7092
 21
797.0
 31
0.0
  0
LINE
  5
152
330
1E
100
AcDbEntity
  8
0
100
AcDbLine
 10
62.297
 20
855.0
 30
0.0
 11
64.997
 21
855.0
 31
0.0
  0
LINE
  5
153
330
1E
100
AcDbEntity
  8
0
100
AcDbLine
 10
61.99699999999999
 20
854.4999999999999
 30
0.0
 11
64.89699999999999
 21
854.4999999999999
 31
0.0
  0
LINE
  5
154
330
1E
100
AcDbEntity
  8
0
100
AcDbLine
 10
61.99699999999999
 20
835.5
 30
0.0
 11
64.89699999999999
 21
835.5
 31
0.0
  0
LINE
  5
155
330
1E
100
AcDbEntity
  8
0
100
AcDbLine
 10
64.89699999999999
 20
854.4999999999999
 30
0.0
 11
67.997
 21
854.4999999999999
 31
0.0
  0
LINE
  5
156
330
1E
100
AcDbEntity
  8
0
100
AcDbLine
 10
64.89699999999999
 20
835.5
 30
0.0
 11
67.997
 21
835.5
 31
0.0
  0
LINE
  5
157
330
1E
100
AcDbEntity
  8
0
100
AcDbLine
 10
62.497
 20
835.0
 30
0.0
 11
65.197
 21
835.0
 31
0.0
  0
LINE
  5
158
330
1E
100
AcDbEntity
  8
0
100
AcDbLine
 10
61.99699999999999
 20
834.5
 30
0.0
 11
64.89699999999999
 21
834.5
 31
0.0
  0
LINE
  5
159
330
1E
100
AcDbEntity
  8
0
100
AcDbLine
 10
64.997
 20
855.0
 30
0.0
 11
67.997
 21
855.0
 31
0.0
  0
LINE
  5
15A
330
1E
100
AcDbEntity
  8
0
100
AcDbLine
 10
65.197
 20
835.0
 30
0.0
 11
67.997
 21
835.0
 31
0.0
  0
LINE
  5
15B
330
1E
100
AcDbEntity
  8
0
100
AcDbLine
 10
64.89699999999999
 20
834.5
 30
0.0
 11
67.997
 21
834.5
 31
0.0
  0
LINE
  5
15C
330
1E
100
AcDbEntity
  8
0
100
AcDbLine
 10
64.4725
 20
794.72
 30
0.0
 11
66.09180000000001
 21
793.585
 31
0.0
  0
LINE
  5
15D
330
1E
100
AcDbEntity
  8
0
100
AcDbLine
 10
67.5684
 20
797.0
 30
0.0
 11
68.4256
 21
797.0
 31
0.0
  0
LINE
  5
15E
330
1E
100
AcDbEntity
  8
0
100
AcDbLine
 10
67.13989999999999
 20
797.5
 30
0.0
 11
67.13989999999999
 21
798.5
 31
0.0
  0
LINE
  5
15F
330
1E
100
AcDbEntity
  8
0
100
AcDbLine
 10
67.13989999999999
 20
797.5
 30
0.0
 11
67.5684
 21
797.0
 31
0.0
  0
LINE
  5
160
330
1E
100
AcDbEntity
  8
0
100
AcDbLine
 10
67.5684
 20
803.8
 30
0.0
 11
68.4256
 21
803.8
 31
0.0
  0
LINE
  5
161
330
1E
100
AcDbEntity
  8
0
100
AcDbLine
 10
67.13989999999999
 20
804.2999999999999
 30
0.0
 11
67.13989999999999
 21
805.2999999999999
 31
0.0
  0
LINE
  5
162
330
1E
100
AcDbEntity
  8
0
100
AcDbLine
 10
67.13989999999999
 20
804.2999999999999
 30
0.0
 11
67.5684
 21
803.8
 31
0.0
  0
LINE
  5
163
330
1E
100
AcDbEntity
  8
0
100
AcDbLine
 10
67.13989999999999
 20
811.1
 30
0.0
 11
67.5684
 21
810.5999999999999
 31
0.0
  0
LINE
  5
164
330
1E
100
AcDbEntity
  8
0
100
AcDbLine
 10
67.13989999999999
 20
811.1
 30
0.0
 11
67.13989999999999
 21
812.1
 31
0.0
  0
LINE
  5
165
330
1E
100
AcDbEntity
  8
0
100
AcDbLine
 10
67.5684
 20
810.5999999999999
 30
0.0
 11
68.4256
 21
810.5999999999999
 31
0.0
  0
LINE
  5
166
330
1E
100
AcDbEntity
  8
0
100
AcDbLine
 10
67.13989999999999
 20
818.9
 30
0.0
 11
67.5684
 21
819.3999999999999
 31
0.0
  0
LINE
  5
167
330
1E
100
AcDbEntity
  8
0
100
AcDbLine
 10
67.13989999999999
 20
818.9
 30
0.0
 11
67.13989999999999
 21
817.9
 31
0.0
  0
LINE
  5
168
330
1E
100
AcDbEntity
  8
0
100
AcDbLine
 10
67.13989999999999
 20
831.4999999999999
 30
0.0
 11
67.13989999999999
 21
832.4999999999999
 31
0.0
  0
LINE
  5
169
330
1E
100
AcDbEntity
  8
0
100
AcDbLine
 10
67.13989999999999
 20
831.4999999999999
 30
0.0
 11
67.5684
 21
831.0
 31
0.0
  0
LINE
  5
16A
330
1E
100
AcDbEntity
  8
0
100
AcDbLine
 10
67.13989999999999
 20
832.4999999999999
 30
0.0
 11
67.5684
 21
833.0
 31
0.0
  0
LINE
  5
16B
330
1E
100
AcDbEntity
  8
0
100
AcDbLine
 10
67.13989999999999
 20
832.4999999999999
 30
0.0
 11
67.13989999999999
 21
831.4999999999999
 31
0.0
  0
LINE
  5
16C
330
1E
100
AcDbEntity
  8
0
100
AcDbLine
 10
67.13989999999999
 20
825.7000000000001
 30
0.0
 11
67.13989999999999
 21
824.6999999999999
 31
0.0
  0
LINE
  5
16D
330
1E
100
AcDbEntity
  8
0
100
AcDbLine
 10
67.13989999999999
 20
825.7000000000001
 30
0.0
 11
67.5684
 21
826.2
 31
0.0
  0
LINE
  5
16E
330
1E
100
AcDbEntity
  8
0
100
AcDbLine
 10
67.13989999999999
 20
824.6999999999999
 30
0.0
 11
67.5684
 21
824.2
 31
0.0
  0
LINE
  5
16F
330
1E
100
AcDbEntity
  8
0
100
AcDbLine
 10
67.13989999999999
 20
824.6999999999999
 30
0.0
 11
67.13989999999999
 21
825.7000000000001
 31
0.0
  0
LINE
  5
170
330
1E
100
AcDbEntity
  8
0
100
AcDbLine
 10
67.5684
 20
831.0
 30
0.0
 11
68.4256
 21
831.0
 31
0.0
  0
LINE
  5
171
330
1E
100
AcDbEntity
  8
0
100
AcDbLine
 10
67.5684
 20
833.0
 30
0.0
 11
68.4256
 21
833.0
 31
0.0
  0
LINE
  5
172
330
1E
100
AcDbEntity
  8
0
100
AcDbLine
 10
67.5684
 20
826.2
 30
0.0
 11
68.4256
 21
826.2
 31
0.0
  0
LINE
  5
173
330
1E
100
AcDbEntity
  8
0
100
AcDbLine
 10
67.5684
 20
819.3999999999999
 30
0.0
 11
68.4256
 21
819.3999999999999
 31
0.0
  0
LINE
  5
174
330
1E
100
AcDbEntity
  8
0
100
AcDbLine
 10
67.5684
 20
824.2
 30
0.0
 11
68.4256
 21
824.2
 31
0.0
  0
LINE
  5
175
330
1E
100
AcDbEntity
  8
0
100
AcDbLine
 10
67.5684
 20
817.3999999999999
 30
0.0
 11
68.4256
 21
817.3999999999999
 31
0.0
  0
LINE
  5
176
330
1E
100
AcDbEntity
  8
0
100
AcDbLine
 10
67.13989999999999
 20
817.9
 30
0.0
 11
67.5684
 21
817.3999999999999
 31
0.0
  0
LINE
  5
177
330
1E
100
AcDbEntity
  8
0
100
AcDbLine
 10
67.13989999999999
 20
817.9
 30
0.0
 11
67.13989999999999
 21
818.9
 31
0.0
  0
LINE
  5
178
330
1E
100
AcDbEntity
  8
0
100
AcDbLine
 10
67.13989999999999
 20
812.1
 30
0.0
 11
67.5684
 21
812.6000000000001
 31
0.0
  0
LINE
  5
179
330
1E
100
AcDbEntity
  8
0
100
AcDbLine
 10
67.13989999999999
 20
812.1
 30
0.0
 11
67.13989999999999
 21
811.1
 31
0.0
  0
LINE
  5
17A
330
1E
100
AcDbEntity
  8
0
100
AcDbLine
 10
67.5684
 20
812.6000000000001
 30
0.0
 11
68.4256
 21
812.6000000000001
 31
0.0
  0
LINE
  5
17B
330
1E
100
AcDbEntity
  8
0
100
AcDbLine
 10
67.13989999999999
 20
805.2999999999999
 30
0.0
 11
67.5684
 21
805.7999999999999
 31
0.0
  0
LINE
  5
17C
330
1E
100
AcDbEntity
  8
0
100
AcDbLine
 10
67.13989999999999
 20
805.2999999999999
 30
0.0
 11
67.13989999999999
 21
804.2999999999999
 31
0.0
  0
LINE
  5
17D
330
1E
100
AcDbEntity
  8
0
100
AcDbLine
 10
67.5684
 20
805.7999999999999
 30
0.0
 11
68.4256
 21
805.7999999999999
 31
0.0
  0
LINE
  5
17E
330
1E
100
AcDbEntity
  8
0
100
AcDbLine
 10
67.13989999999999
 20
798.5
 30
0.0
 11
67.5684
 21
799.0
 31
0.0
  0
LINE
  5
17F
330
1E
100
AcDbEntity
  8
0
100
AcDbLine
 10
67.13989999999999
 20
798.5
 30
0.0
 11
67.13989999999999
 21
797.5
 31
0.0
  0
LINE
  5
180
330
1E
100
AcDbEntity
  8
0
100
AcDbLine
 10
67.5684
 20
799.0
 30
0.0
 11
68.4256
 21
799.0
 31
0.0
  0
LINE
  5
181
330
1E
100
AcDbEntity
  8
0
100
AcDbLine
 10
67.997
 20
855.0
 30
0.0
 11
70.997
 21
855.0
 31
0.0
  0
LINE
  5
182
330
1E
100
AcDbEntity
  8
0
100
AcDbLine
 10
67.997
 20
854.4999999999999
 30
0.0
 11
71.097
 21
854.4999999999999
 31
0.0
  0
LINE
  5
183
330
1E
100
AcDbEntity
  8
0
100
AcDbLine
 10
67.997
 20
835.5
 30
0.0
 11
71.097
 21
835.5
 31
0.0
  0
LINE
  5
184
330
1E
100
AcDbEntity
  8
0
100
AcDbLine
 10
67.997
 20
835.0
 30
0.0
 11
70.79699999999999
 21
835.0
 31
0.0
  0
LINE
  5
185
330
1E
100
AcDbEntity
  8
0
100
AcDbLine
 10
67.997
 20
834.5
 30
0.0
 11
71.097
 21
834.5
 31
0.0
  0
LINE
  5
186
330
1E
100
AcDbEntity
  8
0
100
AcDbLine
 10
67.9999
 20
793.21
 30
0.0
 11
69.908
 21
793.585
 31
0.0
  0
LINE
  5
187
330
1E
100
AcDbEntity
  8
0
100
AcDbLine
 10
66.09180000000001
 20
793.585
 30
0.0
 11
67.9999
 21
793.21
 31
0.0
  0
LINE
  5
188
330
1E
100
AcDbEntity
  8
0
100
AcDbLine
 10
67.9999
 20
724.819
 30
0.0
 11
74.6968
 21
723.6669999999999
 31
0.0
  0
LINE
  5
189
330
1E
100
AcDbEntity
  8
0
100
AcDbLine
 10
61.4943
 20
723.0169999999999
 30
0.0
 11
67.9999
 21
724.1360000000001
 31
0.0
  0
LINE
  5
18A
330
1E
100
AcDbEntity
  8
0
100
AcDbLine
 10
55.6255
 20
720.383
 30
0.0
 11
61.3029
 21
723.6669999999999
 31
0.0
  0
LINE
  5
18B
330
1E
100
AcDbEntity
  8
0
100
AcDbLine
 10
52.2939
 20
715.052
 30
0.0
 11
55.9791
 21
719.826
 31
0.0
  0
LINE
  5
18C
330
1E
100
AcDbEntity
  8
0
100
AcDbLine
 10
52.24267425372
 20
714.829084870709
 30
0.0
 11
52.2939
 21
715.052
 31
0.0
  0
LINE
  5
18D
330
1E
100
AcDbEntity
  8
0
100
AcDbLine
 10
51.832
 20
715.4689999999999
 30
0.0
 11
55.6255
 21
720.383
 31
0.0
  0
LINE
  5
18E
330
1E
100
AcDbEntity
  8
0
100
AcDbLine
 10
44.27349999999999
 20
10.00029999999999
 30
0.0
 11
67.9999
 21
10.00029999999999
 31
0.0
  0
LINE
  5
18F
330
1E
100
AcDbEntity
  8
0
100
AcDbLine
 10
67.9999
 20
10.00029999999999
 30
0.0
 11
91.72629999999999
 21
10.00029999999999
 31
0.0
  0
LINE
  5
190
330
1E
100
AcDbEntity
  8
0
100
AcDbLine
 10
67.9999
 20
0.0003289999999948
 30
0.0
 11
91.72629999999999
 21
0.0003169999999945
 31
0.0
  0
LINE
  5
191
330
1E
100
AcDbEntity
  8
0
100
AcDbLine
 10
91.72629999999999
 20
0.0000129999999875
 30
0.0
 11
111.84
 21
0.0000479999999883
 31
0.0
  0
LINE
  5
192
330
1E
100
AcDbEntity
  8
0
100
AcDbLine
 10
68.0
 20
677.653
 30
0.0
 11
72.78360000000001
 21
678.4760000000001
 31
0.0
  0
LINE
  5
193
330
1E
100
AcDbEntity
  8
0
100
AcDbLine
 10
68.0001
 20
670.821
 30
0.0
 11
74.697
 21
671.9739999999999
 31
0.0
  0
LINE
  5
194
330
1E
100
AcDbEntity
  8
0
100
AcDbLine
 10
74.2316
 20
651.135
 30
0.0
 11
88.3664
 21
315.091
 31
0.0
  0
LINE
  5
195
330
1E
100
AcDbEntity
  8
0
100
AcDbLine
 10
74.2316
 20
651.135
 30
0.0
 11
74.2561
 21
660.0
 31
0.0
  0
LINE
  5
196
330
1E
100
AcDbEntity
  8
0
100
AcDbLine
 10
70.5996
 20
660.0
 30
0.0
 11
72.34799999999999
 21
660.0
 31
0.0
  0
LINE
  5
197
330
1E
100
AcDbEntity
  8
0
100
AcDbLine
 10
72.34799999999999
 20
660.0
 30
0.0
 11
73.63179999999999
 21
660.0
 31
0.0
  0
LINE
  5
198
330
1E
100
AcDbEntity
  8
0
100
AcDbLine
 10
73.63179999999999
 20
660.0
 30
0.0
 11
74.2561
 21
660.0
 31
0.0
  0
LINE
  5
199
330
1E
100
AcDbEntity
  8
0
100
AcDbLine
 10
68.65300000000001
 20
660.0
 30
0.0
 11
70.5996
 21
660.0
 31
0.0
  0
LINE
  5
19A
330
1E
100
AcDbEntity
  8
0
100
AcDbLine
 10
74.25609723632259
 20
659.9989999999999
 30
0.0
 11
74.36379999999999
 21
659.9989999999999
 31
0.0
  0
LINE
  5
19B
330
1E
100
AcDbEntity
  8
0
100
AcDbLine
 10
74.36379999999999
 20
659.9989999999999
 30
0.0
 11
76.31499999999999
 21
660.0
 31
0.0
  0
LINE
  5
19C
330
1E
100
AcDbEntity
  8
0
100
AcDbLine
 10
74.36379999999999
 20
660.0010000000001
 30
0.0
 11
76.31499999999999
 21
660.0
 31
0.0
  0
LINE
  5
19D
330
1E
100
AcDbEntity
  8
0
100
AcDbLine
 10
71.4442
 20
660.0010000000001
 30
0.0
 11
74.36379999999999
 21
660.0010000000001
 31
0.0
  0
LINE
  5
19E
330
1E
100
AcDbEntity
  8
0
100
AcDbLine
 10
76.31499999999999
 20
660.0
 30
0.0
 11
76.99989999999999
 21
660.0
 31
0.0
  0
LINE
  5
19F
330
1E
100
AcDbEntity
  8
0
100
AcDbLine
 10
78.51539999999999
 20
263.0869999999999
 30
0.0
 11
82.93170000000001
 21
162.002
 31
0.0
  0
LINE
  5
1A0
330
1E
100
AcDbEntity
  8
0
100
AcDbLine
 10
78.51539999999999
 20
263.0869999999999
 30
0.0
 11
78.5993
 21
314.5829999999999
 31
0.0
  0
LINE
  5
1A1
330
1E
100
AcDbEntity
  8
0
100
AcDbLine
 10
76.99989999999999
 20
660.0
 30
0.0
 11
78.14128004122292
 21
671.4138004122299
 31
0.0
  0
LINE
  5
1A2
330
1E
100
AcDbEntity
  8
0
100
AcDbLine
 10
72.78360000000001
 20
678.4760000000001
 30
0.0
 11
76.83880000000001
 21
680.822
 31
0.0
  0
LINE
  5
1A3
330
1E
100
AcDbEntity
  8
0
100
AcDbLine
 10
79.54649999999999
 20
684.328
 30
0.0
 11
80.49989999999999
 21
688.4730000000001
 31
0.0
  0
LINE
  5
1A4
330
1E
100
AcDbEntity
  8
0
100
AcDbLine
 10
76.83880000000001
 20
680.822
 30
0.0
 11
79.54649999999999
 21
684.328
 31
0.0
  0
LINE
  5
1A5
330
1E
100
AcDbEntity
  8
0
100
AcDbLine
 10
74.697
 20
671.9739999999999
 30
0.0
 11
80.3744
 21
675.258
 31
0.0
  0
LINE
  5
1A6
330
1E
100
AcDbEntity
  8
0
100
AcDbLine
 10
75.65380000000001
 20
669.975
 30
0.0
 11
82.1422
 21
673.7280000000001
 31
0.0
  0
LINE
  5
1A7
330
1E
100
AcDbEntity
  8
0
100
AcDbLine
 10
68.0001
 20
668.6569999999999
 30
0.0
 11
75.65380000000001
 21
669.975
 31
0.0
  0
LINE
  5
1A8
330
1E
100
AcDbEntity
  8
0
100
AcDbLine
 10
68.0098
 20
699.293
 30
0.0
 11
72.7834
 21
698.4689999999999
 31
0.0
  0
LINE
  5
1A9
330
1E
100
AcDbEntity
  8
0
100
AcDbLine
 10
72.7834
 20
698.4689999999999
 30
0.0
 11
76.8387
 21
696.1239999999999
 31
0.0
  0
LINE
  5
1AA
330
1E
100
AcDbEntity
  8
0
100
AcDbLine
 10
68.0138
 20
701.118
 30
0.0
 11
74.6968
 21
699.965
 31
0.0
  0
LINE
  5
1AB
330
1E
100
AcDbEntity
  8
0
100
AcDbLine
 10
74.6968
 20
699.965
 30
0.0
 11
80.3742
 21
696.681
 31
0.0
  0
LINE
  5
1AC
330
1E
100
AcDbEntity
  8
0
100
AcDbLine
 10
75.65349999999999
 20
701.9639999999999
 30
0.0
 11
82.14200000000001
 21
698.211
 31
0.0
  0
LINE
  5
1AD
330
1E
100
AcDbEntity
  8
0
100
AcDbLine
 10
68.0158
 20
703.2819999999999
 30
0.0
 11
75.65349999999999
 21
701.9639999999999
 31
0.0
  0
LINE
  5
1AE
330
1E
100
AcDbEntity
  8
0
100
AcDbLine
 10
68.0158
 20
704.534
 30
0.0
 11
75.65349999999999
 21
703.216
 31
0.0
  0
LINE
  5
1AF
330
1E
100
AcDbEntity
  8
0
100
AcDbLine
 10
75.65349999999999
 20
703.216
 30
0.0
 11
82.14200000000001
 21
699.463
 31
0.0
  0
LINE
  5
1B0
330
1E
100
AcDbEntity
  8
0
100
AcDbLine
 10
76.8387
 20
696.1239999999999
 30
0.0
 11
79.5292
 21
692.654
 31
0.0
  0
LINE
  5
1B1
330
1E
100
AcDbEntity
  8
0
100
AcDbLine
 10
79.5292
 20
692.654
 30
0.0
 11
80.49989999999999
 21
688.4730000000001
 31
0.0
  0
LINE
  5
1B2
330
1E
100
AcDbEntity
  8
0
100
AcDbLine
 10
81.0481374478932
 20
489.077064257024
 30
0.0
 11
88.52529999999999
 21
314.8299999999999
 31
0.0
  0
LINE
  5
1B3
330
1E
100
AcDbEntity
  8
0
100
AcDbLine
 10
81.0481374478932
 20
489.0770642570229
 30
0.0
 11
88.52529999999999
 21
314.8299999999999
 31
0.0
  0
LINE
  5
1B4
330
1E
100
AcDbEntity
  8
0
100
AcDbLine
 10
80.3744
 20
675.258
 30
0.0
 11
84.1652
 21
680.1669999999999
 31
0.0
  0
LINE
  5
1B5
330
1E
100
AcDbEntity
  8
0
100
AcDbLine
 10
80.3742
 20
696.681
 30
0.0
 11
84.14089999999999
 21
691.8219999999999
 31
0.0
  0
LINE
  5
1B6
330
1E
100
AcDbEntity
  8
0
100
AcDbLine
 10
82.93170000000001
 20
162.002
 30
0.0
 11
85.0741
 21
124.892
 31
0.0
  0
LINE
  5
1B7
330
1E
100
AcDbEntity
  8
0
100
AcDbLine
 10
82.1422
 20
673.7280000000001
 30
0.0
 11
86.4745
 21
679.338
 31
0.0
  0
LINE
  5
1B8
330
1E
100
AcDbEntity
  8
0
100
AcDbLine
 10
82.14200000000001
 20
698.211
 30
0.0
 11
86.44670000000001
 21
692.659
 31
0.0
  0
LINE
  5
1B9
330
1E
100
AcDbEntity
  8
0
100
AcDbLine
 10
82.14200000000001
 20
699.463
 30
0.0
 11
86.44670000000001
 21
693.9099999999999
 31
0.0
  0
LINE
  5
1BA
330
1E
100
AcDbEntity
  8
0
100
AcDbLine
 10
85.0741
 20
124.892
 30
0.0
 11
87.3048
 21
113.1579999999999
 31
0.0
  0
LINE
  5
1BB
330
1E
100
AcDbEntity
  8
0
100
AcDbLine
 10
84.1652
 20
680.1669999999999
 30
0.0
 11
85.49989999999999
 21
685.9689999999999
 31
0.0
  0
LINE
  5
1BC
330
1E
100
AcDbEntity
  8
0
100
AcDbLine
 10
84.14089999999999
 20
691.8219999999999
 30
0.0
 11
85.49989999999999
 21
685.9689999999999
 31
0.0
  0
LINE
  5
1BD
330
1E
100
AcDbEntity
  8
0
100
AcDbLine
 10
85.49927322863579
 20
678.0751552784079
 30
0.0
 11
85.4995442131095
 21
385.3419166997129
 31
0.0
  0
LINE
  5
1BE
330
1E
100
AcDbEntity
  8
0
100
AcDbLine
 10
87.3048
 20
113.1579999999999
 30
0.0
 11
88.3619
 21
108.937
 31
0.0
  0
LINE
  5
1BF
330
1E
100
AcDbEntity
  8
0
100
AcDbLine
 10
88.3619
 20
108.937
 30
0.0
 11
89.1951
 21
107.1729999999999
 31
0.0
  0
LINE
  5
1C0
330
1E
100
AcDbEntity
  8
0
100
AcDbLine
 10
89.1951
 20
107.1729999999999
 30
0.0
 11
90.64010000000001
 21
105.862
 31
0.0
  0
LINE
  5
1C1
330
1E
100
AcDbEntity
  8
0
100
AcDbLine
 10
86.58419999999999
 20
112.232
 30
0.0
 11
89.1951
 21
107.1729999999999
 31
0.0
  0
LINE
  5
1C2
330
1E
100
AcDbEntity
  8
0
100
AcDbLine
 10
90.64010000000001
 20
105.862
 30
0.0
 11
92.47660000000001
 21
105.2039999999999
 31
0.0
  0
LINE
  5
1C3
330
1E
100
AcDbEntity
  8
0
100
AcDbLine
 10
86.14929999999999
 20
114.0439999999999
 30
0.0
 11
86.58419999999999
 21
112.232
 31
0.0
  0
LINE
  5
1C4
330
1E
100
AcDbEntity
  8
0
100
AcDbLine
 10
86.14929999999999
 20
114.0439999999999
 30
0.0
 11
88.3619
 21
108.937
 31
0.0
  0
LINE
  5
1C5
330
1E
100
AcDbEntity
  8
0
100
AcDbLine
 10
85.4997892379432
 20
120.651795879951
 30
0.0
 11
86.14929999999999
 21
114.0439999999999
 31
0.0
  0
LINE
  5
1C6
330
1E
100
AcDbEntity
  8
0
100
AcDbLine
 10
85.4997873856182
 20
122.652785501034
 30
0.0
 11
85.49989166853
 21
10.00029999999999
 31
0.0
  0
LINE
  5
1C7
330
1E
100
AcDbEntity
  8
0
100
AcDbLine
 10
85.49989999999999
 20
695.1313581434249
 30
0.0
 11
85.49989999999999
 21
708.4999999999999
 31
0.0
  0
LINE
  5
1C8
330
1E
100
AcDbEntity
  8
0
100
AcDbLine
 10
85.50349999999999
 20
650.969
 30
0.0
 11
85.50349999999999
 21
678.080628626826
 31
0.0
  0
LINE
  5
1C9
330
1E
100
AcDbEntity
  8
0
100
AcDbLine
 10
85.50349999999999
 20
678.080628626826
 30
0.0
 11
85.50349999999999
 21
650.969
 31
0.0
  0
LINE
  5
1CA
330
1E
100
AcDbEntity
  8
0
100
AcDbLine
 10
85.5006
 20
678.0768733467209
 30
0.0
 11
85.5006
 21
650.994
 31
0.0
  0
LINE
  5
1CB
330
1E
100
AcDbEntity
  8
0
100
AcDbLine
 10
85.5006
 20
650.994
 30
0.0
 11
85.5006
 21
678.0768733467209
 31
0.0
  0
LINE
  5
1CC
330
1E
100
AcDbEntity
  8
0
100
AcDbLine
 10
87.99989999999999
 20
685.9689999999999
 30
0.0
 11
87.99989999999999
 21
687.2209999999999
 31
0.0
  0
LINE
  5
1CD
330
1E
100
AcDbEntity
  8
0
100
AcDbLine
 10
86.4745
 20
679.338
 30
0.0
 11
87.99989999999999
 21
685.9689999999999
 31
0.0
  0
LINE
  5
1CE
330
1E
100
AcDbEntity
  8
0
100
AcDbLine
 10
86.44670000000001
 20
692.659
 30
0.0
 11
87.99989999999999
 21
685.9689999999999
 31
0.0
  0
LINE
  5
1CF
330
1E
100
AcDbEntity
  8
0
100
AcDbLine
 10
88.45919999999999
 20
263.244
 30
0.0
 11
92.92230000000001
 21
162.339
 31
0.0
  0
LINE
  5
1D0
330
1E
100
AcDbEntity
  8
0
100
AcDbLine
 10
88.45919999999999
 20
263.244
 30
0.0
 11
88.52529999999999
 21
314.8299999999999
 31
0.0
  0
LINE
  5
1D1
330
1E
100
AcDbEntity
  8
0
100
AcDbLine
 10
88.4783
 20
263.244
 30
0.0
 11
88.47868163951799
 21
278.4479312583089
 31
0.0
  0
LINE
  5
1D2
330
1E
100
AcDbEntity
  8
0
100
AcDbLine
 10
88.4783
 20
263.244
 30
0.0
 11
92.9371
 21
162.339
 31
0.0
  0
LINE
  5
1D3
330
1E
100
AcDbEntity
  8
0
100
AcDbLine
 10
87.99989999999999
 20
687.2209999999999
 30
0.0
 11
87.99989999999999
 21
685.9689999999999
 31
0.0
  0
LINE
  5
1D4
330
1E
100
AcDbEntity
  8
0
100
AcDbLine
 10
86.44670000000001
 20
693.9099999999999
 30
0.0
 11
87.99989999999999
 21
687.2209999999999
 31
0.0
  0
LINE
  5
1D5
330
1E
100
AcDbEntity
  8
0
100
AcDbLine
 10
85.49989999999999
 20
708.4999999999999
 30
0.0
 11
85.49989999999999
 21
695.1313581434249
 31
0.0
  0
LINE
  5
1D6
330
1E
100
AcDbEntity
  8
0
100
AcDbLine
 10
85.4997873856182
 20
122.652785501034
 30
0.0
 11
85.49989166853
 21
10.0003000000001
 31
0.0
  0
LINE
  5
1D7
330
1E
100
AcDbEntity
  8
0
100
AcDbLine
 10
85.49927322863579
 20
678.0751552784079
 30
0.0
 11
85.4995442131095
 21
385.3419166997129
 31
0.0
  0
LINE
  5
1D8
330
1E
100
AcDbEntity
  8
0
100
AcDbLine
 10
83.78654268807791
 20
714.810116887097
 30
0.0
 11
84.14089999999999
 21
714.3530000000001
 31
0.0
  0
LINE
  5
1D9
330
1E
100
AcDbEntity
  8
0
100
AcDbLine
 10
84.14089999999999
 20
714.3530000000001
 30
0.0
 11
85.49989999999999
 21
708.4999999999999
 31
0.0
  0
LINE
  5
1DA
330
1E
100
AcDbEntity
  8
0
100
AcDbLine
 10
85.49924398286309
 20
709.668145160767
 30
0.0
 11
85.4992450616092
 21
708.502820716999
 31
0.0
  0
LINE
  5
1DB
330
1E
100
AcDbEntity
  8
0
100
AcDbLine
 10
85.36465902842349
 20
709.0824616678709
 30
0.0
 11
85.49989999999999
 21
709.671
 31
0.0
  0
LINE
  5
1DC
330
1E
100
AcDbEntity
  8
0
100
AcDbLine
 10
83.70589999999999
 20
715.052
 30
0.0
 11
83.75092659455658
 21
714.8560612411529
 31
0.0
  0
LINE
  5
1DD
330
1E
100
AcDbEntity
  8
0
100
AcDbLine
 10
84.16780000000001
 20
715.4689999999999
 30
0.0
 11
85.49989999999999
 21
709.671
 31
0.0
  0
LINE
  5
1DE
330
1E
100
AcDbEntity
  8
0
100
AcDbLine
 10
80.02070000000001
 20
719.826
 30
0.0
 11
83.70589999999999
 21
715.052
 31
0.0
  0
LINE
  5
1DF
330
1E
100
AcDbEntity
  8
0
100
AcDbLine
 10
68.4256
 20
797.0
 30
0.0
 11
68.8541
 21
797.5
 31
0.0
  0
LINE
  5
1E0
330
1E
100
AcDbEntity
  8
0
100
AcDbLine
 10
68.8541
 20
798.5
 30
0.0
 11
68.8541
 21
797.5
 31
0.0
  0
LINE
  5
1E1
330
1E
100
AcDbEntity
  8
0
100
AcDbLine
 10
68.4256
 20
803.8
 30
0.0
 11
68.8541
 21
804.2999999999999
 31
0.0
  0
LINE
  5
1E2
330
1E
100
AcDbEntity
  8
0
100
AcDbLine
 10
68.8541
 20
805.2999999999999
 30
0.0
 11
68.8541
 21
804.2999999999999
 31
0.0
  0
LINE
  5
1E3
330
1E
100
AcDbEntity
  8
0
100
AcDbLine
 10
68.4256
 20
819.3999999999999
 30
0.0
 11
68.8541
 21
818.9
 31
0.0
  0
LINE
  5
1E4
330
1E
100
AcDbEntity
  8
0
100
AcDbLine
 10
68.4256
 20
831.0
 30
0.0
 11
68.8541
 21
831.4999999999999
 31
0.0
  0
LINE
  5
1E5
330
1E
100
AcDbEntity
  8
0
100
AcDbLine
 10
68.4256
 20
833.0
 30
0.0
 11
68.8541
 21
832.4999999999999
 31
0.0
  0
LINE
  5
1E6
330
1E
100
AcDbEntity
  8
0
100
AcDbLine
 10
68.4256
 20
826.2
 30
0.0
 11
68.8541
 21
825.7000000000001
 31
0.0
  0
LINE
  5
1E7
330
1E
100
AcDbEntity
  8
0
100
AcDbLine
 10
68.4256
 20
824.2
 30
0.0
 11
68.8541
 21
824.6999999999999
 31
0.0
  0
LINE
  5
1E8
330
1E
100
AcDbEntity
  8
0
100
AcDbLine
 10
68.4256
 20
817.3999999999999
 30
0.0
 11
68.8541
 21
817.9
 31
0.0
  0
LINE
  5
1E9
330
1E
100
AcDbEntity
  8
0
100
AcDbLine
 10
68.4256
 20
810.5999999999999
 30
0.0
 11
68.8541
 21
811.1
 31
0.0
  0
LINE
  5
1EA
330
1E
100
AcDbEntity
  8
0
100
AcDbLine
 10
68.8541
 20
811.1
 30
0.0
 11
68.8541
 21
812.1
 31
0.0
  0
LINE
  5
1EB
330
1E
100
AcDbEntity
  8
0
100
AcDbLine
 10
68.8541
 20
817.9
 30
0.0
 11
68.8541
 21
818.9
 31
0.0
  0
LINE
  5
1EC
330
1E
100
AcDbEntity
  8
0
100
AcDbLine
 10
68.8541
 20
818.9
 30
0.0
 11
68.8541
 21
817.9
 31
0.0
  0
LINE
  5
1ED
330
1E
100
AcDbEntity
  8
0
100
AcDbLine
 10
68.8541
 20
832.4999999999999
 30
0.0
 11
68.8541
 21
831.4999999999999
 31
0.0
  0
LINE
  5
1EE
330
1E
100
AcDbEntity
  8
0
100
AcDbLine
 10
68.8541
 20
831.4999999999999
 30
0.0
 11
68.8541
 21
832.4999999999999
 31
0.0
  0
LINE
  5
1EF
330
1E
100
AcDbEntity
  8
0
100
AcDbLine
 10
68.8541
 20
824.6999999999999
 30
0.0
 11
68.8541
 21
825.7000000000001
 31
0.0
  0
LINE
  5
1F0
330
1E
100
AcDbEntity
  8
0
100
AcDbLine
 10
68.8541
 20
825.7000000000001
 30
0.0
 11
68.8541
 21
824.6999999999999
 31
0.0
  0
LINE
  5
1F1
330
1E
100
AcDbEntity
  8
0
100
AcDbLine
 10
68.8541
 20
812.1
 30
0.0
 11
68.8541
 21
811.1
 31
0.0
  0
LINE
  5
1F2
330
1E
100
AcDbEntity
  8
0
100
AcDbLine
 10
68.4256
 20
812.6000000000001
 30
0.0
 11
68.8541
 21
812.1
 31
0.0
  0
LINE
  5
1F3
330
1E
100
AcDbEntity
  8
0
100
AcDbLine
 10
68.4256
 20
805.7999999999999
 30
0.0
 11
68.8541
 21
805.2999999999999
 31
0.0
  0
LINE
  5
1F4
330
1E
100
AcDbEntity
  8
0
100
AcDbLine
 10
68.8541
 20
804.2999999999999
 30
0.0
 11
68.8541
 21
805.2999999999999
 31
0.0
  0
LINE
  5
1F5
330
1E
100
AcDbEntity
  8
0
100
AcDbLine
 10
68.4256
 20
799.0
 30
0.0
 11
68.8541
 21
798.5
 31
0.0
  0
LINE
  5
1F6
330
1E
100
AcDbEntity
  8
0
100
AcDbLine
 10
68.8541
 20
797.5
 30
0.0
 11
68.8541
 21
798.5
 31
0.0
  0
LINE
  5
1F7
330
1E
100
AcDbEntity
  8
0
100
AcDbLine
 10
70.997
 20
855.0
 30
0.0
 11
73.697
 21
855.0
 31
0.0
  0
LINE
  5
1F8
330
1E
100
AcDbEntity
  8
0
100
AcDbLine
 10
71.097
 20
854.4999999999999
 30
0.0
 11
73.997
 21
854.4999999999999
 31
0.0
  0
LINE
  5
1F9
330
1E
100
AcDbEntity
  8
0
100
AcDbLine
 10
71.097
 20
835.5
 30
0.0
 11
73.997
 21
835.5
 31
0.0
  0
LINE
  5
1FA
330
1E
100
AcDbEntity
  8
0
100
AcDbLine
 10
70.79699999999999
 20
835.0
 30
0.0
 11
73.497
 21
835.0
 31
0.0
  0
LINE
  5
1FB
330
1E
100
AcDbEntity
  8
0
100
AcDbLine
 10
71.097
 20
834.5
 30
0.0
 11
73.997
 21
834.5
 31
0.0
  0
LINE
  5
1FC
330
1E
100
AcDbEntity
  8
0
100
AcDbLine
 10
69.908
 20
793.585
 30
0.0
 11
71.5273
 21
794.72
 31
0.0
  0
LINE
  5
1FD
330
1E
100
AcDbEntity
  8
0
100
AcDbLine
 10
72.17539999999999
 20
797.0
 30
0.0
 11
72.4858
 21
797.0
 31
0.0
  0
LINE
  5
200
330
1E
100
AcDbEntity
  8
0
100
AcDbLine
 10
72.08629999999999
 20
797.5
 30
0.0
 11
72.08629999999999
 21
798.5
 31
0.0
  0
LINE
  5
201
330
1E
100
AcDbEntity
  8
0
100
AcDbLine
 10
72.08629999999999
 20
797.5
 30
0.0
 11
72.4858
 21
797.0
 31
0.0
  0
LINE
  5
202
330
1E
100
AcDbEntity
  8
0
100
AcDbLine
 10
72.08629999999999
 20
798.5
 30
0.0
 11
72.4858
 21
799.0
 31
0.0
  0
LINE
  5
203
330
1E
100
AcDbEntity
  8
0
100
AcDbLine
 10
72.08629999999999
 20
798.5
 30
0.0
 11
72.08629999999999
 21
797.5
 31
0.0
  0
LINE
  5
204
330
1E
100
AcDbEntity
  8
0
100
AcDbLine
 10
72.17539999999999
 20
799.0
 30
0.0
 11
72.4858
 21
799.0
 31
0.0
  0
LINE
  5
205
330
1E
100
AcDbEntity
  8
0
100
AcDbLine
 10
72.4858
 20
797.0
 30
0.0
 11
73.2848
 21
797.0
 31
0.0
  0
LINE
  5
206
330
1E
100
AcDbEntity
  8
0
100
AcDbLine
 10
72.9744
 20
797.0
 30
0.0
 11
73.2848
 21
797.0
 31
0.0
  0
LINE
  5
207
330
1E
100
AcDbEntity
  8
0
100
AcDbLine
 10
73.6842
 20
798.5
 30
0.0
 11
73.6842
 21
797.5
 31
0.0
  0
LINE
  5
208
330
1E
100
AcDbEntity
  8
0
100
AcDbLine
 10
73.2848
 20
797.0
 30
0.0
 11
73.6842
 21
797.5
 31
0.0
  0
LINE
  5
209
330
1E
100
AcDbEntity
  8
0
100
AcDbLine
 10
72.4858
 20
799.0
 30
0.0
 11
73.2848
 21
799.0
 31
0.0
  0
LINE
  5
20A
330
1E
100
AcDbEntity
  8
0
100
AcDbLine
 10
72.17539999999999
 20
803.8
 30
0.0
 11
72.4858
 21
803.8
 31
0.0
  0
LINE
  5
20D
330
1E
100
AcDbEntity
  8
0
100
AcDbLine
 10
72.08629999999999
 20
804.2999999999999
 30
0.0
 11
72.08629999999999
 21
805.2999999999999
 31
0.0
  0
LINE
  5
20E
330
1E
100
AcDbEntity
  8
0
100
AcDbLine
 10
72.08629999999999
 20
804.2999999999999
 30
0.0
 11
72.4858
 21
803.8
 31
0.0
  0
LINE
  5
20F
330
1E
100
AcDbEntity
  8
0
100
AcDbLine
 10
72.08629999999999
 20
805.2999999999999
 30
0.0
 11
72.4858
 21
805.7999999999999
 31
0.0
  0
LINE
  5
210
330
1E
100
AcDbEntity
  8
0
100
AcDbLine
 10
72.08629999999999
 20
805.2999999999999
 30
0.0
 11
72.08629999999999
 21
804.2999999999999
 31
0.0
  0
LINE
  5
211
330
1E
100
AcDbEntity
  8
0
100
AcDbLine
 10
72.17539999999999
 20
805.7999999999999
 30
0.0
 11
72.4858
 21
805.7999999999999
 31
0.0
  0
LINE
  5
212
330
1E
100
AcDbEntity
  8
0
100
AcDbLine
 10
72.4858
 20
803.8
 30
0.0
 11
73.2848
 21
803.8
 31
0.0
  0
LINE
  5
213
330
1E
100
AcDbEntity
  8
0
100
AcDbLine
 10
72.9744
 20
803.8
 30
0.0
 11
73.2848
 21
803.8
 31
0.0
  0
LINE
  5
214
330
1E
100
AcDbEntity
  8
0
100
AcDbLine
 10
73.6842
 20
805.2999999999999
 30
0.0
 11
73.6842
 21
804.2999999999999
 31
0.0
  0
LINE
  5
215
330
1E
100
AcDbEntity
  8
0
100
AcDbLine
 10
73.2848
 20
803.8
 30
0.0
 11
73.6842
 21
804.2999999999999
 31
0.0
  0
LINE
  5
216
330
1E
100
AcDbEntity
  8
0
100
AcDbLine
 10
72.4858
 20
805.7999999999999
 30
0.0
 11
73.2848
 21
805.7999999999999
 31
0.0
  0
LINE
  5
218
330
1E
100
AcDbEntity
  8
0
100
AcDbLine
 10
72.08629999999999
 20
811.1
 30
0.0
 11
72.4858
 21
810.5999999999999
 31
0.0
  0
LINE
  5
219
330
1E
100
AcDbEntity
  8
0
100
AcDbLine
 10
72.08629999999999
 20
811.1
 30
0.0
 11
72.08629999999999
 21
812.1
 31
0.0
  0
LINE
  5
21B
330
1E
100
AcDbEntity
  8
0
100
AcDbLine
 10
72.08629999999999
 20
812.1
 30
0.0
 11
72.4858
 21
812.6000000000001
 31
0.0
  0
LINE
  5
21C
330
1E
100
AcDbEntity
  8
0
100
AcDbLine
 10
72.08629999999999
 20
812.1
 30
0.0
 11
72.08629999999999
 21
811.1
 31
0.0
  0
LINE
  5
21D
330
1E
100
AcDbEntity
  8
0
100
AcDbLine
 10
72.4858
 20
810.5999999999999
 30
0.0
 11
73.2848
 21
810.5999999999999
 31
0.0
  0
LINE
  5
21E
330
1E
100
AcDbEntity
  8
0
100
AcDbLine
 10
72.17539999999999
 20
810.5999999999999
 30
0.0
 11
72.4858
 21
810.5999999999999
 31
0.0
  0
LINE
  5
220
330
1E
100
AcDbEntity
  8
0
100
AcDbLine
 10
72.08629999999999
 20
818.9
 30
0.0
 11
72.4858
 21
819.3999999999999
 31
0.0
  0
LINE
  5
221
330
1E
100
AcDbEntity
  8
0
100
AcDbLine
 10
72.08629999999999
 20
818.9
 30
0.0
 11
72.08629999999999
 21
817.9
 31
0.0
  0
LINE
  5
224
330
1E
100
AcDbEntity
  8
0
100
AcDbLine
 10
72.08629999999999
 20
831.4999999999999
 30
0.0
 11
72.08629999999999
 21
832.4999999999999
 31
0.0
  0
LINE
  5
225
330
1E
100
AcDbEntity
  8
0
100
AcDbLine
 10
72.08629999999999
 20
831.4999999999999
 30
0.0
 11
72.4858
 21
831.0
 31
0.0
  0
LINE
  5
226
330
1E
100
AcDbEntity
  8
0
100
AcDbLine
 10
72.08629999999999
 20
832.4999999999999
 30
0.0
 11
72.4858
 21
833.0
 31
0.0
  0
LINE
  5
227
330
1E
100
AcDbEntity
  8
0
100
AcDbLine
 10
72.08629999999999
 20
832.4999999999999
 30
0.0
 11
72.08629999999999
 21
831.4999999999999
 31
0.0
  0
LINE
  5
228
330
1E
100
AcDbEntity
  8
0
100
AcDbLine
 10
72.08629999999999
 20
825.7000000000001
 30
0.0
 11
72.08629999999999
 21
824.6999999999999
 31
0.0
  0
LINE
  5
229
330
1E
100
AcDbEntity
  8
0
100
AcDbLine
 10
72.08629999999999
 20
825.7000000000001
 30
0.0
 11
72.4858
 21
826.2
 31
0.0
  0
LINE
  5
22C
330
1E
100
AcDbEntity
  8
0
100
AcDbLine
 10
72.08629999999999
 20
824.6999999999999
 30
0.0
 11
72.4858
 21
824.2
 31
0.0
  0
LINE
  5
22D
330
1E
100
AcDbEntity
  8
0
100
AcDbLine
 10
72.08629999999999
 20
824.6999999999999
 30
0.0
 11
72.08629999999999
 21
825.7000000000001
 31
0.0
  0
LINE
  5
22F
330
1E
100
AcDbEntity
  8
0
100
AcDbLine
 10
72.4858
 20
817.3999999999999
 30
0.0
 11
73.2848
 21
817.3999999999999
 31
0.0
  0
LINE
  5
230
330
1E
100
AcDbEntity
  8
0
100
AcDbLine
 10
72.17539999999999
 20
819.3999999999999
 30
0.0
 11
72.4858
 21
819.3999999999999
 31
0.0
  0
LINE
  5
231
330
1E
100
AcDbEntity
  8
0
100
AcDbLine
 10
72.17539999999999
 20
833.0
 30
0.0
 11
72.4858
 21
833.0
 31
0.0
  0
LINE
  5
232
330
1E
100
AcDbEntity
  8
0
100
AcDbLine
 10
72.17539999999999
 20
831.0
 30
0.0
 11
72.4858
 21
831.0
 31
0.0
  0
LINE
  5
233
330
1E
100
AcDbEntity
  8
0
100
AcDbLine
 10
72.17539999999999
 20
826.2
 30
0.0
 11
72.4858
 21
826.2
 31
0.0
  0
LINE
  5
234
330
1E
100
AcDbEntity
  8
0
100
AcDbLine
 10
72.4858
 20
831.0
 30
0.0
 11
73.2848
 21
831.0
 31
0.0
  0
LINE
  5
235
330
1E
100
AcDbEntity
  8
0
100
AcDbLine
 10
72.4858
 20
833.0
 30
0.0
 11
73.2848
 21
833.0
 31
0.0
  0
LINE
  5
236
330
1E
100
AcDbEntity
  8
0
100
AcDbLine
 10
72.4858
 20
826.2
 30
0.0
 11
73.2848
 21
826.2
 31
0.0
  0
LINE
  5
237
330
1E
100
AcDbEntity
  8
0
100
AcDbLine
 10
72.17539999999999
 20
824.2
 30
0.0
 11
72.4858
 21
824.2
 31
0.0
  0
LINE
  5
238
330
1E
100
AcDbEntity
  8
0
100
AcDbLine
 10
72.4858
 20
819.3999999999999
 30
0.0
 11
73.2848
 21
819.3999999999999
 31
0.0
  0
LINE
  5
239
330
1E
100
AcDbEntity
  8
0
100
AcDbLine
 10
72.4858
 20
824.2
 30
0.0
 11
73.2848
 21
824.2
 31
0.0
  0
LINE
  5
23A
330
1E
100
AcDbEntity
  8
0
100
AcDbLine
 10
72.17539999999999
 20
817.3999999999999
 30
0.0
 11
72.4858
 21
817.3999999999999
 31
0.0
  0
LINE
  5
23B
330
1E
100
AcDbEntity
  8
0
100
AcDbLine
 10
72.08629999999999
 20
817.9
 30
0.0
 11
72.4858
 21
817.3999999999999
 31
0.0
  0
LINE
  5
23C
330
1E
100
AcDbEntity
  8
0
100
AcDbLine
 10
72.08629999999999
 20
817.9
 30
0.0
 11
72.08629999999999
 21
818.9
 31
0.0
  0
LINE
  5
23D
330
1E
100
AcDbEntity
  8
0
100
AcDbLine
 10
72.17539999999999
 20
812.6000000000001
 30
0.0
 11
72.4858
 21
812.6000000000001
 31
0.0
  0
LINE
  5
23E
330
1E
100
AcDbEntity
  8
0
100
AcDbLine
 10
73.6842
 20
812.1
 30
0.0
 11
73.6842
 21
811.1
 31
0.0
  0
LINE
  5
23F
330
1E
100
AcDbEntity
  8
0
100
AcDbLine
 10
73.6842
 20
811.1
 30
0.0
 11
73.6842
 21
812.1
 31
0.0
  0
LINE
  5
240
330
1E
100
AcDbEntity
  8
0
100
AcDbLine
 10
73.2848
 20
810.5999999999999
 30
0.0
 11
73.6842
 21
811.1
 31
0.0
  0
LINE
  5
241
330
1E
100
AcDbEntity
  8
0
100
AcDbLine
 10
72.9744
 20
810.5999999999999
 30
0.0
 11
73.2848
 21
810.5999999999999
 31
0.0
  0
LINE
  5
242
330
1E
100
AcDbEntity
  8
0
100
AcDbLine
 10
72.9744
 20
831.0
 30
0.0
 11
73.2848
 21
831.0
 31
0.0
  0
LINE
  5
243
330
1E
100
AcDbEntity
  8
0
100
AcDbLine
 10
73.2848
 20
831.0
 30
0.0
 11
73.6842
 21
831.4999999999999
 31
0.0
  0
LINE
  5
244
330
1E
100
AcDbEntity
  8
0
100
AcDbLine
 10
73.2848
 20
833.0
 30
0.0
 11
73.6842
 21
832.4999999999999
 31
0.0
  0
LINE
  5
245
330
1E
100
AcDbEntity
  8
0
100
AcDbLine
 10
73.2848
 20
826.2
 30
0.0
 11
73.6842
 21
825.7000000000001
 31
0.0
  0
LINE
  5
246
330
1E
100
AcDbEntity
  8
0
100
AcDbLine
 10
72.9744
 20
824.2
 30
0.0
 11
73.2848
 21
824.2
 31
0.0
  0
LINE
  5
247
330
1E
100
AcDbEntity
  8
0
100
AcDbLine
 10
73.2848
 20
819.3999999999999
 30
0.0
 11
73.6842
 21
818.9
 31
0.0
  0
LINE
  5
248
330
1E
100
AcDbEntity
  8
0
100
AcDbLine
 10
73.2848
 20
824.2
 30
0.0
 11
73.6842
 21
824.6999999999999
 31
0.0
  0
LINE
  5
249
330
1E
100
AcDbEntity
  8
0
100
AcDbLine
 10
72.9744
 20
817.3999999999999
 30
0.0
 11
73.2848
 21
817.3999999999999
 31
0.0
  0
LINE
  5
24A
330
1E
100
AcDbEntity
  8
0
100
AcDbLine
 10
73.6842
 20
817.9
 30
0.0
 11
73.6842
 21
818.9
 31
0.0
  0
LINE
  5
24B
330
1E
100
AcDbEntity
  8
0
100
AcDbLine
 10
73.6842
 20
818.9
 30
0.0
 11
73.6842
 21
817.9
 31
0.0
  0
LINE
  5
24C
330
1E
100
AcDbEntity
  8
0
100
AcDbLine
 10
73.6842
 20
824.6999999999999
 30
0.0
 11
73.6842
 21
825.7000000000001
 31
0.0
  0
LINE
  5
24D
330
1E
100
AcDbEntity
  8
0
100
AcDbLine
 10
73.6842
 20
831.4999999999999
 30
0.0
 11
73.6842
 21
832.4999999999999
 31
0.0
  0
LINE
  5
24E
330
1E
100
AcDbEntity
  8
0
100
AcDbLine
 10
73.6842
 20
832.4999999999999
 30
0.0
 11
73.6842
 21
831.4999999999999
 31
0.0
  0
LINE
  5
24F
330
1E
100
AcDbEntity
  8
0
100
AcDbLine
 10
73.6842
 20
825.7000000000001
 30
0.0
 11
73.6842
 21
824.6999999999999
 31
0.0
  0
LINE
  5
250
330
1E
100
AcDbEntity
  8
0
100
AcDbLine
 10
73.2848
 20
817.3999999999999
 30
0.0
 11
73.6842
 21
817.9
 31
0.0
  0
LINE
  5
251
330
1E
100
AcDbEntity
  8
0
100
AcDbLine
 10
73.2848
 20
812.6000000000001
 30
0.0
 11
73.6842
 21
812.1
 31
0.0
  0
LINE
  5
252
330
1E
100
AcDbEntity
  8
0
100
AcDbLine
 10
72.4858
 20
812.6000000000001
 30
0.0
 11
73.2848
 21
812.6000000000001
 31
0.0
  0
LINE
  5
253
330
1E
100
AcDbEntity
  8
0
100
AcDbLine
 10
73.2848
 20
805.7999999999999
 30
0.0
 11
73.6842
 21
805.2999999999999
 31
0.0
  0
LINE
  5
254
330
1E
100
AcDbEntity
  8
0
100
AcDbLine
 10
73.6842
 20
804.2999999999999
 30
0.0
 11
73.6842
 21
805.2999999999999
 31
0.0
  0
LINE
  5
255
330
1E
100
AcDbEntity
  8
0
100
AcDbLine
 10
73.2848
 20
799.0
 30
0.0
 11
73.6842
 21
798.5
 31
0.0
  0
LINE
  5
256
330
1E
100
AcDbEntity
  8
0
100
AcDbLine
 10
73.6842
 20
797.5
 30
0.0
 11
73.6842
 21
798.5
 31
0.0
  0
LINE
  5
257
330
1E
100
AcDbEntity
  8
0
100
AcDbLine
 10
73.697
 20
855.0
 30
0.0
 11
76.097
 21
855.0
 31
0.0
  0
LINE
  5
258
330
1E
100
AcDbEntity
  8
0
100
AcDbLine
 10
73.997
 20
854.4999999999999
 30
0.0
 11
76.497
 21
854.4999999999999
 31
0.0
  0
LINE
  5
259
330
1E
100
AcDbEntity
  8
0
100
AcDbLine
 10
73.997
 20
835.5
 30
0.0
 11
76.497
 21
835.5
 31
0.0
  0
LINE
  5
25A
330
1E
100
AcDbEntity
  8
0
100
AcDbLine
 10
73.497
 20
835.0
 30
0.0
 11
75.79699999999999
 21
835.0
 31
0.0
  0
LINE
  5
25B
330
1E
100
AcDbEntity
  8
0
100
AcDbLine
 10
73.997
 20
834.5
 30
0.0
 11
76.497
 21
834.5
 31
0.0
  0
LINE
  5
25C
330
1E
100
AcDbEntity
  8
0
100
AcDbLine
 10
71.5273
 20
794.72
 30
0.0
 11
81.43489999999999
 21
804.6839999999999
 31
0.0
  0
LINE
  5
25D
330
1E
100
AcDbEntity
  8
0
100
AcDbLine
 10
74.50549999999999
 20
723.0169999999999
 30
0.0
 11
80.02070000000001
 21
719.826
 31
0.0
  0
LINE
  5
25E
330
1E
100
AcDbEntity
  8
0
100
AcDbLine
 10
85.49924601052509
 20
757.1814668081371
 30
0.0
 11
85.5953
 21
758.156
 31
0.0
  0
LINE
  5
25F
330
1E
100
AcDbEntity
  8
0
100
AcDbLine
 10
85.5953
 20
758.156
 30
0.0
 11
85.87979999999999
 21
759.0939999999999
 31
0.0
  0
LINE
  5
260
330
1E
100
AcDbEntity
  8
0
100
AcDbLine
 10
85.87979999999999
 20
759.0939999999999
 30
0.0
 11
86.3418
 21
759.9580000000001
 31
0.0
  0
LINE
  5
261
330
1E
100
AcDbEntity
  8
0
100
AcDbLine
 10
86.3418
 20
759.9580000000001
 30
0.0
 11
86.9636
 21
760.716
 31
0.0
  0
LINE
  5
264
330
1E
100
AcDbEntity
  8
0
100
AcDbLine
 10
75.66209999999999
 20
799.0
 30
0.0
 11
75.78307358490559
 21
799.0
 31
0.0
  0
LINE
  5
265
330
1E
100
AcDbEntity
  8
0
100
AcDbLine
 10
86.9636
 20
760.716
 30
0.0
 11
105.674481443519
 21
779.425518556481
 31
0.0
  0
LINE
  5
268
330
1E
100
AcDbEntity
  8
0
100
AcDbLine
 10
85.49924601052509
 20
757.1814668081371
 30
0.0
 11
85.49989999999999
 21
709.671
 31
0.0
  0
LINE
  5
26B
330
1E
100
AcDbEntity
  8
0
100
AcDbLine
 10
76.497
 20
803.8
 30
0.0
 11
76.8739
 21
803.8
 31
0.0
  0
LINE
  5
26C
330
1E
100
AcDbEntity
  8
0
100
AcDbLine
 10
75.66209999999999
 20
803.8
 30
0.0
 11
76.25199999999999
 21
803.8
 31
0.0
  0
LINE
  5
26D
330
1E
100
AcDbEntity
  8
0
100
AcDbLine
 10
76.8739
 20
803.8
 30
0.0
 11
77.1849
 21
804.2999999999999
 31
0.0
  0
LINE
  5
26F
330
1E
100
AcDbEntity
  8
0
100
AcDbLine
 10
77.1849
 20
804.2999999999999
 30
0.0
 11
77.1849
 21
805.2999999999999
 31
0.0
  0
LINE
  5
270
330
1E
100
AcDbEntity
  8
0
100
AcDbLine
 10
75.941
 20
804.2999999999999
 30
0.0
 11
76.25199999999999
 21
803.8
 31
0.0
  0
LINE
  5
271
330
1E
100
AcDbEntity
  8
0
100
AcDbLine
 10
75.941
 20
804.2999999999999
 30
0.0
 11
75.941
 21
805.2999999999999
 31
0.0
  0
LINE
  5
272
330
1E
100
AcDbEntity
  8
0
100
AcDbLine
 10
76.25199999999999
 20
803.8
 30
0.0
 11
76.8739
 21
803.8
 31
0.0
  0
LINE
  5
273
330
1E
100
AcDbEntity
  8
0
100
AcDbLine
 10
79.997
 20
803.2379146110059
 30
0.0
 11
79.997
 21
834.5
 31
0.0
  0
LINE
  5
275
330
1E
100
AcDbEntity
  8
0
100
AcDbLine
 10
75.941
 20
805.2999999999999
 30
0.0
 11
76.25199999999999
 21
805.7999999999999
 31
0.0
  0
LINE
  5
276
330
1E
100
AcDbEntity
  8
0
100
AcDbLine
 10
75.941
 20
805.2999999999999
 30
0.0
 11
75.941
 21
804.2999999999999
 31
0.0
  0
LINE
  5
277
330
1E
100
AcDbEntity
  8
0
100
AcDbLine
 10
75.66209999999999
 20
805.7999999999999
 30
0.0
 11
76.25199999999999
 21
805.7999999999999
 31
0.0
  0
LINE
  5
279
330
1E
100
AcDbEntity
  8
0
100
AcDbLine
 10
75.941
 20
811.1
 30
0.0
 11
76.25199999999999
 21
810.5999999999999
 31
0.0
  0
LINE
  5
27A
330
1E
100
AcDbEntity
  8
0
100
AcDbLine
 10
75.941
 20
811.1
 30
0.0
 11
75.941
 21
812.1
 31
0.0
  0
LINE
  5
27B
330
1E
100
AcDbEntity
  8
0
100
AcDbLine
 10
75.66209999999999
 20
810.5999999999999
 30
0.0
 11
76.25199999999999
 21
810.5999999999999
 31
0.0
  0
LINE
  5
27C
330
1E
100
AcDbEntity
  8
0
100
AcDbLine
 10
75.66209999999999
 20
817.3999999999999
 30
0.0
 11
76.25199999999999
 21
817.3999999999999
 31
0.0
  0
LINE
  5
281
330
1E
100
AcDbEntity
  8
0
100
AcDbLine
 10
75.66209999999999
 20
819.3999999999999
 30
0.0
 11
76.25199999999999
 21
819.3999999999999
 31
0.0
  0
LINE
  5
282
330
1E
100
AcDbEntity
  8
0
100
AcDbLine
 10
75.66209999999999
 20
833.0
 30
0.0
 11
76.25199999999999
 21
833.0
 31
0.0
  0
LINE
  5
283
330
1E
100
AcDbEntity
  8
0
100
AcDbLine
 10
75.66209999999999
 20
831.0
 30
0.0
 11
76.25199999999999
 21
831.0
 31
0.0
  0
LINE
  5
284
330
1E
100
AcDbEntity
  8
0
100
AcDbLine
 10
75.66209999999999
 20
826.2
 30
0.0
 11
76.25199999999999
 21
826.2
 31
0.0
  0
LINE
  5
285
330
1E
100
AcDbEntity
  8
0
100
AcDbLine
 10
75.66209999999999
 20
824.2
 30
0.0
 11
76.25199999999999
 21
824.2
 31
0.0
  0
LINE
  5
288
330
1E
100
AcDbEntity
  8
0
100
AcDbLine
 10
75.941
 20
818.9
 30
0.0
 11
76.25199999999999
 21
819.3999999999999
 31
0.0
  0
LINE
  5
289
330
1E
100
AcDbEntity
  8
0
100
AcDbLine
 10
75.941
 20
818.9
 30
0.0
 11
75.941
 21
817.9
 31
0.0
  0
LINE
  5
28A
330
1E
100
AcDbEntity
  8
0
100
AcDbLine
 10
75.941
 20
831.4999999999999
 30
0.0
 11
75.941
 21
832.4999999999999
 31
0.0
  0
LINE
  5
28B
330
1E
100
AcDbEntity
  8
0
100
AcDbLine
 10
75.941
 20
831.4999999999999
 30
0.0
 11
76.25199999999999
 21
831.0
 31
0.0
  0
LINE
  5
28C
330
1E
100
AcDbEntity
  8
0
100
AcDbLine
 10
75.941
 20
832.4999999999999
 30
0.0
 11
76.25199999999999
 21
833.0
 31
0.0
  0
LINE
  5
28D
330
1E
100
AcDbEntity
  8
0
100
AcDbLine
 10
75.941
 20
832.4999999999999
 30
0.0
 11
75.941
 21
831.4999999999999
 31
0.0
  0
LINE
  5
28E
330
1E
100
AcDbEntity
  8
0
100
AcDbLine
 10
75.941
 20
825.7000000000001
 30
0.0
 11
75.941
 21
824.6999999999999
 31
0.0
  0
LINE
  5
28F
330
1E
100
AcDbEntity
  8
0
100
AcDbLine
 10
75.941
 20
825.7000000000001
 30
0.0
 11
76.25199999999999
 21
826.2
 31
0.0
  0
LINE
  5
290
330
1E
100
AcDbEntity
  8
0
100
AcDbLine
 10
75.941
 20
824.6999999999999
 30
0.0
 11
76.25199999999999
 21
824.2
 31
0.0
  0
LINE
  5
291
330
1E
100
AcDbEntity
  8
0
100
AcDbLine
 10
75.941
 20
824.6999999999999
 30
0.0
 11
75.941
 21
825.7000000000001
 31
0.0
  0
LINE
  5
292
330
1E
100
AcDbEntity
  8
0
100
AcDbLine
 10
75.941
 20
817.9
 30
0.0
 11
76.25199999999999
 21
817.3999999999999
 31
0.0
  0
LINE
  5
293
330
1E
100
AcDbEntity
  8
0
100
AcDbLine
 10
75.941
 20
817.9
 30
0.0
 11
75.941
 21
818.9
 31
0.0
  0
LINE
  5
294
330
1E
100
AcDbEntity
  8
0
100
AcDbLine
 10
75.66209999999999
 20
812.6000000000001
 30
0.0
 11
76.25199999999999
 21
812.6000000000001
 31
0.0
  0
LINE
  5
296
330
1E
100
AcDbEntity
  8
0
100
AcDbLine
 10
76.497
 20
810.5999999999999
 30
0.0
 11
76.8739
 21
810.5999999999999
 31
0.0
  0
LINE
  5
297
330
1E
100
AcDbEntity
  8
0
100
AcDbLine
 10
76.25199999999999
 20
810.5999999999999
 30
0.0
 11
76.8739
 21
810.5999999999999
 31
0.0
  0
LINE
  5
298
330
1E
100
AcDbEntity
  8
0
100
AcDbLine
 10
76.25199999999999
 20
831.0
 30
0.0
 11
76.8739
 21
831.0
 31
0.0
  0
LINE
  5
299
330
1E
100
AcDbEntity
  8
0
100
AcDbLine
 10
76.25199999999999
 20
833.0
 30
0.0
 11
76.8739
 21
833.0
 31
0.0
  0
LINE
  5
29A
330
1E
100
AcDbEntity
  8
0
100
AcDbLine
 10
76.25199999999999
 20
826.2
 30
0.0
 11
76.8739
 21
826.2
 31
0.0
  0
LINE
  5
29B
330
1E
100
AcDbEntity
  8
0
100
AcDbLine
 10
76.25199999999999
 20
819.3999999999999
 30
0.0
 11
76.8739
 21
819.3999999999999
 31
0.0
  0
LINE
  5
29C
330
1E
100
AcDbEntity
  8
0
100
AcDbLine
 10
76.497
 20
824.2
 30
0.0
 11
76.8739
 21
824.2
 31
0.0
  0
LINE
  5
29D
330
1E
100
AcDbEntity
  8
0
100
AcDbLine
 10
76.25199999999999
 20
824.2
 30
0.0
 11
76.8739
 21
824.2
 31
0.0
  0
LINE
  5
29E
330
1E
100
AcDbEntity
  8
0
100
AcDbLine
 10
76.25199999999999
 20
817.3999999999999
 30
0.0
 11
76.8739
 21
817.3999999999999
 31
0.0
  0
LINE
  5
29F
330
1E
100
AcDbEntity
  8
0
100
AcDbLine
 10
76.497
 20
817.3999999999999
 30
0.0
 11
76.8739
 21
817.3999999999999
 31
0.0
  0
LINE
  5
2A0
330
1E
100
AcDbEntity
  8
0
100
AcDbLine
 10
76.25199999999999
 20
812.6000000000001
 30
0.0
 11
76.8739
 21
812.6000000000001
 31
0.0
  0
LINE
  5
2A1
330
1E
100
AcDbEntity
  8
0
100
AcDbLine
 10
75.941
 20
812.1
 30
0.0
 11
76.25199999999999
 21
812.6000000000001
 31
0.0
  0
LINE
  5
2A2
330
1E
100
AcDbEntity
  8
0
100
AcDbLine
 10
75.941
 20
812.1
 30
0.0
 11
75.941
 21
811.1
 31
0.0
  0
LINE
  5
2A3
330
1E
100
AcDbEntity
  8
0
100
AcDbLine
 10
76.25199999999999
 20
805.7999999999999
 30
0.0
 11
76.8739
 21
805.7999999999999
 31
0.0
  0
LINE
  5
2A4
330
1E
100
AcDbEntity
  8
0
100
AcDbLine
 10
76.8739
 20
810.5999999999999
 30
0.0
 11
77.1849
 21
811.1
 31
0.0
  0
LINE
  5
2A5
330
1E
100
AcDbEntity
  8
0
100
AcDbLine
 10
76.8739
 20
819.3999999999999
 30
0.0
 11
77.1849
 21
818.9
 31
0.0
  0
LINE
  5
2A6
330
1E
100
AcDbEntity
  8
0
100
AcDbLine
 10
76.54032247556999
 20
831.0
 30
0.0
 11
76.8739
 21
831.0
 31
0.0
  0
LINE
  5
2A7
330
1E
100
AcDbEntity
  8
0
100
AcDbLine
 10
76.8739
 20
831.0
 30
0.0
 11
77.1849
 21
831.4999999999999
 31
0.0
  0
LINE
  5
2A8
330
1E
100
AcDbEntity
  8
0
100
AcDbLine
 10
76.8739
 20
833.0
 30
0.0
 11
77.1849
 21
832.4999999999999
 31
0.0
  0
LINE
  5
2A9
330
1E
100
AcDbEntity
  8
0
100
AcDbLine
 10
76.8739
 20
826.2
 30
0.0
 11
77.1849
 21
825.7000000000001
 31
0.0
  0
LINE
  5
2AA
330
1E
100
AcDbEntity
  8
0
100
AcDbLine
 10
76.8739
 20
824.2
 30
0.0
 11
77.1849
 21
824.6999999999999
 31
0.0
  0
LINE
  5
2AB
330
1E
100
AcDbEntity
  8
0
100
AcDbLine
 10
76.8739
 20
817.3999999999999
 30
0.0
 11
77.1849
 21
817.9
 31
0.0
  0
LINE
  5
2AC
330
1E
100
AcDbEntity
  8
0
100
AcDbLine
 10
76.8739
 20
812.6000000000001
 30
0.0
 11
77.1849
 21
812.1
 31
0.0
  0
LINE
  5
2AD
330
1E
100
AcDbEntity
  8
0
100
AcDbLine
 10
77.1849
 20
818.9
 30
0.0
 11
77.1849
 21
817.9
 31
0.0
  0
LINE
  5
2AE
330
1E
100
AcDbEntity
  8
0
100
AcDbLine
 10
77.1849
 20
817.9
 30
0.0
 11
77.1849
 21
818.9
 31
0.0
  0
LINE
  5
2AF
330
1E
100
AcDbEntity
  8
0
100
AcDbLine
 10
77.1849
 20
824.6999999999999
 30
0.0
 11
77.1849
 21
825.7000000000001
 31
0.0
  0
LINE
  5
2B0
330
1E
100
AcDbEntity
  8
0
100
AcDbLine
 10
77.1849
 20
831.4999999999999
 30
0.0
 11
77.1849
 21
832.4999999999999
 31
0.0
  0
LINE
  5
2B1
330
1E
100
AcDbEntity
  8
0
100
AcDbLine
 10
77.1849
 20
832.4999999999999
 30
0.0
 11
77.1849
 21
831.4999999999999
 31
0.0
  0
LINE
  5
2B2
330
1E
100
AcDbEntity
  8
0
100
AcDbLine
 10
77.1849
 20
825.7000000000001
 30
0.0
 11
77.1849
 21
824.6999999999999
 31
0.0
  0
LINE
  5
2B3
330
1E
100
AcDbEntity
  8
0
100
AcDbLine
 10
77.1849
 20
812.1
 30
0.0
 11
77.1849
 21
811.1
 31
0.0
  0
LINE
  5
2B4
330
1E
100
AcDbEntity
  8
0
100
AcDbLine
 10
77.1849
 20
811.1
 30
0.0
 11
77.1849
 21
812.1
 31
0.0
  0
LINE
  5
2B5
330
1E
100
AcDbEntity
  8
0
100
AcDbLine
 10
76.8739
 20
805.7999999999999
 30
0.0
 11
77.1849
 21
805.2999999999999
 31
0.0
  0
LINE
  5
2B6
330
1E
100
AcDbEntity
  8
0
100
AcDbLine
 10
77.1849
 20
805.2999999999999
 30
0.0
 11
77.1849
 21
804.2999999999999
 31
0.0
  0
LINE
  5
2B7
330
1E
100
AcDbEntity
  8
0
100
AcDbLine
 10
76.497
 20
834.5
 30
0.0
 11
78.39699999999999
 21
834.5
 31
0.0
  0
LINE
  5
2B8
330
1E
100
AcDbEntity
  8
0
100
AcDbLine
 10
75.79699999999999
 20
835.0
 30
0.0
 11
77.497
 21
835.0
 31
0.0
  0
LINE
  5
2B9
330
1E
100
AcDbEntity
  8
0
100
AcDbLine
 10
76.097
 20
855.0
 30
0.0
 11
77.997
 21
855.0
 31
0.0
  0
LINE
  5
2BA
330
1E
100
AcDbEntity
  8
0
100
AcDbLine
 10
77.997
 20
855.0
 30
0.0
 11
79.09699999999999
 21
855.0
 31
0.0
  0
LINE
  5
2BB
330
1E
100
AcDbEntity
  8
0
100
AcDbLine
 10
76.497
 20
854.4999999999999
 30
0.0
 11
78.39699999999999
 21
854.4999999999999
 31
0.0
  0
LINE
  5
2BC
330
1E
100
AcDbEntity
  8
0
100
AcDbLine
 10
78.39699999999999
 20
854.4999999999999
 30
0.0
 11
79.59699999999999
 21
854.4999999999999
 31
0.0
  0
LINE
  5
2BD
330
1E
100
AcDbEntity
  8
0
100
AcDbLine
 10
76.497
 20
835.5
 30
0.0
 11
78.39699999999999
 21
835.5
 31
0.0
  0
LINE
  5
2BE
330
1E
100
AcDbEntity
  8
0
100
AcDbLine
 10
78.39699999999999
 20
835.5
 30
0.0
 11
79.59699999999999
 21
835.5
 31
0.0
  0
LINE
  5
2BF
330
1E
100
AcDbEntity
  8
0
100
AcDbLine
 10
77.497
 20
835.0
 30
0.0
 11
78.597
 21
835.0
 31
0.0
  0
LINE
  5
2C0
330
1E
100
AcDbEntity
  8
0
100
AcDbLine
 10
79.49699999999999
 20
855.0
 30
0.0
 11
79.997
 21
854.4999999999999
 31
0.0
  0
LINE
  5
2C1
330
1E
100
AcDbEntity
  8
0
100
AcDbLine
 10
79.09699999999999
 20
855.0
 30
0.0
 11
79.49699999999999
 21
855.0
 31
0.0
  0
LINE
  5
2C2
330
1E
100
AcDbEntity
  8
0
100
AcDbLine
 10
79.59699999999999
 20
854.4999999999999
 30
0.0
 11
79.997
 21
854.4999999999999
 31
0.0
  0
LINE
  5
2C3
330
1E
100
AcDbEntity
  8
0
100
AcDbLine
 10
79.59699999999999
 20
835.5
 30
0.0
 11
79.997
 21
835.5
 31
0.0
  0
LINE
  5
2C4
330
1E
100
AcDbEntity
  8
0
100
AcDbLine
 10
78.997
 20
835.0
 30
0.0
 11
79.997
 21
834.5
 31
0.0
  0
LINE
  5
2C5
330
1E
100
AcDbEntity
  8
0
100
AcDbLine
 10
78.997
 20
835.0
 30
0.0
 11
79.997
 21
835.5
 31
0.0
  0
LINE
  5
2C6
330
1E
100
AcDbEntity
  8
0
100
AcDbLine
 10
78.597
 20
835.0
 30
0.0
 11
78.997
 21
835.0
 31
0.0
  0
LINE
  5
2C7
330
1E
100
AcDbEntity
  8
0
100
AcDbLine
 10
78.39699999999999
 20
834.5
 30
0.0
 11
79.59699999999999
 21
834.5
 31
0.0
  0
LINE
  5
2C8
330
1E
100
AcDbEntity
  8
0
100
AcDbLine
 10
79.997
 20
834.5
 30
0.0
 11
79.997
 21
803.2379146110059
 31
0.0
  0
LINE
  5
2C9
330
1E
100
AcDbEntity
  8
0
100
AcDbLine
 10
79.997
 20
854.4999999999999
 30
0.0
 11
79.997
 21
835.5
 31
0.0
  0
LINE
  5
2CA
330
1E
100
AcDbEntity
  8
0
100
AcDbLine
 10
79.997
 20
835.5
 30
0.0
 11
79.997
 21
854.4999999999999
 31
0.0
  0
LINE
  5
2CB
330
1E
100
AcDbEntity
  8
0
100
AcDbLine
 10
79.59699999999999
 20
834.5
 30
0.0
 11
79.997
 21
834.5
 31
0.0
  0
LINE
  5
2D0
330
1E
100
AcDbEntity
  8
0
100
AcDbLine
 10
81.43489999999999
 20
804.6839999999999
 30
0.0
 11
111.124
 21
833.373
 31
0.0
  0
LINE
  5
2D5
330
1E
100
AcDbEntity
  8
0
100
AcDbLine
 10
74.6968
 20
723.6669999999999
 30
0.0
 11
80.3743
 21
720.383
 31
0.0
  0
LINE
  5
2D6
330
1E
100
AcDbEntity
  8
0
100
AcDbLine
 10
80.3743
 20
720.383
 30
0.0
 11
84.16780000000001
 21
715.4689999999999
 31
0.0
  0
LINE
  5
2D7
330
1E
100
AcDbEntity
  8
0
100
AcDbLine
 10
92.47660000000001
 20
105.2039999999999
 30
0.0
 11
94.42529999999999
 21
105.2989999999999
 31
0.0
  0
LINE
  5
2D8
330
1E
100
AcDbEntity
  8
0
100
AcDbLine
 10
92.92230000000001
 20
162.339
 30
0.0
 11
95.06449999999999
 21
125.2639999999999
 31
0.0
  0
LINE
  5
2D9
330
1E
100
AcDbEntity
  8
0
100
AcDbLine
 10
92.9371
 20
162.339
 30
0.0
 11
95.07340000000001
 21
125.2639999999999
 31
0.0
  0
LINE
  5
2DA
330
1E
100
AcDbEntity
  8
0
100
AcDbLine
 10
95.06449999999999
 20
125.2639999999999
 30
0.0
 11
97.0062
 21
115.5829999999999
 31
0.0
  0
LINE
  5
2DB
330
1E
100
AcDbEntity
  8
0
100
AcDbLine
 10
94.42529999999999
 20
105.2989999999999
 30
0.0
 11
96.1893
 21
106.132
 31
0.0
  0
LINE
  5
2DC
330
1E
100
AcDbEntity
  8
0
100
AcDbLine
 10
96.1893
 20
106.132
 30
0.0
 11
97.5
 21
107.577
 31
0.0
  0
LINE
  5
2DD
330
1E
100
AcDbEntity
  8
0
100
AcDbLine
 10
97.5
 20
107.577
 30
0.0
 11
98.1582
 21
109.413
 31
0.0
  0
LINE
  5
2DE
330
1E
100
AcDbEntity
  8
0
100
AcDbLine
 10
97.0062
 20
115.5829999999999
 30
0.0
 11
98.0633
 21
111.362
 31
0.0
  0
LINE
  5
2DF
330
1E
100
AcDbEntity
  8
0
100
AcDbLine
 10
98.0633
 20
111.362
 30
0.0
 11
98.1582
 21
109.413
 31
0.0
  0
LINE
  5
2E0
330
1E
100
AcDbEntity
  8
0
100
AcDbLine
 10
95.07340000000001
 20
125.2639999999999
 30
0.0
 11
95.0819537776071
 21
125.176978307146
 31
0.0
  0
LINE
  5
2E3
330
1E
100
AcDbEntity
  8
0
100
AcDbLine
 10
81.43489999999999
 20
804.6839999999999
 30
0.0
 11
106.1739999999999
 21
778.926
 31
0.0
  0
LINE
  5
2E4
330
1E
100
AcDbEntity
  8
0
100
AcDbLine
 10
105.674481443519
 20
779.425518556481
 30
0.0
 11
106.1739999999999
 21
778.926
 31
0.0
  0
LINE
  5
2E5
330
1E
100
AcDbEntity
  8
0
100
AcDbLine
 10
106.1739999999999
 20
778.926
 30
0.0
 11
135.8729999999999
 21
808.624
 31
0.0
  0
LINE
  5
2E8
330
1E
100
AcDbEntity
  8
0
100
AcDbLine
 10
111.124
 20
833.373
 30
0.0
 11
112.0659999999999
 21
832.431
 31
0.0
  0
LINE
  5
2EA
330
1E
100
AcDbEntity
  8
0
100
AcDbLine
 10
91.72629999999999
 20
10.00029999999999
 30
0.0
 11
111.84
 21
10.00029999999999
 31
0.0
  0
LINE
  5
2EB
330
1E
100
AcDbEntity
  8
0
100
AcDbLine
 10
91.72629999999999
 20
0.0003169999999945
 30
0.0
 11
111.84
 21
0.0002809999999936
 31
0.0
  0
LINE
  5
2EC
330
1E
100
AcDbEntity
  8
0
100
AcDbLine
 10
111.84
 20
10.00029999999999
 30
0.0
 11
125.28
 21
10.00019999999999
 31
0.0
  0
LINE
  5
2ED
330
1E
100
AcDbEntity
  8
0
100
AcDbLine
 10
111.84
 20
0.0002809999999936
 30
0.0
 11
125.28
 21
0.0002269999999924
 31
0.0
  0
LINE
  5
2EE
330
1E
100
AcDbEntity
  8
0
100
AcDbLine
 10
112.0659999999999
 20
832.431
 30
0.0
 11
114.7479999999999
 21
829.7489999999999
 31
0.0
  0
LINE
  5
2EF
330
1E
100
AcDbEntity
  8
0
100
AcDbLine
 10
114.7479999999999
 20
829.7489999999999
 30
0.0
 11
118.7629999999999
 21
825.7339999999999
 31
0.0
  0
LINE
  5
2F0
330
1E
100
AcDbEntity
  8
0
100
AcDbLine
 10
118.7629999999999
 20
825.7339999999999
 30
0.0
 11
123.4979999999999
 21
820.9989999999999
 31
0.0
  0
LINE
  5
2F1
330
1E
100
AcDbEntity
  8
0
100
AcDbLine
 10
123.4979999999999
 20
820.9989999999999
 30
0.0
 11
128.234
 21
816.263
 31
0.0
  0
LINE
  5
2F2
330
1E
100
AcDbEntity
  8
0
100
AcDbLine
 10
125.28
 20
10.00019999999999
 30
0.0
 11
130.0
 21
10.00019999999999
 31
0.0
  0
LINE
  5
2F3
330
1E
100
AcDbEntity
  8
0
100
AcDbLine
 10
128.234
 20
816.263
 30
0.0
 11
132.2479999999999
 21
812.2489999999999
 31
0.0
  0
LINE
  5
2F4
330
1E
100
AcDbEntity
  8
0
100
AcDbLine
 10
125.28
 20
0.0002269999999924
 30
0.0
 11
130.0
 21
0.000164999999991
 31
0.0
  0
LINE
  5
2F5
330
1E
100
AcDbEntity
  8
0
100
AcDbLine
 10
130.0
 20
0.000164999999991
 30
0.0
 11
130.0
 21
10.00019999999999
 31
0.0
  0
LINE
  5
2F6
330
1E
100
AcDbEntity
  8
0
100
AcDbLine
 10
132.2479999999999
 20
812.2489999999999
 30
0.0
 11
134.931
 21
809.566
 31
0.0
  0
LINE
  5
2F7
330
1E
100
AcDbEntity
  8
0
100
AcDbLine
 10
134.931
 20
809.566
 30
0.0
 11
135.8729999999999
 21
808.624
 31
0.0
  0
LINE
  5
2F8
330
1E
100
AcDbEntity
  8
0
100
AcDbLine
 10
130.0
 20
10.00019999999999
 30
0.0
 11
130.0
 21
0.0001649999999911
 31
0.0
  0
LINE
  5
2F9
330
1E
100
AcDbEntity
  8
0
100
AcDbLine
 10
125.28
 20
0.0001019999999895
 30
0.0
 11
130.0
 21
0.000164999999991
 31
0.0
  0
LINE
  5
2FA
330
1E
100
AcDbEntity
  8
0
100
AcDbLine
 10
111.84
 20
0.0000479999999883
 30
0.0
 11
125.28
 21
0.0001019999999895
 31
0.0
  0
LINE
  5
2FB
330
1E
100
AcDbEntity
  8
0
100
AcDbLine
 10
91.72629999999999
 20
0.0000129999999875
 30
0.0
 11
111.84
 21
0.0000479999999883
 31
0.0
  0
LINE
  5
2FC
330
1E
100
AcDbEntity
  8
0
100
AcDbLine
 10
67.9999
 20
-0.0000000000000128
 30
0.0
 11
91.72629999999999
 21
0.0000129999999875
 31
0.0
  0
ENDSEC
  0
SECTION
  2
OBJECTS
  0
DICTIONARY
  5
C
330
0
100
AcDbDictionary
281
     1
  3
ACAD_GROUP
350
D
  3
ACAD_LAYOUT
350
19
  3
ACAD_MLINESTYLE
350
16
  3
ACAD_PLOTSETTINGS
350
18
  3
ACAD_PLOTSTYLENAME
350
E
  3
AcDbVariableDictionary
350
301
  0
DICTIONARY
  5
D
102
{ACAD_REACTORS
330
C
102
}
330
C
100
AcDbDictionary
281
     1
  0
DICTIONARY
  5
19
102
{ACAD_REACTORS
330
C
102
}
330
C
100
AcDbDictionary
281
     1
  3
Layout1
350
1D
  3
Model
350
21
  0
DICTIONARY
  5
16
102
{ACAD_REACTORS
330
C
102
}
330
C
100
AcDbDictionary
281
     1
  3
Standard
350
17
  0
DICTIONARY
  5
18
102
{ACAD_REACTORS
330
C
102
}
330
C
100
AcDbDictionary
281
     1
  0
ACDBDICTIONARYWDFLT
  5
E
102
{ACAD_REACTORS
330
C
102
}
330
C
100
AcDbDictionary
281
     1
  3
Normal
350
F
100
AcDbDictionaryWithDefault
340
F
  0
DICTIONARY
  5
301
102
{ACAD_REACTORS
330
C
102
}
330
C
100
AcDbDictionary
281
     1
  3
DIMASSOC
350
302
  0
LAYOUT
  5
1D
102
{ACAD_REACTORS
330
19
102
}
330
19
100
AcDbPlotSettings
  1

  2
hp deskjet 980c series
  4

  6

 40
0.0
 41
0.0
 42
0.0
 43
0.0
 44
0.0
 45
0.0
 46
0.0
 47
0.0
 48
0.0
 49
0.0
140
0.0
141
0.0
142
1.0
143
1.0
 70
   688
 72
     0
 73
     0
 74
     5
  7

 75
    16
147
1.0
148
0.0
149
0.0
100
AcDbLayout
  1
Layout1
 70
     1
 71
     1
 10
0.0
 20
0.0
 11
12.0
 21
9.0
 12
0.0
 22
0.0
 32
0.0
 14
1.000000000000000E+20
 24
1.000000000000000E+20
 34
1.000000000000000E+20
 15
-1.000000000000000E+20
 25
-1.000000000000000E+20
 35
-1.000000000000000E+20
146
0.0
 13
0.0
 23
0.0
 33
0.0
 16
1.0
 26
0.0
 36
0.0
 17
0.0
 27
1.0
 37
0.0
 76
     0
330
1A
  0
LAYOUT
  5
21
102
{ACAD_REACTORS
330
19
102
}
330
19
100
AcDbPlotSettings
  1

  2
hp deskjet 980c series
  4

  6

 40
0.0
 41
0.0
 42
0.0
 43
0.0
 44
0.0
 45
0.0
 46
0.0
 47
0.0
 48
0.0
 49
0.0
140
0.0
141
0.0
142
1.0
143
1.0
 70
  1712
 72
     0
 73
     0
 74
     0
  7

 75
     0
147
1.0
148
0.0
149
0.0
100
AcDbLayout
  1
Model
 70
     1
 71
     0
 10
0.0
 20
0.0
 11
12.0
 21
9.0
 12
0.0
 22
0.0
 32
0.0
 14
0.0
 24
0.0
 34
0.0
 15
0.0
 25
0.0
 35
0.0
146
0.0
 13
0.0
 23
0.0
 33
0.0
 16
1.0
 26
0.0
 36
0.0
 17
0.0
 27
1.0
 37
0.0
 76
     0
330
1E
  0
MLINESTYLE
  5
17
102
{ACAD_REACTORS
330
16
102
}
330
16
100
AcDbMlineStyle
  2
STANDARD
 70
     0
  3

 62
   256
 51
90.0
 52
90.0
 71
     2
 49
0.5
 62
   256
  6
BYLAYER
 49
-0.5
 62
   256
  6
BYLAYER
  0
ACDBPLACEHOLDER
  5
F
102
{ACAD_REACTORS
330
E
102
}
330
E
  0
DICTIONARYVAR
  5
302
102
{ACAD_REACTORS
330
301
102
}
330
301
100
DictionaryVariables
280
     0
  1
1
  0
ENDSEC
  0
EOF
