  0
SECTION
  2
HEADER
  9
$ACADVER
  1
AC1015
  9
$ACADMAINTVER
 70
    13
  9
$DWGCODEPAGE
  3
ANSI_1252
  9
$INSBASE
 10
0.0
 20
0.0
 30
0.0
  9
$EXTMIN
 10
0.0
 20
-0.0000000000000145
 30
0.0
  9
$EXTMAX
 10
142.0
 20
900.0
 30
0.0
  9
$LIMMIN
 10
0.0
 20
0.0
  9
$LIMMAX
 10
12.0
 20
9.0
  9
$ORTHOMODE
 70
     0
  9
$REGENMODE
 70
     1
  9
$FILLMODE
 70
     1
  9
$QTEXTMODE
 70
     0
  9
$MIRRTEXT
 70
     1
  9
$LTSCALE
 40
1.0
  9
$ATTMODE
 70
     1
  9
$TEXTSIZE
 40
0.2
  9
$TRACEWID
 40
0.05
  9
$TEXTSTYLE
  7
Standard
  9
$CLAYER
  8
0
  9
$CELTYPE
  6
Continuous
  9
$CECOLOR
 62
   256
  9
$CELTSCALE
 40
1.0
  9
$DISPSILH
 70
     0
  9
$DIMSCALE
 40
1.0
  9
$DIMASZ
 40
0.18
  9
$DIMEXO
 40
0.0625
  9
$DIMDLI
 40
0.38
  9
$DIMRND
 40
0.0
  9
$DIMDLE
 40
0.0
  9
$DIMEXE
 40
0.18
  9
$DIMTP
 40
0.0
  9
$DIMTM
 40
0.0
  9
$DIMTXT
 40
0.18
  9
$DIMCEN
 40
0.09
  9
$DIMTSZ
 40
0.0
  9
$DIMTOL
 70
     0
  9
$DIMLIM
 70
     0
  9
$DIMTIH
 70
     1
  9
$DIMTOH
 70
     1
  9
$DIMSE1
 70
     0
  9
$DIMSE2
 70
     0
  9
$DIMTAD
 70
     0
  9
$DIMZIN
 70
     0
  9
$DIMBLK
  1

  9
$DIMASO
 70
     1
  9
$DIMSHO
 70
     1
  9
$DIMPOST
  1

  9
$DIMAPOST
  1

  9
$DIMALT
 70
     0
  9
$DIMALTD
 70
     2
  9
$DIMALTF
 40
25.4
  9
$DIMLFAC
 40
1.0
  9
$DIMTOFL
 70
     0
  9
$DIMTVP
 40
0.0
  9
$DIMTIX
 70
     0
  9
$DIMSOXD
 70
     0
  9
$DIMSAH
 70
     0
  9
$DIMBLK1
  1

  9
$DIMBLK2
  1

  9
$DIMSTYLE
  2
Standard
  9
$DIMCLRD
 70
     0
  9
$DIMCLRE
 70
     0
  9
$DIMCLRT
 70
     0
  9
$DIMTFAC
 40
1.0
  9
$DIMGAP
 40
0.09
  9
$DIMJUST
 70
     0
  9
$DIMSD1
 70
     0
  9
$DIMSD2
 70
     0
  9
$DIMTOLJ
 70
     1
  9
$DIMTZIN
 70
     0
  9
$DIMALTZ
 70
     0
  9
$DIMALTTZ
 70
     0
  9
$DIMUPT
 70
     0
  9
$DIMDEC
 70
     4
  9
$DIMTDEC
 70
     4
  9
$DIMALTU
 70
     2
  9
$DIMALTTD
 70
     2
  9
$DIMTXSTY
  7
Standard
  9
$DIMAUNIT
 70
     0
  9
$DIMADEC
 70
     0
  9
$DIMALTRND
 40
0.0
  9
$DIMAZIN
 70
     0
  9
$DIMDSEP
 70
    46
  9
$DIMATFIT
 70
     3
  9
$DIMFRAC
 70
     0
  9
$DIMLDRBLK
  1

  9
$DIMLUNIT
 70
     2
  9
$DIMLWD
 70
    -2
  9
$DIMLWE
 70
    -2
  9
$DIMTMOVE
 70
     0
  9
$LUNITS
 70
     2
  9
$LUPREC
 70
     4
  9
$SKETCHINC
 40
0.1
  9
$FILLETRAD
 40
0.0
  9
$AUNITS
 70
     0
  9
$AUPREC
 70
     0
  9
$MENU
  1
.
  9
$ELEVATION
 40
0.0
  9
$PELEVATION
 40
0.0
  9
$THICKNESS
 40
0.0
  9
$LIMCHECK
 70
     0
  9
$CHAMFERA
 40
0.0
  9
$CHAMFERB
 40
0.0
  9
$CHAMFERC
 40
0.0
  9
$CHAMFERD
 40
0.0
  9
$SKPOLY
 70
     0
  9
$TDCREATE
 40
2454874.770883599
  9
$TDUCREATE
 40
2454874.729216932
  9
$TDUPDATE
 40
2454874.776090312
  9
$TDUUPDATE
 40
2454874.734423645
  9
$TDINDWG
 40
0.0052070718
  9
$TDUSRTIMER
 40
0.0052070718
  9
$USRTIMER
 70
     1
  9
$ANGBASE
 50
0.0
  9
$ANGDIR
 70
     0
  9
$PDMODE
 70
     0
  9
$PDSIZE
 40
0.0
  9
$PLINEWID
 40
0.0
  9
$SPLFRAME
 70
     0
  9
$SPLINETYPE
 70
     6
  9
$SPLINESEGS
 70
     8
  9
$HANDSEED
  5
199
  9
$SURFTAB1
 70
     6
  9
$SURFTAB2
 70
     6
  9
$SURFTYPE
 70
     6
  9
$SURFU
 70
     6
  9
$SURFV
 70
     6
  9
$UCSBASE
  2

  9
$UCSNAME
  2

  9
$UCSORG
 10
0.0
 20
0.0
 30
0.0
  9
$UCSXDIR
 10
1.0
 20
0.0
 30
0.0
  9
$UCSYDIR
 10
0.0
 20
1.0
 30
0.0
  9
$UCSORTHOREF
  2

  9
$UCSORTHOVIEW
 70
     1
  9
$UCSORGTOP
 10
0.0
 20
0.0
 30
0.0
  9
$UCSORGBOTTOM
 10
0.0
 20
0.0
 30
0.0
  9
$UCSORGLEFT
 10
0.0
 20
0.0
 30
0.0
  9
$UCSORGRIGHT
 10
0.0
 20
0.0
 30
0.0
  9
$UCSORGFRONT
 10
0.0
 20
0.0
 30
0.0
  9
$UCSORGBACK
 10
0.0
 20
0.0
 30
0.0
  9
$PUCSBASE
  2

  9
$PUCSNAME
  2

  9
$PUCSORG
 10
0.0
 20
0.0
 30
0.0
  9
$PUCSXDIR
 10
1.0
 20
0.0
 30
0.0
  9
$PUCSYDIR
 10
0.0
 20
1.0
 30
0.0
  9
$PUCSORTHOREF
  2

  9
$PUCSORTHOVIEW
 70
     0
  9
$PUCSORGTOP
 10
0.0
 20
0.0
 30
0.0
  9
$PUCSORGBOTTOM
 10
0.0
 20
0.0
 30
0.0
  9
$PUCSORGLEFT
 10
0.0
 20
0.0
 30
0.0
  9
$PUCSORGRIGHT
 10
0.0
 20
0.0
 30
0.0
  9
$PUCSORGFRONT
 10
0.0
 20
0.0
 30
0.0
  9
$PUCSORGBACK
 10
0.0
 20
0.0
 30
0.0
  9
$USERI1
 70
     0
  9
$USERI2
 70
     0
  9
$USERI3
 70
     0
  9
$USERI4
 70
     0
  9
$USERI5
 70
     0
  9
$USERR1
 40
0.0
  9
$USERR2
 40
0.0
  9
$USERR3
 40
0.0
  9
$USERR4
 40
0.0
  9
$USERR5
 40
0.0
  9
$WORLDVIEW
 70
     1
  9
$SHADEDGE
 70
     3
  9
$SHADEDIF
 70
    70
  9
$TILEMODE
 70
     1
  9
$MAXACTVP
 70
    64
  9
$PINSBASE
 10
0.0
 20
0.0
 30
0.0
  9
$PLIMCHECK
 70
     0
  9
$PEXTMIN
 10
1.000000000000000E+20
 20
1.000000000000000E+20
 30
1.000000000000000E+20
  9
$PEXTMAX
 10
-1.000000000000000E+20
 20
-1.000000000000000E+20
 30
-1.000000000000000E+20
  9
$PLIMMIN
 10
0.0
 20
0.0
  9
$PLIMMAX
 10
12.0
 20
9.0
  9
$UNITMODE
 70
     0
  9
$VISRETAIN
 70
     1
  9
$PLINEGEN
 70
     0
  9
$PSLTSCALE
 70
     1
  9
$TREEDEPTH
 70
  3020
  9
$CMLSTYLE
  2
Standard
  9
$CMLJUST
 70
     0
  9
$CMLSCALE
 40
1.0
  9
$PROXYGRAPHICS
 70
     1
  9
$MEASUREMENT
 70
     0
  9
$CELWEIGHT
370
    -1
  9
$ENDCAPS
280
     0
  9
$JOINSTYLE
280
     0
  9
$LWDISPLAY
290
     0
  9
$INSUNITS
 70
     0
  9
$HYPERLINKBASE
  1

  9
$STYLESHEET
  1

  9
$XEDIT
290
     1
  9
$CEPSNTYPE
380
     0
  9
$PSTYLEMODE
290
     1
  9
$FINGERPRINTGUID
  2
{7D5264B7-0316-43C8-9B1C-1FD813AF6AD8}
  9
$VERSIONGUID
  2
{1AFFBBF0-6BDB-4451-87DA-4819E12462F5}
  9
$EXTNAMES
290
     1
  9
$PSVPSCALE
 40
0.0
  9
$OLESTARTUP
290
     0
  0
ENDSEC
  0
SECTION
  2
CLASSES
  0
CLASS
  1
ACDBDICTIONARYWDFLT
  2
AcDbDictionaryWithDefault
  3
AutoCAD 2000
 90
        0
280
     0
281
     0
  0
CLASS
  1
ACDBPLACEHOLDER
  2
AcDbPlaceHolder
  3
AutoCAD 2000
 90
        0
280
     0
281
     0
  0
CLASS
  1
LAYOUT
  2
AcDbLayout
  3
AutoCAD 2000
 90
        0
280
     0
281
     0
  0
CLASS
  1
DICTIONARYVAR
  2
AcDbDictionaryVar
  3
AutoCAD 2000
 90
        0
280
     0
281
     0
  0
ENDSEC
  0
SECTION
  2
TABLES
  0
TABLE
  2
VPORT
  5
8
330
0
100
AcDbSymbolTable
 70
     2
  0
VPORT
  5
198
330
8
100
AcDbSymbolTableRecord
100
AcDbViewportTableRecord
  2
*Active
 70
     0
 10
0.0
 20
0.0
 11
1.0
 21
1.0
 12
71.0
 22
450.0
 13
0.0
 23
0.0
 14
1.0
 24
1.0
 15
0.0
 25
0.0
 16
0.0
 26
0.0
 36
1.0
 17
0.0
 27
0.0
 37
0.0
 40
905.6842105263157
 41
1.968387776606954
 42
50.0
 43
0.0
 44
0.0
 50
0.0
 51
0.0
 71
     0
 72
   100
 73
     1
 74
     3
 75
     0
 76
     0
 77
     0
 78
     0
281
     0
 65
     1
110
0.0
120
0.0
130
0.0
111
1.0
121
0.0
131
0.0
112
0.0
122
1.0
132
0.0
 79
     1
146
0.0
  0
ENDTAB
  0
TABLE
  2
LTYPE
  5
5
330
0
100
AcDbSymbolTable
 70
     1
  0
LTYPE
  5
13
330
5
100
AcDbSymbolTableRecord
100
AcDbLinetypeTableRecord
  2
ByBlock
 70
     0
  3

 72
    65
 73
     0
 40
0.0
  0
LTYPE
  5
14
330
5
100
AcDbSymbolTableRecord
100
AcDbLinetypeTableRecord
  2
ByLayer
 70
     0
  3

 72
    65
 73
     0
 40
0.0
  0
LTYPE
  5
15
330
5
100
AcDbSymbolTableRecord
100
AcDbLinetypeTableRecord
  2
Continuous
 70
     0
  3
Solid line
 72
    65
 73
     0
 40
0.0
  0
ENDTAB
  0
TABLE
  2
LAYER
  5
2
330
0
100
AcDbSymbolTable
 70
     1
  0
LAYER
  5
10
330
2
100
AcDbSymbolTableRecord
100
AcDbLayerTableRecord
  2
0
 70
     0
 62
     7
  6
Continuous
370
    -3
390
F
  0
ENDTAB
  0
TABLE
  2
STYLE
  5
3
330
0
100
AcDbSymbolTable
 70
     1
  0
STYLE
  5
11
330
3
100
AcDbSymbolTableRecord
100
AcDbTextStyleTableRecord
  2
Standard
 70
     0
 40
0.0
 41
1.0
 50
0.0
 71
     0
 42
0.2
  3
txt
  4

  0
ENDTAB
  0
TABLE
  2
VIEW
  5
6
330
0
100
AcDbSymbolTable
 70
     0
  0
ENDTAB
  0
TABLE
  2
UCS
  5
7
330
0
100
AcDbSymbolTable
 70
     0
  0
ENDTAB
  0
TABLE
  2
APPID
  5
9
330
0
100
AcDbSymbolTable
 70
     1
  0
APPID
  5
12
330
9
100
AcDbSymbolTableRecord
100
AcDbRegAppTableRecord
  2
ACAD
 70
     0
  0
ENDTAB
  0
TABLE
  2
DIMSTYLE
  5
A
330
0
100
AcDbSymbolTable
 70
     1
100
AcDbDimStyleTable
 71
     0
  0
DIMSTYLE
105
190
330
A
100
AcDbSymbolTableRecord
100
AcDbDimStyleTableRecord
  2
Standard
 70
     0
340
11
  0
ENDTAB
  0
TABLE
  2
BLOCK_RECORD
  5
1
330
0
100
AcDbSymbolTable
 70
     0
  0
BLOCK_RECORD
  5
1E
330
1
100
AcDbSymbolTableRecord
100
AcDbBlockTableRecord
  2
*Model_Space
340
21
  0
BLOCK_RECORD
  5
1A
330
1
100
AcDbSymbolTableRecord
100
AcDbBlockTableRecord
  2
*Paper_Space
340
1D
  0
ENDTAB
  0
ENDSEC
  0
SECTION
  2
BLOCKS
  0
BLOCK
  5
1F
330
1E
100
AcDbEntity
  8
0
100
AcDbBlockBegin
  2
*Model_Space
 70
     0
 10
0.0
 20
0.0
 30
0.0
  3
*Model_Space
  1

  0
ENDBLK
  5
20
330
1E
100
AcDbEntity
  8
0
100
AcDbBlockEnd
  0
BLOCK
  5
1B
330
1A
100
AcDbEntity
 67
     1
  8
0
100
AcDbBlockBegin
  2
*Paper_Space
 70
     0
 10
0.0
 20
0.0
 30
0.0
  3
*Paper_Space
  1

  0
ENDBLK
  5
1C
330
1A
100
AcDbEntity
 67
     1
  8
0
100
AcDbBlockEnd
  0
ENDSEC
  0
SECTION
  2
ENTITIES
  0
LINE
  5
22
330
1E
100
AcDbEntity
  8
0
100
AcDbLine
 10
2.556
 20
-0.0000000000000113
 30
0.0
 11
9.371999999999999
 21
-0.0000000000000123
 31
0.0
  0
LINE
  5
23
330
1E
100
AcDbEntity
  8
0
100
AcDbLine
 10
0.0
 20
13.16
 30
0.0
 11
1.703999999999999
 21
14.0
 31
0.0
  0
LINE
  5
24
330
1E
100
AcDbEntity
  8
0
100
AcDbLine
 10
0.0
 20
13.16
 30
0.0
 11
0.0
 21
-0.0000000000000109
 31
0.0
  0
LINE
  5
25
330
1E
100
AcDbEntity
  8
0
100
AcDbLine
 10
0.0
 20
13.16
 30
0.0
 11
2.556
 21
13.16
 31
0.0
  0
LINE
  5
26
330
1E
100
AcDbEntity
  8
0
100
AcDbLine
 10
2.556
 20
-0.0000000000000091
 30
0.0
 11
9.371999999999999
 21
-0.000000000000008
 31
0.0
  0
LINE
  5
27
330
1E
100
AcDbEntity
  8
0
100
AcDbLine
 10
2.556
 20
-0.0000000000000091
 30
0.0
 11
9.371999999999999
 21
-0.000000000000008
 31
0.0
  0
LINE
  5
28
330
1E
100
AcDbEntity
  8
0
100
AcDbLine
 10
2.556
 20
13.16
 30
0.0
 11
9.371999999999999
 21
13.16
 31
0.0
  0
LINE
  5
29
330
1E
100
AcDbEntity
  8
0
100
AcDbLine
 10
1.703999999999999
 20
14.0
 30
0.0
 11
23.21057854130958
 21
14.0
 31
0.0
  0
LINE
  5
2A
330
1E
100
AcDbEntity
  8
0
100
AcDbLine
 10
2.556
 20
13.16
 30
0.0
 11
9.371999999999999
 21
13.16
 31
0.0
  0
LINE
  5
2B
330
1E
100
AcDbEntity
  8
0
100
AcDbLine
 10
9.371999999999999
 20
13.16
 30
0.0
 11
20.73199999999999
 21
13.16
 31
0.0
  0
LINE
  5
2C
330
1E
100
AcDbEntity
  8
0
100
AcDbLine
 10
9.371999999999999
 20
-0.000000000000008
 30
0.0
 11
20.73199999999999
 21
-0.0000000000000071
 31
0.0
  0
LINE
  5
2D
330
1E
100
AcDbEntity
  8
0
100
AcDbLine
 10
0.0
 20
-0.0000000000000102
 30
0.0
 11
2.556
 21
-0.0000000000000113
 31
0.0
  0
LINE
  5
2E
330
1E
100
AcDbEntity
  8
0
100
AcDbLine
 10
0.0
 20
-0.0000000000000102
 30
0.0
 11
0.0
 21
13.16
 31
0.0
  0
LINE
  5
2F
330
1E
100
AcDbEntity
  8
0
100
AcDbLine
 10
0.0
 20
-0.0000000000000102
 30
0.0
 11
2.556
 21
-0.0000000000000091
 31
0.0
  0
LINE
  5
30
330
1E
100
AcDbEntity
  8
0
100
AcDbLine
 10
2.556
 20
-0.0000000000000113
 30
0.0
 11
9.371999999999999
 21
-0.0000000000000123
 31
0.0
  0
LINE
  5
31
330
1E
100
AcDbEntity
  8
0
100
AcDbLine
 10
20.73199999999999
 20
-0.0000000000000071
 30
0.0
 11
35.784
 21
-0.0000000000000064
 31
0.0
  0
LINE
  5
32
330
1E
100
AcDbEntity
  8
0
100
AcDbLine
 10
35.784
 20
-0.0000000000000064
 30
0.0
 11
52.82399999999999
 21
-0.000000000000006
 31
0.0
  0
LINE
  5
33
330
1E
100
AcDbEntity
  8
0
100
AcDbLine
 10
18.14799999999999
 20
98.3603
 30
0.0
 11
18.715
 21
104.8359999999999
 31
0.0
  0
LINE
  5
34
330
1E
100
AcDbEntity
  8
0
100
AcDbLine
 10
18.0
 20
96.66679999999999
 30
0.0
 11
18.327
 21
93.52630000000001
 31
0.0
  0
LINE
  5
35
330
1E
100
AcDbEntity
  8
0
100
AcDbLine
 10
18.0
 20
96.66679999999999
 30
0.0
 11
18.14799999999999
 21
98.3603
 31
0.0
  0
LINE
  5
36
330
1E
100
AcDbEntity
  8
0
100
AcDbLine
 10
20.97199999999999
 20
130.637
 30
0.0
 11
22.366
 21
146.5759999999999
 31
0.0
  0
LINE
  5
37
330
1E
100
AcDbEntity
  8
0
100
AcDbLine
 10
20.97199999999999
 20
130.637
 30
0.0
 11
22.366
 21
146.5759999999999
 31
0.0
  0
LINE
  5
38
330
1E
100
AcDbEntity
  8
0
100
AcDbLine
 10
19.54299999999999
 20
114.2989999999999
 30
0.0
 11
20.97199999999999
 21
130.637
 31
0.0
  0
LINE
  5
39
330
1E
100
AcDbEntity
  8
0
100
AcDbLine
 10
18.715
 20
104.8359999999999
 30
0.0
 11
19.54299999999999
 21
114.2989999999999
 31
0.0
  0
LINE
  5
3A
330
1E
100
AcDbEntity
  8
0
100
AcDbLine
 10
18.715
 20
104.8359999999999
 30
0.0
 11
19.54299999999999
 21
114.2989999999999
 31
0.0
  0
LINE
  5
3B
330
1E
100
AcDbEntity
  8
0
100
AcDbLine
 10
18.327
 20
93.52630000000001
 30
0.0
 11
19.90299999999999
 21
90.87889999999999
 31
0.0
  0
LINE
  5
3C
330
1E
100
AcDbEntity
  8
0
100
AcDbLine
 10
19.90299999999999
 20
90.87889999999999
 30
0.0
 11
22.236
 21
88.86790000000001
 31
0.0
  0
LINE
  5
3D
330
1E
100
AcDbEntity
  8
0
100
AcDbLine
 10
28.413
 20
88.3275
 30
0.0
 11
31.05999999999999
 21
89.9028
 31
0.0
  0
LINE
  5
3E
330
1E
100
AcDbEntity
  8
0
100
AcDbLine
 10
25.272
 20
88.0
 30
0.0
 11
28.413
 21
88.3275
 31
0.0
  0
LINE
  5
3F
330
1E
100
AcDbEntity
  8
0
100
AcDbLine
 10
24.11
 20
166.5
 30
0.0
 11
26.07099999999999
 21
188.914
 31
0.0
  0
LINE
  5
40
330
1E
100
AcDbEntity
  8
0
100
AcDbLine
 10
33.071
 20
92.23640000000001
 30
0.0
 11
33.939
 21
95.27230000000001
 31
0.0
  0
LINE
  5
41
330
1E
100
AcDbEntity
  8
0
100
AcDbLine
 10
35.482
 20
112.905
 30
0.0
 11
36.911
 21
129.2429999999999
 31
0.0
  0
LINE
  5
42
330
1E
100
AcDbEntity
  8
0
100
AcDbLine
 10
35.482
 20
112.905
 30
0.0
 11
36.911
 21
129.2429999999999
 31
0.0
  0
LINE
  5
43
330
1E
100
AcDbEntity
  8
0
100
AcDbLine
 10
34.654
 20
103.441
 30
0.0
 11
35.482
 21
112.905
 31
0.0
  0
LINE
  5
44
330
1E
100
AcDbEntity
  8
0
100
AcDbLine
 10
34.08699999999999
 20
96.9658
 30
0.0
 11
34.654
 21
103.441
 31
0.0
  0
LINE
  5
45
330
1E
100
AcDbEntity
  8
0
100
AcDbLine
 10
33.939
 20
95.27230000000001
 30
0.0
 11
34.08699999999999
 21
96.9658
 31
0.0
  0
LINE
  5
46
330
1E
100
AcDbEntity
  8
0
100
AcDbLine
 10
31.05999999999999
 20
89.9028
 30
0.0
 11
33.071
 21
92.23640000000001
 31
0.0
  0
LINE
  5
47
330
1E
100
AcDbEntity
  8
0
100
AcDbLine
 10
24.11
 20
166.5
 30
0.0
 11
26.07099999999999
 21
188.914
 31
0.0
  0
LINE
  5
48
330
1E
100
AcDbEntity
  8
0
100
AcDbLine
 10
28.023
 20
211.229
 30
0.0
 11
29.975
 21
233.544
 31
0.0
  0
LINE
  5
49
330
1E
100
AcDbEntity
  8
0
100
AcDbLine
 10
31.683
 20
253.069
 30
0.0
 11
33.39199999999999
 21
272.595
 31
0.0
  0
LINE
  5
4A
330
1E
100
AcDbEntity
  8
0
100
AcDbLine
 10
33.39199999999999
 20
272.595
 30
0.0
 11
35.344
 21
294.91
 31
0.0
  0
LINE
  5
4B
330
1E
100
AcDbEntity
  8
0
100
AcDbLine
 10
35.344
 20
294.91
 30
0.0
 11
37.296
 21
317.2239999999999
 31
0.0
  0
LINE
  5
4C
330
1E
100
AcDbEntity
  8
0
100
AcDbLine
 10
29.975
 20
233.544
 30
0.0
 11
31.683
 21
253.069
 31
0.0
  0
LINE
  5
4D
330
1E
100
AcDbEntity
  8
0
100
AcDbLine
 10
28.023
 20
211.229
 30
0.0
 11
29.975
 21
233.544
 31
0.0
  0
LINE
  5
4E
330
1E
100
AcDbEntity
  8
0
100
AcDbLine
 10
26.07099999999999
 20
188.914
 30
0.0
 11
28.023
 21
211.229
 31
0.0
  0
LINE
  5
4F
330
1E
100
AcDbEntity
  8
0
100
AcDbLine
 10
24.11
 20
166.5
 30
0.0
 11
26.07099999999999
 21
188.914
 31
0.0
  0
LINE
  5
50
330
1E
100
AcDbEntity
  8
0
100
AcDbLine
 10
22.366
 20
146.5759999999999
 30
0.0
 11
24.11
 21
166.5
 31
0.0
  0
LINE
  5
51
330
1E
100
AcDbEntity
  8
0
100
AcDbLine
 10
22.236
 20
88.86790000000001
 30
0.0
 11
25.272
 21
88.0
 31
0.0
  0
LINE
  5
52
330
1E
100
AcDbEntity
  8
0
100
AcDbLine
 10
22.15199999999999
 20
14.0
 30
0.0
 11
36.63599999999999
 21
14.0
 31
0.0
  0
LINE
  5
53
330
1E
100
AcDbEntity
  8
0
100
AcDbLine
 10
20.73199999999999
 20
13.16
 30
0.0
 11
35.784
 21
13.16
 31
0.0
  0
LINE
  5
54
330
1E
100
AcDbEntity
  8
0
100
AcDbLine
 10
35.784
 20
13.16
 30
0.0
 11
52.82399999999999
 21
13.16
 31
0.0
  0
LINE
  5
55
330
1E
100
AcDbEntity
  8
0
100
AcDbLine
 10
9.371999999999999
 20
-0.0000000000000123
 30
0.0
 11
20.73199999999999
 21
-0.0000000000000132
 31
0.0
  0
LINE
  5
56
330
1E
100
AcDbEntity
  8
0
100
AcDbLine
 10
20.73199999999999
 20
-0.0000000000000132
 30
0.0
 11
35.784
 21
-0.0000000000000139
 31
0.0
  0
LINE
  5
57
330
1E
100
AcDbEntity
  8
0
100
AcDbLine
 10
50.0
 20
14.0
 30
0.0
 11
50.0
 21
278.850171336372
 31
0.0
  0
LINE
  5
58
330
1E
100
AcDbEntity
  8
0
100
AcDbLine
 10
37.296
 20
317.2239999999999
 30
0.0
 11
39.25699999999999
 21
339.639
 31
0.0
  0
LINE
  5
5B
330
1E
100
AcDbEntity
  8
0
100
AcDbLine
 10
39.25699999999999
 20
339.639
 30
0.0
 11
41.0003
 21
360.563
 31
0.0
  0
LINE
  5
5E
330
1E
100
AcDbEntity
  8
0
100
AcDbLine
 10
41.0003
 20
360.563
 30
0.0
 11
42.9264
 21
382.578
 31
0.0
  0
LINE
  5
62
330
1E
100
AcDbEntity
  8
0
100
AcDbLine
 10
44.6696
 20
402.5019999999999
 30
0.0
 11
46.68289999999999
 21
425.5139999999999
 31
0.0
  0
LINE
  5
63
330
1E
100
AcDbEntity
  8
0
100
AcDbLine
 10
42.9264
 20
382.578
 30
0.0
 11
44.6696
 21
402.5019999999999
 31
0.0
  0
LINE
  5
65
330
1E
100
AcDbEntity
  8
0
100
AcDbLine
 10
47.6225
 20
251.675
 30
0.0
 11
49.3307
 21
271.1999999999999
 31
0.0
  0
LINE
  5
66
330
1E
100
AcDbEntity
  8
0
100
AcDbLine
 10
49.3307
 20
271.1999999999999
 30
0.0
 11
51.283
 21
293.5149999999999
 31
0.0
  0
LINE
  5
67
330
1E
100
AcDbEntity
  8
0
100
AcDbLine
 10
49.3307
 20
271.1999999999999
 30
0.0
 11
50.0
 21
278.8501713363729
 31
0.0
  0
LINE
  5
6B
330
1E
100
AcDbEntity
  8
0
100
AcDbLine
 10
48.8705
 20
450.5189999999999
 30
0.0
 11
51.0319
 21
475.225
 31
0.0
  0
LINE
  5
6C
330
1E
100
AcDbEntity
  8
0
100
AcDbLine
 10
48.8705
 20
450.5189999999999
 30
0.0
 11
50.0
 21
463.429811048395
 31
0.0
  0
LINE
  5
6D
330
1E
100
AcDbEntity
  8
0
100
AcDbLine
 10
46.68289999999999
 20
425.5139999999999
 30
0.0
 11
48.8705
 21
450.5189999999999
 31
0.0
  0
LINE
  5
6F
330
1E
100
AcDbEntity
  8
0
100
AcDbLine
 10
45.9142
 20
232.149
 30
0.0
 11
47.6225
 21
251.675
 31
0.0
  0
LINE
  5
70
330
1E
100
AcDbEntity
  8
0
100
AcDbLine
 10
43.96189999999999
 20
209.8349999999999
 30
0.0
 11
45.9142
 21
232.149
 31
0.0
  0
LINE
  5
71
330
1E
100
AcDbEntity
  8
0
100
AcDbLine
 10
42.0096
 20
187.52
 30
0.0
 11
43.96189999999999
 21
209.8349999999999
 31
0.0
  0
LINE
  5
72
330
1E
100
AcDbEntity
  8
0
100
AcDbLine
 10
40.049
 20
165.106
 30
0.0
 11
42.0096
 21
187.52
 31
0.0
  0
LINE
  5
73
330
1E
100
AcDbEntity
  8
0
100
AcDbLine
 10
38.306
 20
145.182
 30
0.0
 11
40.049
 21
165.106
 31
0.0
  0
LINE
  5
74
330
1E
100
AcDbEntity
  8
0
100
AcDbLine
 10
36.911
 20
129.2429999999999
 30
0.0
 11
38.306
 21
145.182
 31
0.0
  0
LINE
  5
75
330
1E
100
AcDbEntity
  8
0
100
AcDbLine
 10
50.0
 20
278.850171336372
 30
0.0
 11
50.0
 21
14.0
 31
0.0
  0
LINE
  5
76
330
1E
100
AcDbEntity
  8
0
100
AcDbLine
 10
50.0
 20
660.422
 30
0.0
 11
50.756
 21
660.422
 31
0.0
  0
LINE
  5
77
330
1E
100
AcDbEntity
  8
0
100
AcDbLine
 10
50.0
 20
660.422
 30
0.0
 11
50.42139999999999
 21
660.0
 31
0.0
  0
LINE
  5
78
330
1E
100
AcDbEntity
  8
0
100
AcDbLine
 10
50.0
 20
660.422
 30
0.0
 11
50.0
 21
852.0
 31
0.0
  0
LINE
  5
79
330
1E
100
AcDbEntity
  8
0
100
AcDbLine
 10
50.0
 20
659.5779999999999
 30
0.0
 11
50.42139999999999
 21
660.0
 31
0.0
  0
LINE
  5
7A
330
1E
100
AcDbEntity
  8
0
100
AcDbLine
 10
50.0
 20
659.5779999999999
 30
0.0
 11
50.0
 21
463.429811048395
 31
0.0
  0
LINE
  5
7B
330
1E
100
AcDbEntity
  8
0
100
AcDbLine
 10
50.0
 20
659.5779999999999
 30
0.0
 11
50.756
 21
659.5779999999999
 31
0.0
  0
LINE
  5
7C
330
1E
100
AcDbEntity
  8
0
100
AcDbLine
 10
51.283
 20
293.5149999999999
 30
0.0
 11
53.2353
 21
315.83
 31
0.0
  0
LINE
  5
7D
330
1E
100
AcDbEntity
  8
0
100
AcDbLine
 10
51.0319
 20
475.225
 30
0.0
 11
53.0365
 21
498.1369999999999
 31
0.0
  0
LINE
  5
7E
330
1E
100
AcDbEntity
  8
0
100
AcDbLine
 10
50.756
 20
660.422
 30
0.0
 11
52.772
 21
660.422
 31
0.0
  0
LINE
  5
7F
330
1E
100
AcDbEntity
  8
0
100
AcDbLine
 10
50.42139999999999
 20
660.0
 30
0.0
 11
51.1774
 21
660.0
 31
0.0
  0
LINE
  5
80
330
1E
100
AcDbEntity
  8
0
100
AcDbLine
 10
51.1774
 20
660.0
 30
0.0
 11
53.1934
 21
660.0
 31
0.0
  0
LINE
  5
81
330
1E
100
AcDbEntity
  8
0
100
AcDbLine
 10
50.756
 20
659.5779999999999
 30
0.0
 11
52.772
 21
659.5779999999999
 31
0.0
  0
LINE
  5
82
330
1E
100
AcDbEntity
  8
0
100
AcDbLine
 10
50.0
 20
463.429811048394
 30
0.0
 11
50.0
 21
659.5779999999999
 31
0.0
  0
LINE
  5
83
330
1E
100
AcDbEntity
  8
0
100
AcDbLine
 10
36.63599999999999
 20
14.0
 30
0.0
 11
53.108
 21
14.0
 31
0.0
  0
LINE
  5
84
330
1E
100
AcDbEntity
  8
0
100
AcDbLine
 10
35.784
 20
-0.0000000000000139
 30
0.0
 11
52.82399999999999
 21
-0.0000000000000144
 31
0.0
  0
LINE
  5
85
330
1E
100
AcDbEntity
  8
0
100
AcDbLine
 10
50.0
 20
863.4
 30
0.0
 11
50.50399999999999
 21
864.0
 31
0.0
  0
LINE
  5
86
330
1E
100
AcDbEntity
  8
0
100
AcDbLine
 10
50.0
 20
863.4
 30
0.0
 11
50.0
 21
852.0
 31
0.0
  0
LINE
  5
87
330
1E
100
AcDbEntity
  8
0
100
AcDbLine
 10
50.0
 20
863.4
 30
0.0
 11
50.756
 21
863.4
 31
0.0
  0
LINE
  5
88
330
1E
100
AcDbEntity
  8
0
100
AcDbLine
 10
50.0
 20
852.0
 30
0.0
 11
50.0
 21
660.422
 31
0.0
  0
LINE
  5
89
330
1E
100
AcDbEntity
  8
0
100
AcDbLine
 10
50.0
 20
852.0
 30
0.0
 11
50.0
 21
863.4
 31
0.0
  0
LINE
  5
8A
330
1E
100
AcDbEntity
  8
0
100
AcDbLine
 10
50.0
 20
897.8819999999998
 30
0.0
 11
50.0
 21
867.3960000000001
 31
0.0
  0
LINE
  5
8B
330
1E
100
AcDbEntity
  8
0
100
AcDbLine
 10
50.0
 20
897.8819999999998
 30
0.0
 11
50.45
 21
898.8699999999999
 31
0.0
  0
LINE
  5
8C
330
1E
100
AcDbEntity
  8
0
100
AcDbLine
 10
50.50399999999999
 20
864.0
 30
0.0
 11
51.26
 21
864.0
 31
0.0
  0
LINE
  5
8D
330
1E
100
AcDbEntity
  8
0
100
AcDbLine
 10
50.756
 20
863.4
 30
0.0
 11
52.772
 21
863.4
 31
0.0
  0
LINE
  5
8E
330
1E
100
AcDbEntity
  8
0
100
AcDbLine
 10
51.0
 20
864.5930000000001
 30
0.0
 11
51.2402116198921
 21
866.994467679429
 31
0.0
  0
LINE
  5
8F
330
1E
100
AcDbEntity
  8
0
100
AcDbLine
 10
51.0
 20
864.5930000000001
 30
0.0
 11
51.0
 21
864.0
 31
0.0
  0
LINE
  5
90
330
1E
100
AcDbEntity
  8
0
100
AcDbLine
 10
51.26
 20
864.0
 30
0.0
 11
53.276
 21
864.0
 31
0.0
  0
LINE
  5
91
330
1E
100
AcDbEntity
  8
0
100
AcDbLine
 10
51.0
 20
864.0
 30
0.0
 11
51.0
 21
864.5930000000001
 31
0.0
  0
LINE
  5
92
330
1E
100
AcDbEntity
  8
0
100
AcDbLine
 10
51.5
 20
899.294
 30
0.0
 11
59.75
 21
899.647
 31
0.0
  0
LINE
  5
93
330
1E
100
AcDbEntity
  8
0
100
AcDbLine
 10
51.2
 20
898.8699999999999
 30
0.0
 11
53.3
 21
898.8699999999999
 31
0.0
  0
LINE
  5
94
330
1E
100
AcDbEntity
  8
0
100
AcDbLine
 10
50.45
 20
898.8699999999999
 30
0.0
 11
51.2
 21
898.8699999999999
 31
0.0
  0
LINE
  5
95
330
1E
100
AcDbEntity
  8
0
100
AcDbLine
 10
50.45
 20
898.8699999999999
 30
0.0
 11
51.5
 21
899.294
 31
0.0
  0
LINE
  5
96
330
1E
100
AcDbEntity
  8
0
100
AcDbLine
 10
50.75
 20
867.0720000000001
 30
0.0
 11
52.925
 21
866.7280000000001
 31
0.0
  0
LINE
  5
97
330
1E
100
AcDbEntity
  8
0
100
AcDbLine
 10
50.0
 20
867.3960000000001
 30
0.0
 11
50.75
 21
867.0720000000001
 31
0.0
  0
LINE
  5
98
330
1E
100
AcDbEntity
  8
0
100
AcDbLine
 10
50.0
 20
867.3960000000001
 30
0.0
 11
50.0
 21
897.8819999999998
 31
0.0
  0
LINE
  5
99
330
1E
100
AcDbEntity
  8
0
100
AcDbLine
 10
51.5
 20
750.888
 30
0.0
 11
51.5
 21
749.888
 31
0.0
  0
LINE
  5
9A
330
1E
100
AcDbEntity
  8
0
100
AcDbLine
 10
51.5
 20
750.888
 30
0.0
 11
52.2
 21
755.218
 31
0.0
  0
LINE
  5
9D
330
1E
100
AcDbEntity
  8
0
100
AcDbLine
 10
52.772
 20
660.422
 30
0.0
 11
56.13199999999999
 21
660.422
 31
0.0
  0
LINE
  5
9E
330
1E
100
AcDbEntity
  8
0
100
AcDbLine
 10
52.772
 20
659.5779999999999
 30
0.0
 11
56.13199999999999
 21
659.5779999999999
 31
0.0
  0
LINE
  5
9F
330
1E
100
AcDbEntity
  8
0
100
AcDbLine
 10
52.82399999999999
 20
13.16
 30
0.0
 11
71.0
 21
13.16
 31
0.0
  0
LINE
  5
A0
330
1E
100
AcDbEntity
  8
0
100
AcDbLine
 10
53.0365
 20
498.1369999999999
 30
0.0
 11
55.9127
 21
531.0109999999999
 31
0.0
  0
LINE
  5
A1
330
1E
100
AcDbEntity
  8
0
100
AcDbLine
 10
53.2353
 20
315.83
 30
0.0
 11
55.1963
 21
338.244
 31
0.0
  0
LINE
  5
A2
330
1E
100
AcDbEntity
  8
0
100
AcDbLine
 10
53.1934
 20
660.0
 30
0.0
 11
56.4831
 21
660.0
 31
0.0
  0
LINE
  5
A3
330
1E
100
AcDbEntity
  8
0
100
AcDbLine
 10
53.108
 20
14.0
 30
0.0
 11
71.0
 21
14.0
 31
0.0
  0
LINE
  5
A4
330
1E
100
AcDbEntity
  8
0
100
AcDbLine
 10
52.82399999999999
 20
-0.000000000000006
 30
0.0
 11
71.0
 21
-0.0000000000000058
 31
0.0
  0
LINE
  5
A5
330
1E
100
AcDbEntity
  8
0
100
AcDbLine
 10
52.82399999999999
 20
-0.0000000000000144
 30
0.0
 11
71.0
 21
-0.0000000000000145
 31
0.0
  0
LINE
  5
A6
330
1E
100
AcDbEntity
  8
0
100
AcDbLine
 10
55.1963
 20
338.244
 30
0.0
 11
56.9394
 21
358.1679999999999
 31
0.0
  0
LINE
  5
AA
330
1E
100
AcDbEntity
  8
0
100
AcDbLine
 10
56.9394
 20
358.1679999999999
 30
0.0
 11
58.8656
 21
381.184
 31
0.0
  0
LINE
  5
AB
330
1E
100
AcDbEntity
  8
0
100
AcDbLine
 10
60.6087
 20
401.1079999999999
 30
0.0
 11
62.62199999999999
 21
424.12
 31
0.0
  0
LINE
  5
AC
330
1E
100
AcDbEntity
  8
0
100
AcDbLine
 10
58.8656
 20
381.184
 30
0.0
 11
60.6087
 21
401.1079999999999
 31
0.0
  0
LINE
  5
AF
330
1E
100
AcDbEntity
  8
0
100
AcDbLine
 10
55.9127
 20
531.0109999999999
 30
0.0
 11
62.84326860285189
 21
734.7115276339799
 31
0.0
  0
LINE
  5
B0
330
1E
100
AcDbEntity
  8
0
100
AcDbLine
 10
56.13199999999999
 20
660.422
 30
0.0
 11
60.3156920976702
 21
660.422
 31
0.0
  0
LINE
  5
B1
330
1E
100
AcDbEntity
  8
0
100
AcDbLine
 10
56.4831
 20
660.0
 30
0.0
 11
60.30133425586989
 21
660.0
 31
0.0
  0
LINE
  5
B2
330
1E
100
AcDbEntity
  8
0
100
AcDbLine
 10
56.13199999999999
 20
659.5779999999999
 30
0.0
 11
60.2869764140696
 21
659.5779999999999
 31
0.0
  0
LINE
  5
B3
330
1E
100
AcDbEntity
  8
0
100
AcDbLine
 10
68.9756
 20
496.743
 30
0.0
 11
71.85179999999999
 21
529.617
 31
0.0
  0
LINE
  5
B4
330
1E
100
AcDbEntity
  8
0
100
AcDbLine
 10
66.971
 20
473.8299999999999
 30
0.0
 11
68.9756
 21
496.743
 31
0.0
  0
LINE
  5
B5
330
1E
100
AcDbEntity
  8
0
100
AcDbLine
 10
64.8096
 20
449.124
 30
0.0
 11
66.971
 21
473.8299999999999
 31
0.0
  0
LINE
  5
B6
330
1E
100
AcDbEntity
  8
0
100
AcDbLine
 10
62.62199999999999
 20
424.12
 30
0.0
 11
64.8096
 21
449.124
 31
0.0
  0
LINE
  5
B7
330
1E
100
AcDbEntity
  8
0
100
AcDbLine
 10
71.0
 20
14.0
 30
0.0
 11
88.892
 21
14.0
 31
0.0
  0
LINE
  5
B8
330
1E
100
AcDbEntity
  8
0
100
AcDbLine
 10
71.0
 20
13.16
 30
0.0
 11
89.176
 21
13.16
 31
0.0
  0
LINE
  5
B9
330
1E
100
AcDbEntity
  8
0
100
AcDbLine
 10
71.0
 20
-0.0000000000000058
 30
0.0
 11
89.176
 21
-0.000000000000006
 31
0.0
  0
LINE
  5
BA
330
1E
100
AcDbEntity
  8
0
100
AcDbLine
 10
71.85179999999999
 20
529.617
 30
0.0
 11
78.7889501095559
 21
734.5827259319849
 31
0.0
  0
LINE
  5
BB
330
1E
100
AcDbEntity
  8
0
100
AcDbLine
 10
71.85179999999999
 20
529.617
 30
0.0
 11
78.7889501095559
 21
734.5827259319849
 31
0.0
  0
LINE
  5
BC
330
1E
100
AcDbEntity
  8
0
100
AcDbLine
 10
76.2503840134422
 20
659.5779999999999
 30
0.0
 11
76.376
 21
659.5779999999999
 31
0.0
  0
LINE
  5
BD
330
1E
100
AcDbEntity
  8
0
100
AcDbLine
 10
71.0
 20
-0.0000000000000145
 30
0.0
 11
89.176
 21
-0.0000000000000144
 31
0.0
  0
LINE
  5
BE
330
1E
100
AcDbEntity
  8
0
100
AcDbLine
 10
76.376
 20
659.5779999999999
 30
0.0
 11
81.416
 21
659.5779999999999
 31
0.0
  0
LINE
  5
BF
330
1E
100
AcDbEntity
  8
0
100
AcDbLine
 10
85.868
 20
659.5779999999999
 30
0.0
 11
89.228
 21
659.5779999999999
 31
0.0
  0
LINE
  5
C0
330
1E
100
AcDbEntity
  8
0
100
AcDbLine
 10
81.416
 20
659.5779999999999
 30
0.0
 11
85.868
 21
659.5779999999999
 31
0.0
  0
LINE
  5
C1
330
1E
100
AcDbEntity
  8
0
100
AcDbLine
 10
85.5169
 20
660.0
 30
0.0
 11
88.8066
 21
660.0
 31
0.0
  0
LINE
  5
C2
330
1E
100
AcDbEntity
  8
0
100
AcDbLine
 10
81.2053
 20
660.0
 30
0.0
 11
85.5169
 21
660.0
 31
0.0
  0
LINE
  5
C3
330
1E
100
AcDbEntity
  8
0
100
AcDbLine
 10
81.416
 20
660.422
 30
0.0
 11
85.868
 21
660.422
 31
0.0
  0
LINE
  5
C4
330
1E
100
AcDbEntity
  8
0
100
AcDbLine
 10
76.30580000000001
 20
660.0
 30
0.0
 11
81.2053
 21
660.0
 31
0.0
  0
LINE
  5
C5
330
1E
100
AcDbEntity
  8
0
100
AcDbLine
 10
76.376
 20
660.422
 30
0.0
 11
81.416
 21
660.422
 31
0.0
  0
LINE
  5
C6
330
1E
100
AcDbEntity
  8
0
100
AcDbLine
 10
71.0
 20
733.0
 30
0.0
 11
76.0
 21
733.6060000000001
 31
0.0
  0
LINE
  5
C7
330
1E
100
AcDbEntity
  8
0
100
AcDbLine
 10
76.0
 20
733.6060000000001
 30
0.0
 11
80.7
 21
735.2519999999999
 31
0.0
  0
LINE
  5
C8
330
1E
100
AcDbEntity
  8
0
100
AcDbLine
 10
76.278949543927
 20
660.422
 30
0.0
 11
76.376
 21
660.422
 31
0.0
  0
LINE
  5
C9
330
1E
100
AcDbEntity
  8
0
100
AcDbLine
 10
88.892
 20
14.0
 30
0.0
 11
105.3639999999999
 21
14.0
 31
0.0
  0
LINE
  5
CA
330
1E
100
AcDbEntity
  8
0
100
AcDbLine
 10
89.176
 20
13.16
 30
0.0
 11
106.2159999999999
 21
13.16
 31
0.0
  0
LINE
  5
CB
330
1E
100
AcDbEntity
  8
0
100
AcDbLine
 10
89.176
 20
-0.000000000000006
 30
0.0
 11
106.2159999999999
 21
-0.0000000000000064
 31
0.0
  0
LINE
  5
CC
330
1E
100
AcDbEntity
  8
0
100
AcDbLine
 10
89.228
 20
659.5779999999999
 30
0.0
 11
91.24399999999999
 21
659.5779999999999
 31
0.0
  0
LINE
  5
CD
330
1E
100
AcDbEntity
  8
0
100
AcDbLine
 10
89.176
 20
-0.0000000000000144
 30
0.0
 11
106.2159999999999
 21
-0.0000000000000139
 31
0.0
  0
LINE
  5
CE
330
1E
100
AcDbEntity
  8
0
100
AcDbLine
 10
91.24399999999999
 20
659.5779999999999
 30
0.0
 11
92.0
 21
659.5779999999999
 31
0.0
  0
LINE
  5
CF
330
1E
100
AcDbEntity
  8
0
100
AcDbLine
 10
92.0
 20
14.0
 30
0.0
 11
92.0
 21
659.5779999999999
 31
0.0
  0
LINE
  5
D0
330
1E
100
AcDbEntity
  8
0
100
AcDbLine
 10
92.0
 20
659.5779999999999
 30
0.0
 11
92.0
 21
14.0
 31
0.0
  0
LINE
  5
D1
330
1E
100
AcDbEntity
  8
0
100
AcDbLine
 10
90.82259999999999
 20
660.0
 30
0.0
 11
91.57859999999999
 21
660.0
 31
0.0
  0
LINE
  5
D2
330
1E
100
AcDbEntity
  8
0
100
AcDbLine
 10
91.57859999999999
 20
660.0
 30
0.0
 11
92.0
 21
660.422
 31
0.0
  0
LINE
  5
D3
330
1E
100
AcDbEntity
  8
0
100
AcDbLine
 10
91.57859999999999
 20
660.0
 30
0.0
 11
92.0
 21
659.5779999999999
 31
0.0
  0
LINE
  5
D4
330
1E
100
AcDbEntity
  8
0
100
AcDbLine
 10
88.8066
 20
660.0
 30
0.0
 11
90.82259999999999
 21
660.0
 31
0.0
  0
LINE
  5
D5
330
1E
100
AcDbEntity
  8
0
100
AcDbLine
 10
91.24399999999999
 20
660.422
 30
0.0
 11
92.0
 21
660.422
 31
0.0
  0
LINE
  5
D6
330
1E
100
AcDbEntity
  8
0
100
AcDbLine
 10
121.2679999999999
 20
-0.0000000000000071
 30
0.0
 11
132.6279999999999
 21
-0.000000000000008
 31
0.0
  0
LINE
  5
D7
330
1E
100
AcDbEntity
  8
0
100
AcDbLine
 10
106.2159999999999
 20
-0.0000000000000064
 30
0.0
 11
121.2679999999999
 21
-0.0000000000000071
 31
0.0
  0
LINE
  5
D8
330
1E
100
AcDbEntity
  8
0
100
AcDbLine
 10
121.2679999999999
 20
13.16
 30
0.0
 11
132.6279999999999
 21
13.16
 31
0.0
  0
LINE
  5
D9
330
1E
100
AcDbEntity
  8
0
100
AcDbLine
 10
105.3639999999999
 20
14.0
 30
0.0
 11
119.8479999999999
 21
14.0
 31
0.0
  0
LINE
  5
DA
330
1E
100
AcDbEntity
  8
0
100
AcDbLine
 10
106.2159999999999
 20
13.16
 30
0.0
 11
121.2679999999999
 21
13.16
 31
0.0
  0
LINE
  5
DB
330
1E
100
AcDbEntity
  8
0
100
AcDbLine
 10
139.4439999999999
 20
-0.0000000000000091
 30
0.0
 11
142.0
 21
-0.0000000000000102
 31
0.0
  0
LINE
  5
DC
330
1E
100
AcDbEntity
  8
0
100
AcDbLine
 10
119.8479999999999
 20
14.0
 30
0.0
 11
140.296
 21
14.0
 31
0.0
  0
LINE
  5
DD
330
1E
100
AcDbEntity
  8
0
100
AcDbLine
 10
139.4439999999999
 20
13.16
 30
0.0
 11
142.0
 21
13.16
 31
0.0
  0
LINE
  5
DE
330
1E
100
AcDbEntity
  8
0
100
AcDbLine
 10
132.6279999999999
 20
13.16
 30
0.0
 11
139.4439999999999
 21
13.16
 31
0.0
  0
LINE
  5
DF
330
1E
100
AcDbEntity
  8
0
100
AcDbLine
 10
132.6279999999999
 20
-0.000000000000008
 30
0.0
 11
139.4439999999999
 21
-0.0000000000000091
 31
0.0
  0
LINE
  5
E0
330
1E
100
AcDbEntity
  8
0
100
AcDbLine
 10
142.0
 20
-0.0000000000000102
 30
0.0
 11
142.0
 21
13.16
 31
0.0
  0
LINE
  5
E1
330
1E
100
AcDbEntity
  8
0
100
AcDbLine
 10
140.296
 20
14.0
 30
0.0
 11
142.0
 21
13.16
 31
0.0
  0
LINE
  5
E2
330
1E
100
AcDbEntity
  8
0
100
AcDbLine
 10
142.0
 20
13.16
 30
0.0
 11
142.0
 21
-0.0000000000000109
 31
0.0
  0
LINE
  5
E3
330
1E
100
AcDbEntity
  8
0
100
AcDbLine
 10
139.4439999999999
 20
-0.0000000000000113
 30
0.0
 11
142.0
 21
-0.0000000000000102
 31
0.0
  0
LINE
  5
E4
330
1E
100
AcDbEntity
  8
0
100
AcDbLine
 10
132.6279999999999
 20
-0.0000000000000123
 30
0.0
 11
139.4439999999999
 21
-0.0000000000000113
 31
0.0
  0
LINE
  5
E5
330
1E
100
AcDbEntity
  8
0
100
AcDbLine
 10
121.2679999999999
 20
-0.0000000000000132
 30
0.0
 11
132.6279999999999
 21
-0.0000000000000123
 31
0.0
  0
LINE
  5
E6
330
1E
100
AcDbEntity
  8
0
100
AcDbLine
 10
106.2159999999999
 20
-0.0000000000000139
 30
0.0
 11
121.2679999999999
 21
-0.0000000000000132
 31
0.0
  0
LINE
  5
E7
330
1E
100
AcDbEntity
  8
0
100
AcDbLine
 10
92.0
 20
660.422
 30
0.0
 11
92.0
 21
852.0
 31
0.0
  0
LINE
  5
E8
330
1E
100
AcDbEntity
  8
0
100
AcDbLine
 10
89.228
 20
660.422
 30
0.0
 11
91.24399999999999
 21
660.422
 31
0.0
  0
LINE
  5
E9
330
1E
100
AcDbEntity
  8
0
100
AcDbLine
 10
85.868
 20
660.422
 30
0.0
 11
89.228
 21
660.422
 31
0.0
  0
LINE
  5
EA
330
1E
100
AcDbEntity
  8
0
100
AcDbLine
 10
80.7
 20
735.2519999999999
 30
0.0
 11
84.8
 21
737.936
 31
0.0
  0
LINE
  5
EB
330
1E
100
AcDbEntity
  8
0
100
AcDbLine
 10
84.8
 20
737.936
 30
0.0
 11
87.9
 21
741.4869999999999
 31
0.0
  0
LINE
  5
EC
330
1E
100
AcDbEntity
  8
0
100
AcDbLine
 10
66.0
 20
733.6060000000001
 30
0.0
 11
71.0
 21
733.0
 31
0.0
  0
LINE
  5
ED
330
1E
100
AcDbEntity
  8
0
100
AcDbLine
 10
61.29999999999999
 20
735.2519999999999
 30
0.0
 11
66.0
 21
733.6060000000001
 31
0.0
  0
LINE
  5
EE
330
1E
100
AcDbEntity
  8
0
100
AcDbLine
 10
87.9
 20
741.4869999999999
 30
0.0
 11
89.8
 21
745.557
 31
0.0
  0
LINE
  5
EF
330
1E
100
AcDbEntity
  8
0
100
AcDbLine
 10
89.8
 20
745.557
 30
0.0
 11
90.5
 21
749.888
 31
0.0
  0
LINE
  5
F0
330
1E
100
AcDbEntity
  8
0
100
AcDbLine
 10
57.2
 20
737.936
 30
0.0
 11
61.29999999999999
 21
735.2519999999999
 31
0.0
  0
LINE
  5
F1
330
1E
100
AcDbEntity
  8
0
100
AcDbLine
 10
54.1
 20
741.4869999999999
 30
0.0
 11
57.2
 21
737.936
 31
0.0
  0
LINE
  5
F2
330
1E
100
AcDbEntity
  8
0
100
AcDbLine
 10
52.2
 20
755.218
 30
0.0
 11
54.1
 21
759.288
 31
0.0
  0
LINE
  5
F3
330
1E
100
AcDbEntity
  8
0
100
AcDbLine
 10
53.5
 20
773.388
 30
0.0
 11
53.5
 21
758.0027368421049
 31
0.0
  0
LINE
  5
F4
330
1E
100
AcDbEntity
  8
0
100
AcDbLine
 10
53.5
 20
773.388
 30
0.0
 11
54.1
 21
777.285
 31
0.0
  0
LINE
  5
F5
330
1E
100
AcDbEntity
  8
0
100
AcDbLine
 10
52.2
 20
754.218
 30
0.0
 11
54.1
 21
758.288
 31
0.0
  0
LINE
  5
F6
330
1E
100
AcDbEntity
  8
0
100
AcDbLine
 10
53.276
 20
864.0
 30
0.0
 11
56.552
 21
864.0
 31
0.0
  0
LINE
  5
F7
330
1E
100
AcDbEntity
  8
0
100
AcDbLine
 10
52.772
 20
863.4
 30
0.0
 11
56.13199999999999
 21
863.4
 31
0.0
  0
LINE
  5
F8
330
1E
100
AcDbEntity
  8
0
100
AcDbLine
 10
53.3
 20
898.8699999999999
 30
0.0
 11
56.75
 21
898.8699999999999
 31
0.0
  0
LINE
  5
F9
330
1E
100
AcDbEntity
  8
0
100
AcDbLine
 10
52.925
 20
866.7280000000001
 30
0.0
 11
56.375
 21
866.4239999999999
 31
0.0
  0
LINE
  5
FA
330
1E
100
AcDbEntity
  8
0
100
AcDbLine
 10
53.5
 20
831.7379999999999
 30
0.0
 11
53.5
 21
773.888
 31
0.0
  0
LINE
  5
FB
330
1E
100
AcDbEntity
  8
0
100
AcDbLine
 10
53.5
 20
831.7379999999999
 30
0.0
 11
54.1
 21
838.221
 31
0.0
  0
LINE
  5
FC
330
1E
100
AcDbEntity
  8
0
100
AcDbLine
 10
53.5
 20
773.888
 30
0.0
 11
53.5384862091084
 21
773.637967928159
 31
0.0
  0
LINE
  5
FD
330
1E
100
AcDbEntity
  8
0
100
AcDbLine
 10
53.5
 20
773.888
 30
0.0
 11
53.5
 21
831.7379999999999
 31
0.0
  0
LINE
  5
FE
330
1E
100
AcDbEntity
  8
0
100
AcDbLine
 10
53.5
 20
773.888
 30
0.0
 11
54.1
 21
777.7849999999999
 31
0.0
  0
LINE
  5
FF
330
1E
100
AcDbEntity
  8
0
100
AcDbLine
 10
54.1
 20
777.285
 30
0.0
 11
55.8
 21
780.922
 31
0.0
  0
LINE
  5
100
330
1E
100
AcDbEntity
  8
0
100
AcDbLine
 10
54.1
 20
759.288
 30
0.0
 11
57.2
 21
762.8389999999999
 31
0.0
  0
LINE
  5
101
330
1E
100
AcDbEntity
  8
0
100
AcDbLine
 10
88.49999999999999
 20
758.0027368421049
 30
0.0
 11
88.49999999999999
 21
773.388
 31
0.0
  0
LINE
  5
102
330
1E
100
AcDbEntity
  8
0
100
AcDbLine
 10
89.8
 20
755.218
 30
0.0
 11
90.5
 21
750.888
 31
0.0
  0
LINE
  5
103
330
1E
100
AcDbEntity
  8
0
100
AcDbLine
 10
87.9
 20
759.288
 30
0.0
 11
89.8
 21
755.218
 31
0.0
  0
LINE
  5
104
330
1E
100
AcDbEntity
  8
0
100
AcDbLine
 10
84.8
 20
761.8389999999999
 30
0.0
 11
87.9
 21
758.288
 31
0.0
  0
LINE
  5
105
330
1E
100
AcDbEntity
  8
0
100
AcDbLine
 10
87.9
 20
758.288
 30
0.0
 11
89.8
 21
754.218
 31
0.0
  0
LINE
  5
106
330
1E
100
AcDbEntity
  8
0
100
AcDbLine
 10
90.5
 20
750.888
 30
0.0
 11
90.5
 21
749.888
 31
0.0
  0
LINE
  5
107
330
1E
100
AcDbEntity
  8
0
100
AcDbLine
 10
90.5
 20
749.888
 30
0.0
 11
90.5
 21
750.888
 31
0.0
  0
LINE
  5
108
330
1E
100
AcDbEntity
  8
0
100
AcDbLine
 10
89.8
 20
754.218
 30
0.0
 11
90.5
 21
749.888
 31
0.0
  0
LINE
  5
109
330
1E
100
AcDbEntity
  8
0
100
AcDbLine
 10
61.29999999999999
 20
765.523
 30
0.0
 11
66.0
 21
767.1689999999999
 31
0.0
  0
LINE
  5
10A
330
1E
100
AcDbEntity
  8
0
100
AcDbLine
 10
57.2
 20
762.8389999999999
 30
0.0
 11
61.29999999999999
 21
765.523
 31
0.0
  0
LINE
  5
10B
330
1E
100
AcDbEntity
  8
0
100
AcDbLine
 10
80.7
 20
765.523
 30
0.0
 11
84.8
 21
762.8389999999999
 31
0.0
  0
LINE
  5
10C
330
1E
100
AcDbEntity
  8
0
100
AcDbLine
 10
76.0
 20
766.169
 30
0.0
 11
80.7
 21
764.523
 31
0.0
  0
LINE
  5
10D
330
1E
100
AcDbEntity
  8
0
100
AcDbLine
 10
84.8
 20
762.8389999999999
 30
0.0
 11
87.9
 21
759.288
 31
0.0
  0
LINE
  5
10E
330
1E
100
AcDbEntity
  8
0
100
AcDbLine
 10
80.7
 20
764.523
 30
0.0
 11
84.8
 21
761.8389999999999
 31
0.0
  0
LINE
  5
10F
330
1E
100
AcDbEntity
  8
0
100
AcDbLine
 10
71.0
 20
767.7749999999999
 30
0.0
 11
76.0
 21
767.1689999999999
 31
0.0
  0
LINE
  5
110
330
1E
100
AcDbEntity
  8
0
100
AcDbLine
 10
88.49999999999999
 20
773.388
 30
0.0
 11
88.49999999999999
 21
758.0027368421049
 31
0.0
  0
LINE
  5
111
330
1E
100
AcDbEntity
  8
0
100
AcDbLine
 10
76.0
 20
767.1689999999999
 30
0.0
 11
80.7
 21
765.523
 31
0.0
  0
LINE
  5
112
330
1E
100
AcDbEntity
  8
0
100
AcDbLine
 10
71.0
 20
766.7749999999999
 30
0.0
 11
76.0
 21
766.169
 31
0.0
  0
LINE
  5
113
330
1E
100
AcDbEntity
  8
0
100
AcDbLine
 10
87.9
 20
777.285
 30
0.0
 11
88.49999999999999
 21
773.388
 31
0.0
  0
LINE
  5
114
330
1E
100
AcDbEntity
  8
0
100
AcDbLine
 10
88.46151379089159
 20
773.637967928159
 30
0.0
 11
88.49999999999999
 21
773.888
 31
0.0
  0
LINE
  5
115
330
1E
100
AcDbEntity
  8
0
100
AcDbLine
 10
88.49999999999999
 20
773.888
 30
0.0
 11
88.49999999999999
 21
831.7379999999999
 31
0.0
  0
LINE
  5
116
330
1E
100
AcDbEntity
  8
0
100
AcDbLine
 10
87.9
 20
777.7849999999999
 30
0.0
 11
88.49999999999999
 21
773.888
 31
0.0
  0
LINE
  5
117
330
1E
100
AcDbEntity
  8
0
100
AcDbLine
 10
66.0
 20
767.1689999999999
 30
0.0
 11
71.0
 21
767.7749999999999
 31
0.0
  0
LINE
  5
118
330
1E
100
AcDbEntity
  8
0
100
AcDbLine
 10
66.0
 20
766.169
 30
0.0
 11
71.0
 21
766.7749999999999
 31
0.0
  0
LINE
  5
119
330
1E
100
AcDbEntity
  8
0
100
AcDbLine
 10
61.29999999999999
 20
764.523
 30
0.0
 11
66.0
 21
766.169
 31
0.0
  0
LINE
  5
11A
330
1E
100
AcDbEntity
  8
0
100
AcDbLine
 10
57.2
 20
761.8389999999999
 30
0.0
 11
61.29999999999999
 21
764.523
 31
0.0
  0
LINE
  5
11B
330
1E
100
AcDbEntity
  8
0
100
AcDbLine
 10
54.1
 20
758.288
 30
0.0
 11
57.2
 21
761.8389999999999
 31
0.0
  0
LINE
  5
11C
330
1E
100
AcDbEntity
  8
0
100
AcDbLine
 10
55.8
 20
780.922
 30
0.0
 11
58.6
 21
784.1260000000001
 31
0.0
  0
LINE
  5
11D
330
1E
100
AcDbEntity
  8
0
100
AcDbLine
 10
55.8
 20
841.6319999999998
 30
0.0
 11
58.6
 21
844.3619999999999
 31
0.0
  0
LINE
  5
11E
330
1E
100
AcDbEntity
  8
0
100
AcDbLine
 10
86.2
 20
780.922
 30
0.0
 11
87.9
 21
777.285
 31
0.0
  0
LINE
  5
11F
330
1E
100
AcDbEntity
  8
0
100
AcDbLine
 10
83.40000000000001
 20
784.1260000000001
 30
0.0
 11
86.2
 21
780.922
 31
0.0
  0
LINE
  5
120
330
1E
100
AcDbEntity
  8
0
100
AcDbLine
 10
83.40000000000001
 20
784.626
 30
0.0
 11
86.2
 21
781.422
 31
0.0
  0
LINE
  5
121
330
1E
100
AcDbEntity
  8
0
100
AcDbLine
 10
86.2
 20
781.422
 30
0.0
 11
87.9
 21
777.7849999999999
 31
0.0
  0
LINE
  5
122
330
1E
100
AcDbEntity
  8
0
100
AcDbLine
 10
58.6
 20
784.1260000000001
 30
0.0
 11
62.3
 21
786.551
 31
0.0
  0
LINE
  5
123
330
1E
100
AcDbEntity
  8
0
100
AcDbLine
 10
62.3
 20
786.551
 30
0.0
 11
66.5
 21
788.023
 31
0.0
  0
LINE
  5
124
330
1E
100
AcDbEntity
  8
0
100
AcDbLine
 10
56.13199999999999
 20
863.4
 30
0.0
 11
60.58399999999999
 21
863.4
 31
0.0
  0
LINE
  5
125
330
1E
100
AcDbEntity
  8
0
100
AcDbLine
 10
56.552
 20
864.0
 30
0.0
 11
60.836
 21
864.0
 31
0.0
  0
LINE
  5
126
330
1E
100
AcDbEntity
  8
0
100
AcDbLine
 10
60.836
 20
864.0
 30
0.0
 11
65.708
 21
864.0
 31
0.0
  0
LINE
  5
127
330
1E
100
AcDbEntity
  8
0
100
AcDbLine
 10
60.58399999999999
 20
863.4
 30
0.0
 11
65.624
 21
863.4
 31
0.0
  0
LINE
  5
128
330
1E
100
AcDbEntity
  8
0
100
AcDbLine
 10
60.95
 20
866.1939999999999
 30
0.0
 11
66.125
 21
866.0499999999998
 31
0.0
  0
LINE
  5
129
330
1E
100
AcDbEntity
  8
0
100
AcDbLine
 10
59.75
 20
899.647
 30
0.0
 11
71.0
 21
900.0
 31
0.0
  0
LINE
  5
12A
330
1E
100
AcDbEntity
  8
0
100
AcDbLine
 10
61.17499999999999
 20
898.8699999999999
 30
0.0
 11
66.27500000000001
 21
898.8699999999999
 31
0.0
  0
LINE
  5
12B
330
1E
100
AcDbEntity
  8
0
100
AcDbLine
 10
56.75
 20
898.8699999999999
 30
0.0
 11
61.17499999999999
 21
898.8699999999999
 31
0.0
  0
LINE
  5
12C
330
1E
100
AcDbEntity
  8
0
100
AcDbLine
 10
56.375
 20
866.4239999999999
 30
0.0
 11
60.95
 21
866.1939999999999
 31
0.0
  0
LINE
  5
12D
330
1E
100
AcDbEntity
  8
0
100
AcDbLine
 10
62.3
 20
846.2869999999998
 30
0.0
 11
66.5
 21
847.4429999999999
 31
0.0
  0
LINE
  5
12E
330
1E
100
AcDbEntity
  8
0
100
AcDbLine
 10
58.6
 20
844.3619999999999
 30
0.0
 11
62.3
 21
846.2869999999998
 31
0.0
  0
LINE
  5
12F
330
1E
100
AcDbEntity
  8
0
100
AcDbLine
 10
79.7
 20
786.551
 30
0.0
 11
83.40000000000001
 21
784.1260000000001
 31
0.0
  0
LINE
  5
130
330
1E
100
AcDbEntity
  8
0
100
AcDbLine
 10
75.5
 20
788.023
 30
0.0
 11
79.7
 21
786.551
 31
0.0
  0
LINE
  5
131
330
1E
100
AcDbEntity
  8
0
100
AcDbLine
 10
75.5
 20
788.523
 30
0.0
 11
79.7
 21
787.051
 31
0.0
  0
LINE
  5
132
330
1E
100
AcDbEntity
  8
0
100
AcDbLine
 10
79.7
 20
787.051
 30
0.0
 11
83.40000000000001
 21
784.626
 31
0.0
  0
LINE
  5
133
330
1E
100
AcDbEntity
  8
0
100
AcDbLine
 10
66.5
 20
788.023
 30
0.0
 11
71.0
 21
788.543
 31
0.0
  0
LINE
  5
134
330
1E
100
AcDbEntity
  8
0
100
AcDbLine
 10
65.708
 20
864.0
 30
0.0
 11
71.0
 21
864.0
 31
0.0
  0
LINE
  5
135
330
1E
100
AcDbEntity
  8
0
100
AcDbLine
 10
65.624
 20
863.4
 30
0.0
 11
71.0
 21
863.4
 31
0.0
  0
LINE
  5
136
330
1E
100
AcDbEntity
  8
0
100
AcDbLine
 10
66.27500000000001
 20
898.8699999999999
 30
0.0
 11
71.0
 21
898.8699999999999
 31
0.0
  0
LINE
  5
137
330
1E
100
AcDbEntity
  8
0
100
AcDbLine
 10
66.125
 20
866.0499999999998
 30
0.0
 11
71.0
 21
866.0
 31
0.0
  0
LINE
  5
13B
330
1E
100
AcDbEntity
  8
0
100
AcDbLine
 10
71.0
 20
788.543
 30
0.0
 11
75.5
 21
788.023
 31
0.0
  0
LINE
  5
13C
330
1E
100
AcDbEntity
  8
0
100
AcDbLine
 10
71.0
 20
864.0
 30
0.0
 11
76.292
 21
864.0
 31
0.0
  0
LINE
  5
13D
330
1E
100
AcDbEntity
  8
0
100
AcDbLine
 10
71.0
 20
863.4
 30
0.0
 11
76.376
 21
863.4
 31
0.0
  0
LINE
  5
13E
330
1E
100
AcDbEntity
  8
0
100
AcDbLine
 10
71.0
 20
848.0
 30
0.0
 11
75.5
 21
847.4429999999999
 31
0.0
  0
LINE
  5
13F
330
1E
100
AcDbEntity
  8
0
100
AcDbLine
 10
71.0
 20
789.043
 30
0.0
 11
75.5
 21
788.523
 31
0.0
  0
LINE
  5
140
330
1E
100
AcDbEntity
  8
0
100
AcDbLine
 10
71.0
 20
866.0
 30
0.0
 11
75.875
 21
866.0499999999998
 31
0.0
  0
LINE
  5
144
330
1E
100
AcDbEntity
  8
0
100
AcDbLine
 10
70.0
 20
887.1
 30
0.0
 11
71.0
 21
887.0
 31
0.0
  0
LINE
  5
145
330
1E
100
AcDbEntity
  8
0
100
AcDbLine
 10
69.0
 20
887.5
 30
0.0
 11
70.0
 21
887.1
 31
0.0
  0
LINE
  5
146
330
1E
100
AcDbEntity
  8
0
100
AcDbLine
 10
71.0
 20
887.0
 30
0.0
 11
72.0
 21
887.1
 31
0.0
  0
LINE
  5
149
330
1E
100
AcDbEntity
  8
0
100
AcDbLine
 10
72.0
 20
887.1
 30
0.0
 11
73.0
 21
887.5
 31
0.0
  0
LINE
  5
14A
330
1E
100
AcDbEntity
  8
0
100
AcDbLine
 10
68.09999999999999
 20
888.1
 30
0.0
 11
69.0
 21
887.5
 31
0.0
  0
LINE
  5
14B
330
1E
100
AcDbEntity
  8
0
100
AcDbLine
 10
67.5
 20
889.0
 30
0.0
 11
68.09999999999999
 21
888.1
 31
0.0
  0
LINE
  5
14C
330
1E
100
AcDbEntity
  8
0
100
AcDbLine
 10
73.0
 20
887.5
 30
0.0
 11
73.9
 21
888.1
 31
0.0
  0
LINE
  5
14D
330
1E
100
AcDbEntity
  8
0
100
AcDbLine
 10
73.9
 20
888.1
 30
0.0
 11
74.5
 21
889.0
 31
0.0
  0
LINE
  5
14E
330
1E
100
AcDbEntity
  8
0
100
AcDbLine
 10
67.09999999999999
 20
890.0
 30
0.0
 11
67.5
 21
889.0
 31
0.0
  0
LINE
  5
14F
330
1E
100
AcDbEntity
  8
0
100
AcDbLine
 10
74.5
 20
889.0
 30
0.0
 11
74.90000000000001
 21
890.0
 31
0.0
  0
LINE
  5
150
330
1E
100
AcDbEntity
  8
0
100
AcDbLine
 10
76.292
 20
864.0
 30
0.0
 11
81.164
 21
864.0
 31
0.0
  0
LINE
  5
151
330
1E
100
AcDbEntity
  8
0
100
AcDbLine
 10
76.376
 20
863.4
 30
0.0
 11
81.416
 21
863.4
 31
0.0
  0
LINE
  5
152
330
1E
100
AcDbEntity
  8
0
100
AcDbLine
 10
75.5
 20
847.4429999999999
 30
0.0
 11
79.7
 21
846.2869999999998
 31
0.0
  0
LINE
  5
153
330
1E
100
AcDbEntity
  8
0
100
AcDbLine
 10
79.7
 20
846.2869999999998
 30
0.0
 11
83.40000000000001
 21
844.3619999999999
 31
0.0
  0
LINE
  5
154
330
1E
100
AcDbEntity
  8
0
100
AcDbLine
 10
75.875
 20
866.0499999999998
 30
0.0
 11
81.05
 21
866.1939999999999
 31
0.0
  0
LINE
  5
155
330
1E
100
AcDbEntity
  8
0
100
AcDbLine
 10
88.49999999999999
 20
831.7379999999999
 30
0.0
 11
88.49999999999999
 21
773.888
 31
0.0
  0
LINE
  5
156
330
1E
100
AcDbEntity
  8
0
100
AcDbLine
 10
81.164
 20
864.0
 30
0.0
 11
85.448
 21
864.0
 31
0.0
  0
LINE
  5
157
330
1E
100
AcDbEntity
  8
0
100
AcDbLine
 10
81.416
 20
863.4
 30
0.0
 11
85.868
 21
863.4
 31
0.0
  0
LINE
  5
158
330
1E
100
AcDbEntity
  8
0
100
AcDbLine
 10
88.72399999999998
 20
864.0
 30
0.0
 11
90.73999999999999
 21
864.0
 31
0.0
  0
LINE
  5
159
330
1E
100
AcDbEntity
  8
0
100
AcDbLine
 10
85.448
 20
864.0
 30
0.0
 11
88.72399999999998
 21
864.0
 31
0.0
  0
LINE
  5
15A
330
1E
100
AcDbEntity
  8
0
100
AcDbLine
 10
85.868
 20
863.4
 30
0.0
 11
89.228
 21
863.4
 31
0.0
  0
LINE
  5
15B
330
1E
100
AcDbEntity
  8
0
100
AcDbLine
 10
83.40000000000001
 20
844.3619999999999
 30
0.0
 11
86.2
 21
841.6319999999998
 31
0.0
  0
LINE
  5
15C
330
1E
100
AcDbEntity
  8
0
100
AcDbLine
 10
87.9
 20
838.221
 30
0.0
 11
88.49999999999999
 21
831.7379999999999
 31
0.0
  0
LINE
  5
15D
330
1E
100
AcDbEntity
  8
0
100
AcDbLine
 10
81.05
 20
866.1939999999999
 30
0.0
 11
85.625
 21
866.4239999999999
 31
0.0
  0
LINE
  5
15E
330
1E
100
AcDbEntity
  8
0
100
AcDbLine
 10
85.625
 20
866.4239999999999
 30
0.0
 11
89.075
 21
866.7280000000001
 31
0.0
  0
LINE
  5
15F
330
1E
100
AcDbEntity
  8
0
100
AcDbLine
 10
91.24399999999999
 20
863.4
 30
0.0
 11
92.0
 21
863.4
 31
0.0
  0
LINE
  5
160
330
1E
100
AcDbEntity
  8
0
100
AcDbLine
 10
89.228
 20
863.4
 30
0.0
 11
91.24399999999999
 21
863.4
 31
0.0
  0
LINE
  5
161
330
1E
100
AcDbEntity
  8
0
100
AcDbLine
 10
90.73999999999999
 20
864.0
 30
0.0
 11
91.49600000000001
 21
864.0
 31
0.0
  0
LINE
  5
162
330
1E
100
AcDbEntity
  8
0
100
AcDbLine
 10
91.49600000000001
 20
864.0
 30
0.0
 11
92.0
 21
863.4
 31
0.0
  0
LINE
  5
163
330
1E
100
AcDbEntity
  8
0
100
AcDbLine
 10
92.0
 20
863.4
 30
0.0
 11
92.0
 21
852.0
 31
0.0
  0
LINE
  5
164
330
1E
100
AcDbEntity
  8
0
100
AcDbLine
 10
92.0
 20
852.0
 30
0.0
 11
92.0
 21
660.422
 31
0.0
  0
LINE
  5
165
330
1E
100
AcDbEntity
  8
0
100
AcDbLine
 10
92.0
 20
852.0
 30
0.0
 11
92.0
 21
863.4
 31
0.0
  0
LINE
  5
166
330
1E
100
AcDbEntity
  8
0
100
AcDbLine
 10
91.0
 20
864.5930000000001
 30
0.0
 11
91.0
 21
864.0
 31
0.0
  0
LINE
  5
167
330
1E
100
AcDbEntity
  8
0
100
AcDbLine
 10
90.75978838010788
 20
866.994467679429
 30
0.0
 11
91.0
 21
864.5930000000001
 31
0.0
  0
LINE
  5
168
330
1E
100
AcDbEntity
  8
0
100
AcDbLine
 10
91.0
 20
864.0
 30
0.0
 11
91.0
 21
864.5930000000001
 31
0.0
  0
LINE
  5
169
330
1E
100
AcDbEntity
  8
0
100
AcDbLine
 10
89.075
 20
866.7280000000001
 30
0.0
 11
91.25
 21
867.0720000000001
 31
0.0
  0
LINE
  5
16A
330
1E
100
AcDbEntity
  8
0
100
AcDbLine
 10
92.0
 20
867.3960000000001
 30
0.0
 11
92.0
 21
897.8819999999998
 31
0.0
  0
LINE
  5
16B
330
1E
100
AcDbEntity
  8
0
100
AcDbLine
 10
91.25
 20
867.0720000000001
 30
0.0
 11
92.0
 21
867.3960000000001
 31
0.0
  0
LINE
  5
16C
330
1E
100
AcDbEntity
  8
0
100
AcDbLine
 10
74.90000000000001
 20
890.0
 30
0.0
 11
75.0
 21
891.0
 31
0.0
  0
LINE
  5
16D
330
1E
100
AcDbEntity
  8
0
100
AcDbLine
 10
74.5
 20
893.0
 30
0.0
 11
74.90000000000001
 21
892.0
 31
0.0
  0
LINE
  5
16E
330
1E
100
AcDbEntity
  8
0
100
AcDbLine
 10
74.90000000000001
 20
892.0
 30
0.0
 11
75.0
 21
891.0
 31
0.0
  0
LINE
  5
16F
330
1E
100
AcDbEntity
  8
0
100
AcDbLine
 10
73.0
 20
894.5
 30
0.0
 11
73.9
 21
893.9
 31
0.0
  0
LINE
  5
170
330
1E
100
AcDbEntity
  8
0
100
AcDbLine
 10
73.9
 20
893.9
 30
0.0
 11
74.5
 21
893.0
 31
0.0
  0
LINE
  5
171
330
1E
100
AcDbEntity
  8
0
100
AcDbLine
 10
71.0
 20
900.0
 30
0.0
 11
82.24999999999999
 21
899.647
 31
0.0
  0
LINE
  5
172
330
1E
100
AcDbEntity
  8
0
100
AcDbLine
 10
71.0
 20
898.8699999999999
 30
0.0
 11
75.72499999999999
 21
898.8699999999999
 31
0.0
  0
LINE
  5
173
330
1E
100
AcDbEntity
  8
0
100
AcDbLine
 10
75.72499999999999
 20
898.8699999999999
 30
0.0
 11
80.82500000000001
 21
898.8699999999999
 31
0.0
  0
LINE
  5
174
330
1E
100
AcDbEntity
  8
0
100
AcDbLine
 10
80.82500000000001
 20
898.8699999999999
 30
0.0
 11
85.25
 21
898.8699999999999
 31
0.0
  0
LINE
  5
175
330
1E
100
AcDbEntity
  8
0
100
AcDbLine
 10
85.25
 20
898.8699999999999
 30
0.0
 11
88.7
 21
898.8699999999999
 31
0.0
  0
LINE
  5
176
330
1E
100
AcDbEntity
  8
0
100
AcDbLine
 10
88.7
 20
898.8699999999999
 30
0.0
 11
90.8
 21
898.8699999999999
 31
0.0
  0
LINE
  5
177
330
1E
100
AcDbEntity
  8
0
100
AcDbLine
 10
92.0
 20
897.8819999999998
 30
0.0
 11
92.0
 21
867.3960000000001
 31
0.0
  0
LINE
  5
178
330
1E
100
AcDbEntity
  8
0
100
AcDbLine
 10
91.54999999999999
 20
898.8699999999999
 30
0.0
 11
92.0
 21
897.8819999999998
 31
0.0
  0
LINE
  5
179
330
1E
100
AcDbEntity
  8
0
100
AcDbLine
 10
82.24999999999999
 20
899.647
 30
0.0
 11
90.5
 21
899.294
 31
0.0
  0
LINE
  5
17A
330
1E
100
AcDbEntity
  8
0
100
AcDbLine
 10
90.5
 20
899.294
 30
0.0
 11
91.54999999999999
 21
898.8699999999999
 31
0.0
  0
LINE
  5
17B
330
1E
100
AcDbEntity
  8
0
100
AcDbLine
 10
90.8
 20
898.8699999999999
 30
0.0
 11
91.54999999999999
 21
898.8699999999999
 31
0.0
  0
LINE
  5
17C
330
1E
100
AcDbEntity
  8
0
100
AcDbLine
 10
71.0
 20
895.0
 30
0.0
 11
72.0
 21
894.8999999999999
 31
0.0
  0
LINE
  5
17D
330
1E
100
AcDbEntity
  8
0
100
AcDbLine
 10
72.0
 20
894.8999999999999
 30
0.0
 11
73.0
 21
894.5
 31
0.0
  0
LINE
  5
17E
330
1E
100
AcDbEntity
  8
0
100
AcDbLine
 10
70.0
 20
894.8999999999999
 30
0.0
 11
71.0
 21
895.0
 31
0.0
  0
LINE
  5
17F
330
1E
100
AcDbEntity
  8
0
100
AcDbLine
 10
69.0
 20
894.5
 30
0.0
 11
70.0
 21
894.8999999999999
 31
0.0
  0
LINE
  5
180
330
1E
100
AcDbEntity
  8
0
100
AcDbLine
 10
68.09999999999999
 20
893.9
 30
0.0
 11
69.0
 21
894.5
 31
0.0
  0
LINE
  5
181
330
1E
100
AcDbEntity
  8
0
100
AcDbLine
 10
67.5
 20
893.0
 30
0.0
 11
68.09999999999999
 21
893.9
 31
0.0
  0
LINE
  5
182
330
1E
100
AcDbEntity
  8
0
100
AcDbLine
 10
67.09999999999999
 20
892.0
 30
0.0
 11
67.5
 21
893.0
 31
0.0
  0
LINE
  5
183
330
1E
100
AcDbEntity
  8
0
100
AcDbLine
 10
67.0
 20
891.0
 30
0.0
 11
67.09999999999999
 21
892.0
 31
0.0
  0
LINE
  5
184
330
1E
100
AcDbEntity
  8
0
100
AcDbLine
 10
67.0
 20
891.0
 30
0.0
 11
67.09999999999999
 21
890.0
 31
0.0
  0
LINE
  5
185
330
1E
100
AcDbEntity
  8
0
100
AcDbLine
 10
66.5
 20
847.4429999999999
 30
0.0
 11
71.0
 21
848.0
 31
0.0
  0
LINE
  5
186
330
1E
100
AcDbEntity
  8
0
100
AcDbLine
 10
66.5
 20
788.523
 30
0.0
 11
71.0
 21
789.043
 31
0.0
  0
LINE
  5
187
330
1E
100
AcDbEntity
  8
0
100
AcDbLine
 10
62.3
 20
787.051
 30
0.0
 11
66.5
 21
788.523
 31
0.0
  0
LINE
  5
188
330
1E
100
AcDbEntity
  8
0
100
AcDbLine
 10
58.6
 20
784.626
 30
0.0
 11
62.3
 21
787.051
 31
0.0
  0
LINE
  5
189
330
1E
100
AcDbEntity
  8
0
100
AcDbLine
 10
55.8
 20
781.422
 30
0.0
 11
58.6
 21
784.626
 31
0.0
  0
LINE
  5
18A
330
1E
100
AcDbEntity
  8
0
100
AcDbLine
 10
54.1
 20
777.7849999999999
 30
0.0
 11
55.8
 21
781.422
 31
0.0
  0
LINE
  5
18B
330
1E
100
AcDbEntity
  8
0
100
AcDbLine
 10
53.5
 20
758.0027368421049
 30
0.0
 11
53.5
 21
773.388
 31
0.0
  0
LINE
  5
18C
330
1E
100
AcDbEntity
  8
0
100
AcDbLine
 10
52.2
 20
745.557
 30
0.0
 11
54.1
 21
741.4869999999999
 31
0.0
  0
LINE
  5
18D
330
1E
100
AcDbEntity
  8
0
100
AcDbLine
 10
51.5
 20
749.888
 30
0.0
 11
52.2
 21
745.557
 31
0.0
  0
LINE
  5
18E
330
1E
100
AcDbEntity
  8
0
100
AcDbLine
 10
51.5
 20
749.888
 30
0.0
 11
51.5
 21
750.888
 31
0.0
  0
LINE
  5
18F
330
1E
100
AcDbEntity
  8
0
100
AcDbLine
 10
51.5
 20
749.888
 30
0.0
 11
52.2
 21
754.218
 31
0.0
  0
LINE
  5
194
330
1E
100
AcDbEntity
  8
0
100
AcDbLine
 10
55.8
 20
841.6319999999998
 30
0.0
 11
54.1
 21
838.221
 31
0.0
  0
LINE
  5
195
330
1E
100
AcDbEntity
  8
0
100
AcDbLine
 10
86.2
 20
841.6319999999998
 30
0.0
 11
87.9
 21
838.221
 31
0.0
  0
ENDSEC
  0
SECTION
  2
OBJECTS
  0
DICTIONARY
  5
C
330
0
100
AcDbDictionary
281
     1
  3
ACAD_GROUP
350
D
  3
ACAD_LAYOUT
350
19
  3
ACAD_MLINESTYLE
350
16
  3
ACAD_PLOTSETTINGS
350
18
  3
ACAD_PLOTSTYLENAME
350
E
  3
AcDbVariableDictionary
350
196
  0
DICTIONARY
  5
D
102
{ACAD_REACTORS
330
C
102
}
330
C
100
AcDbDictionary
281
     1
  0
DICTIONARY
  5
19
102
{ACAD_REACTORS
330
C
102
}
330
C
100
AcDbDictionary
281
     1
  3
Layout1
350
1D
  3
Model
350
21
  0
DICTIONARY
  5
16
102
{ACAD_REACTORS
330
C
102
}
330
C
100
AcDbDictionary
281
     1
  3
Standard
350
17
  0
DICTIONARY
  5
18
102
{ACAD_REACTORS
330
C
102
}
330
C
100
AcDbDictionary
281
     1
  0
ACDBDICTIONARYWDFLT
  5
E
102
{ACAD_REACTORS
330
C
102
}
330
C
100
AcDbDictionary
281
     1
  3
Normal
350
F
100
AcDbDictionaryWithDefault
340
F
  0
DICTIONARY
  5
196
102
{ACAD_REACTORS
330
C
102
}
330
C
100
AcDbDictionary
281
     1
  3
DIMASSOC
350
197
  0
LAYOUT
  5
1D
102
{ACAD_REACTORS
330
19
102
}
330
19
100
AcDbPlotSettings
  1

  2
hp deskjet 980c series
  4

  6

 40
0.0
 41
0.0
 42
0.0
 43
0.0
 44
0.0
 45
0.0
 46
0.0
 47
0.0
 48
0.0
 49
0.0
140
0.0
141
0.0
142
1.0
143
1.0
 70
   688
 72
     0
 73
     0
 74
     5
  7

 75
    16
147
1.0
148
0.0
149
0.0
100
AcDbLayout
  1
Layout1
 70
     1
 71
     1
 10
0.0
 20
0.0
 11
12.0
 21
9.0
 12
0.0
 22
0.0
 32
0.0
 14
1.000000000000000E+20
 24
1.000000000000000E+20
 34
1.000000000000000E+20
 15
-1.000000000000000E+20
 25
-1.000000000000000E+20
 35
-1.000000000000000E+20
146
0.0
 13
0.0
 23
0.0
 33
0.0
 16
1.0
 26
0.0
 36
0.0
 17
0.0
 27
1.0
 37
0.0
 76
     0
330
1A
  0
LAYOUT
  5
21
102
{ACAD_REACTORS
330
19
102
}
330
19
100
AcDbPlotSettings
  1

  2
hp deskjet 980c series
  4

  6

 40
0.0
 41
0.0
 42
0.0
 43
0.0
 44
0.0
 45
0.0
 46
0.0
 47
0.0
 48
0.0
 49
0.0
140
0.0
141
0.0
142
1.0
143
1.0
 70
  1712
 72
     0
 73
     0
 74
     0
  7

 75
     0
147
1.0
148
0.0
149
0.0
100
AcDbLayout
  1
Model
 70
     1
 71
     0
 10
0.0
 20
0.0
 11
12.0
 21
9.0
 12
0.0
 22
0.0
 32
0.0
 14
0.0
 24
0.0
 34
0.0
 15
0.0
 25
0.0
 35
0.0
146
0.0
 13
0.0
 23
0.0
 33
0.0
 16
1.0
 26
0.0
 36
0.0
 17
0.0
 27
1.0
 37
0.0
 76
     0
330
1E
  0
MLINESTYLE
  5
17
102
{ACAD_REACTORS
330
16
102
}
330
16
100
AcDbMlineStyle
  2
STANDARD
 70
     0
  3

 62
   256
 51
90.0
 52
90.0
 71
     2
 49
0.5
 62
   256
  6
BYLAYER
 49
-0.5
 62
   256
  6
BYLAYER
  0
ACDBPLACEHOLDER
  5
F
102
{ACAD_REACTORS
330
E
102
}
330
E
  0
DICTIONARYVAR
  5
197
102
{ACAD_REACTORS
330
196
102
}
330
196
100
DictionaryVariables
280
     0
  1
1
  0
ENDSEC
  0
EOF
