  0
SECTION
  2
HEADER
  9
$ACADVER
  1
AC1015
  9
$ACADMAINTVER
 70
    13
  9
$DWGCODEPAGE
  3
ANSI_1252
  9
$INSBASE
 10
0.0
 20
0.0
 30
0.0
  9
$EXTMIN
 10
0.0
 20
0.0000000000000089
 30
0.0
  9
$EXTMAX
 10
327.0
 20
95.0
 30
0.0
  9
$LIMMIN
 10
0.0
 20
0.0
  9
$LIMMAX
 10
12.0
 20
9.0
  9
$ORTHOMODE
 70
     0
  9
$REGENMODE
 70
     1
  9
$FILLMODE
 70
     1
  9
$QTEXTMODE
 70
     0
  9
$MIRRTEXT
 70
     1
  9
$LTSCALE
 40
1.0
  9
$ATTMODE
 70
     1
  9
$TEXTSIZE
 40
0.2
  9
$TRACEWID
 40
0.05
  9
$TEXTSTYLE
  7
Standard
  9
$CLAYER
  8
0
  9
$CELTYPE
  6
Continuous
  9
$CECOLOR
 62
   256
  9
$CELTSCALE
 40
1.0
  9
$DISPSILH
 70
     0
  9
$DIMSCALE
 40
1.0
  9
$DIMASZ
 40
0.18
  9
$DIMEXO
 40
0.0625
  9
$DIMDLI
 40
0.38
  9
$DIMRND
 40
0.0
  9
$DIMDLE
 40
0.0
  9
$DIMEXE
 40
0.18
  9
$DIMTP
 40
0.0
  9
$DIMTM
 40
0.0
  9
$DIMTXT
 40
0.18
  9
$DIMCEN
 40
0.09
  9
$DIMTSZ
 40
0.0
  9
$DIMTOL
 70
     0
  9
$DIMLIM
 70
     0
  9
$DIMTIH
 70
     1
  9
$DIMTOH
 70
     1
  9
$DIMSE1
 70
     0
  9
$DIMSE2
 70
     0
  9
$DIMTAD
 70
     0
  9
$DIMZIN
 70
     0
  9
$DIMBLK
  1

  9
$DIMASO
 70
     1
  9
$DIMSHO
 70
     1
  9
$DIMPOST
  1

  9
$DIMAPOST
  1

  9
$DIMALT
 70
     0
  9
$DIMALTD
 70
     2
  9
$DIMALTF
 40
25.4
  9
$DIMLFAC
 40
1.0
  9
$DIMTOFL
 70
     0
  9
$DIMTVP
 40
0.0
  9
$DIMTIX
 70
     0
  9
$DIMSOXD
 70
     0
  9
$DIMSAH
 70
     0
  9
$DIMBLK1
  1

  9
$DIMBLK2
  1

  9
$DIMSTYLE
  2
Standard
  9
$DIMCLRD
 70
     0
  9
$DIMCLRE
 70
     0
  9
$DIMCLRT
 70
     0
  9
$DIMTFAC
 40
1.0
  9
$DIMGAP
 40
0.09
  9
$DIMJUST
 70
     0
  9
$DIMSD1
 70
     0
  9
$DIMSD2
 70
     0
  9
$DIMTOLJ
 70
     1
  9
$DIMTZIN
 70
     0
  9
$DIMALTZ
 70
     0
  9
$DIMALTTZ
 70
     0
  9
$DIMUPT
 70
     0
  9
$DIMDEC
 70
     4
  9
$DIMTDEC
 70
     4
  9
$DIMALTU
 70
     2
  9
$DIMALTTD
 70
     2
  9
$DIMTXSTY
  7
Standard
  9
$DIMAUNIT
 70
     0
  9
$DIMADEC
 70
     0
  9
$DIMALTRND
 40
0.0
  9
$DIMAZIN
 70
     0
  9
$DIMDSEP
 70
    46
  9
$DIMATFIT
 70
     3
  9
$DIMFRAC
 70
     0
  9
$DIMLDRBLK
  1

  9
$DIMLUNIT
 70
     2
  9
$DIMLWD
 70
    -2
  9
$DIMLWE
 70
    -2
  9
$DIMTMOVE
 70
     0
  9
$LUNITS
 70
     2
  9
$LUPREC
 70
     4
  9
$SKETCHINC
 40
0.1
  9
$FILLETRAD
 40
0.0
  9
$AUNITS
 70
     0
  9
$AUPREC
 70
     0
  9
$MENU
  1
.
  9
$ELEVATION
 40
0.0
  9
$PELEVATION
 40
0.0
  9
$THICKNESS
 40
0.0
  9
$LIMCHECK
 70
     0
  9
$CHAMFERA
 40
0.0
  9
$CHAMFERB
 40
0.0
  9
$CHAMFERC
 40
0.0
  9
$CHAMFERD
 40
0.0
  9
$SKPOLY
 70
     0
  9
$TDCREATE
 40
2454873.879139178
  9
$TDUCREATE
 40
2454873.837472511
  9
$TDUPDATE
 40
2454873.884803414
  9
$TDUUPDATE
 40
2454873.843136748
  9
$TDINDWG
 40
0.0056646065
  9
$TDUSRTIMER
 40
0.0056646065
  9
$USRTIMER
 70
     1
  9
$ANGBASE
 50
0.0
  9
$ANGDIR
 70
     0
  9
$PDMODE
 70
     0
  9
$PDSIZE
 40
0.0
  9
$PLINEWID
 40
0.0
  9
$SPLFRAME
 70
     0
  9
$SPLINETYPE
 70
     6
  9
$SPLINESEGS
 70
     8
  9
$HANDSEED
  5
332
  9
$SURFTAB1
 70
     6
  9
$SURFTAB2
 70
     6
  9
$SURFTYPE
 70
     6
  9
$SURFU
 70
     6
  9
$SURFV
 70
     6
  9
$UCSBASE
  2

  9
$UCSNAME
  2

  9
$UCSORG
 10
0.0
 20
0.0
 30
0.0
  9
$UCSXDIR
 10
1.0
 20
0.0
 30
0.0
  9
$UCSYDIR
 10
0.0
 20
1.0
 30
0.0
  9
$UCSORTHOREF
  2

  9
$UCSORTHOVIEW
 70
     1
  9
$UCSORGTOP
 10
0.0
 20
0.0
 30
0.0
  9
$UCSORGBOTTOM
 10
0.0
 20
0.0
 30
0.0
  9
$UCSORGLEFT
 10
0.0
 20
0.0
 30
0.0
  9
$UCSORGRIGHT
 10
0.0
 20
0.0
 30
0.0
  9
$UCSORGFRONT
 10
0.0
 20
0.0
 30
0.0
  9
$UCSORGBACK
 10
0.0
 20
0.0
 30
0.0
  9
$PUCSBASE
  2

  9
$PUCSNAME
  2

  9
$PUCSORG
 10
0.0
 20
0.0
 30
0.0
  9
$PUCSXDIR
 10
1.0
 20
0.0
 30
0.0
  9
$PUCSYDIR
 10
0.0
 20
1.0
 30
0.0
  9
$PUCSORTHOREF
  2

  9
$PUCSORTHOVIEW
 70
     0
  9
$PUCSORGTOP
 10
0.0
 20
0.0
 30
0.0
  9
$PUCSORGBOTTOM
 10
0.0
 20
0.0
 30
0.0
  9
$PUCSORGLEFT
 10
0.0
 20
0.0
 30
0.0
  9
$PUCSORGRIGHT
 10
0.0
 20
0.0
 30
0.0
  9
$PUCSORGFRONT
 10
0.0
 20
0.0
 30
0.0
  9
$PUCSORGBACK
 10
0.0
 20
0.0
 30
0.0
  9
$USERI1
 70
     0
  9
$USERI2
 70
     0
  9
$USERI3
 70
     0
  9
$USERI4
 70
     0
  9
$USERI5
 70
     0
  9
$USERR1
 40
0.0
  9
$USERR2
 40
0.0
  9
$USERR3
 40
0.0
  9
$USERR4
 40
0.0
  9
$USERR5
 40
0.0
  9
$WORLDVIEW
 70
     1
  9
$SHADEDGE
 70
     3
  9
$SHADEDIF
 70
    70
  9
$TILEMODE
 70
     1
  9
$MAXACTVP
 70
    64
  9
$PINSBASE
 10
0.0
 20
0.0
 30
0.0
  9
$PLIMCHECK
 70
     0
  9
$PEXTMIN
 10
1.000000000000000E+20
 20
1.000000000000000E+20
 30
1.000000000000000E+20
  9
$PEXTMAX
 10
-1.000000000000000E+20
 20
-1.000000000000000E+20
 30
-1.000000000000000E+20
  9
$PLIMMIN
 10
0.0
 20
0.0
  9
$PLIMMAX
 10
12.0
 20
9.0
  9
$UNITMODE
 70
     0
  9
$VISRETAIN
 70
     1
  9
$PLINEGEN
 70
     0
  9
$PSLTSCALE
 70
     1
  9
$TREEDEPTH
 70
  3020
  9
$CMLSTYLE
  2
Standard
  9
$CMLJUST
 70
     0
  9
$CMLSCALE
 40
1.0
  9
$PROXYGRAPHICS
 70
     1
  9
$MEASUREMENT
 70
     0
  9
$CELWEIGHT
370
    -1
  9
$ENDCAPS
280
     0
  9
$JOINSTYLE
280
     0
  9
$LWDISPLAY
290
     0
  9
$INSUNITS
 70
     0
  9
$HYPERLINKBASE
  1

  9
$STYLESHEET
  1

  9
$XEDIT
290
     1
  9
$CEPSNTYPE
380
     0
  9
$PSTYLEMODE
290
     1
  9
$FINGERPRINTGUID
  2
{BCF4225D-DB06-4EFA-9A0B-442D131CEFEC}
  9
$VERSIONGUID
  2
{32D1A7BC-B250-4E76-8DB7-C562AC5B544D}
  9
$EXTNAMES
290
     1
  9
$PSVPSCALE
 40
0.0
  9
$OLESTARTUP
290
     0
  0
ENDSEC
  0
SECTION
  2
CLASSES
  0
CLASS
  1
ACDBDICTIONARYWDFLT
  2
AcDbDictionaryWithDefault
  3
AutoCAD 2000
 90
        0
280
     0
281
     0
  0
CLASS
  1
ACDBPLACEHOLDER
  2
AcDbPlaceHolder
  3
AutoCAD 2000
 90
        0
280
     0
281
     0
  0
CLASS
  1
LAYOUT
  2
AcDbLayout
  3
AutoCAD 2000
 90
        0
280
     0
281
     0
  0
CLASS
  1
DICTIONARYVAR
  2
AcDbDictionaryVar
  3
AutoCAD 2000
 90
        0
280
     0
281
     0
  0
ENDSEC
  0
SECTION
  2
TABLES
  0
TABLE
  2
VPORT
  5
8
330
0
100
AcDbSymbolTable
 70
     3
  0
VPORT
  5
331
330
8
100
AcDbSymbolTableRecord
100
AcDbViewportTableRecord
  2
*Active
 70
     0
 10
0.0
 20
0.0
 11
1.0
 21
1.0
 12
163.4999999999999
 22
47.5
 13
0.0
 23
0.0
 14
1.0
 24
1.0
 15
0.0
 25
0.0
 16
0.0
 26
0.0
 36
1.0
 17
0.0
 27
0.0
 37
0.0
 40
166.6591121567603
 41
1.968387776606954
 42
50.0
 43
0.0
 44
0.0
 50
0.0
 51
0.0
 71
     0
 72
   100
 73
     1
 74
     3
 75
     0
 76
     0
 77
     0
 78
     0
281
     0
 65
     1
110
0.0
120
0.0
130
0.0
111
1.0
121
0.0
131
0.0
112
0.0
122
1.0
132
0.0
 79
     1
146
0.0
  0
ENDTAB
  0
TABLE
  2
LTYPE
  5
5
330
0
100
AcDbSymbolTable
 70
     1
  0
LTYPE
  5
13
330
5
100
AcDbSymbolTableRecord
100
AcDbLinetypeTableRecord
  2
ByBlock
 70
     0
  3

 72
    65
 73
     0
 40
0.0
  0
LTYPE
  5
14
330
5
100
AcDbSymbolTableRecord
100
AcDbLinetypeTableRecord
  2
ByLayer
 70
     0
  3

 72
    65
 73
     0
 40
0.0
  0
LTYPE
  5
15
330
5
100
AcDbSymbolTableRecord
100
AcDbLinetypeTableRecord
  2
Continuous
 70
     0
  3
Solid line
 72
    65
 73
     0
 40
0.0
  0
ENDTAB
  0
TABLE
  2
LAYER
  5
2
330
0
100
AcDbSymbolTable
 70
     1
  0
LAYER
  5
10
330
2
100
AcDbSymbolTableRecord
100
AcDbLayerTableRecord
  2
0
 70
     0
 62
     7
  6
Continuous
370
    -3
390
F
  0
ENDTAB
  0
TABLE
  2
STYLE
  5
3
330
0
100
AcDbSymbolTable
 70
     1
  0
STYLE
  5
11
330
3
100
AcDbSymbolTableRecord
100
AcDbTextStyleTableRecord
  2
Standard
 70
     0
 40
0.0
 41
1.0
 50
0.0
 71
     0
 42
0.2
  3
txt
  4

  0
ENDTAB
  0
TABLE
  2
VIEW
  5
6
330
0
100
AcDbSymbolTable
 70
     0
  0
ENDTAB
  0
TABLE
  2
UCS
  5
7
330
0
100
AcDbSymbolTable
 70
     0
  0
ENDTAB
  0
TABLE
  2
APPID
  5
9
330
0
100
AcDbSymbolTable
 70
     1
  0
APPID
  5
12
330
9
100
AcDbSymbolTableRecord
100
AcDbRegAppTableRecord
  2
ACAD
 70
     0
  0
ENDTAB
  0
TABLE
  2
DIMSTYLE
  5
A
330
0
100
AcDbSymbolTable
 70
     1
100
AcDbDimStyleTable
 71
     0
  0
DIMSTYLE
105
30F
330
A
100
AcDbSymbolTableRecord
100
AcDbDimStyleTableRecord
  2
Standard
 70
     0
340
11
  0
ENDTAB
  0
TABLE
  2
BLOCK_RECORD
  5
1
330
0
100
AcDbSymbolTable
 70
     0
  0
BLOCK_RECORD
  5
1E
330
1
100
AcDbSymbolTableRecord
100
AcDbBlockTableRecord
  2
*Model_Space
340
21
  0
BLOCK_RECORD
  5
1A
330
1
100
AcDbSymbolTableRecord
100
AcDbBlockTableRecord
  2
*Paper_Space
340
1D
  0
ENDTAB
  0
ENDSEC
  0
SECTION
  2
BLOCKS
  0
BLOCK
  5
1F
330
1E
100
AcDbEntity
  8
0
100
AcDbBlockBegin
  2
*Model_Space
 70
     0
 10
0.0
 20
0.0
 30
0.0
  3
*Model_Space
  1

  0
ENDBLK
  5
20
330
1E
100
AcDbEntity
  8
0
100
AcDbBlockEnd
  0
BLOCK
  5
1B
330
1A
100
AcDbEntity
 67
     1
  8
0
100
AcDbBlockBegin
  2
*Paper_Space
 70
     0
 10
0.0
 20
0.0
 30
0.0
  3
*Paper_Space
  1

  0
ENDBLK
  5
1C
330
1A
100
AcDbEntity
 67
     1
  8
0
100
AcDbBlockEnd
  0
ENDSEC
  0
SECTION
  2
ENTITIES
  0
LINE
  5
2A
330
1E
100
AcDbEntity
  8
0
100
AcDbLine
 10
11.05289999999999
 20
34.5529
 30
0.0
 11
11.5823
 21
34.09409999999999
 31
0.0
  0
LINE
  5
2B
330
1E
100
AcDbEntity
  8
0
100
AcDbLine
 10
12.78229999999999
 20
33.42349999999999
 30
0.0
 11
13.4177
 21
33.17649999999999
 31
0.0
  0
LINE
  5
32
330
1E
100
AcDbEntity
  8
0
100
AcDbLine
 10
13.4177
 20
33.17649999999999
 30
0.0
 11
14.0882
 21
33.07059999999999
 31
0.0
  0
LINE
  5
33
330
1E
100
AcDbEntity
  8
0
100
AcDbLine
 10
14.0882
 20
33.07059999999999
 30
0.0
 11
14.7941
 21
33.0
 31
0.0
  0
LINE
  5
82
330
1E
100
AcDbEntity
  8
0
100
AcDbLine
 10
14.7941
 20
33.0
 30
0.0
 11
140.5
 21
33.0
 31
0.0
  0
LINE
  5
83
330
1E
100
AcDbEntity
  8
0
100
AcDbLine
 10
14.7941
 20
33.0
 30
0.0
 11
140.5
 21
33.0
 31
0.0
  0
LINE
  5
86
330
1E
100
AcDbEntity
  8
0
100
AcDbLine
 10
10.59409999999999
 20
35.0824
 30
0.0
 11
11.05289999999999
 21
34.5529
 31
0.0
  0
LINE
  5
8B
330
1E
100
AcDbEntity
  8
0
100
AcDbLine
 10
10.2059
 20
35.6471
 30
0.0
 11
10.59409999999999
 21
35.0824
 31
0.0
  0
LINE
  5
8C
330
1E
100
AcDbEntity
  8
0
100
AcDbLine
 10
9.923529999999999
 20
36.2824
 30
0.0
 11
10.2059
 21
35.6471
 31
0.0
  0
LINE
  5
95
330
1E
100
AcDbEntity
  8
0
100
AcDbLine
 10
9.67647
 20
36.9176
 30
0.0
 11
9.923529999999999
 21
36.2824
 31
0.0
  0
LINE
  5
96
330
1E
100
AcDbEntity
  8
0
100
AcDbLine
 10
9.570589999999999
 20
37.58829999999999
 30
0.0
 11
9.67647
 21
36.9176
 31
0.0
  0
LINE
  5
97
330
1E
100
AcDbEntity
  8
0
100
AcDbLine
 10
1.199999999999999
 20
46.0
 30
0.0
 11
1.7
 21
46.0
 31
0.0
  0
LINE
  5
98
330
1E
100
AcDbEntity
  8
0
100
AcDbLine
 10
1.0
 20
46.0
 30
0.0
 11
1.199999999999999
 21
46.0
 31
0.0
  0
LINE
  5
99
330
1E
100
AcDbEntity
  8
0
100
AcDbLine
 10
2.5
 20
46.0
 30
0.0
 11
3.6
 21
46.0
 31
0.0
  0
LINE
  5
9A
330
1E
100
AcDbEntity
  8
0
100
AcDbLine
 10
3.6
 20
46.0
 30
0.0
 11
4.799999999999999
 21
46.0
 31
0.0
  0
LINE
  5
9B
330
1E
100
AcDbEntity
  8
0
100
AcDbLine
 10
5.35177
 20
46.0
 30
0.0
 11
6.0
 21
46.0
 31
0.0
  0
LINE
  5
9C
330
1E
100
AcDbEntity
  8
0
100
AcDbLine
 10
4.710049999999999
 20
46.0
 30
0.0
 11
5.35177
 21
46.0
 31
0.0
  0
LINE
  5
9D
330
1E
100
AcDbEntity
  8
0
100
AcDbLine
 10
3.816859999999999
 20
46.0
 30
0.0
 11
4.233109999999999
 21
46.0
 31
0.0
  0
LINE
  5
9E
330
1E
100
AcDbEntity
  8
0
100
AcDbLine
 10
3.57405
 20
46.0
 30
0.0
 11
3.816859999999999
 21
46.0
 31
0.0
  0
LINE
  5
9F
330
1E
100
AcDbEntity
  8
0
100
AcDbLine
 10
4.233109999999999
 20
46.0
 30
0.0
 11
4.710049999999999
 21
46.0
 31
0.0
  0
LINE
  5
A0
330
1E
100
AcDbEntity
  8
0
100
AcDbLine
 10
3.5
 20
46.0
 30
0.0
 11
3.57405
 21
46.0
 31
0.0
  0
LINE
  5
A6
330
1E
100
AcDbEntity
  8
0
100
AcDbLine
 10
0.0
 20
47.0
 30
0.0
 11
0.0
 21
79.0
 31
0.0
  0
LINE
  5
A7
330
1E
100
AcDbEntity
  8
0
100
AcDbLine
 10
0.0
 20
47.0
 30
0.0
 11
0.3
 21
46.29999999999999
 31
0.0
  0
LINE
  5
AA
330
1E
100
AcDbEntity
  8
0
100
AcDbLine
 10
6.0
 20
46.0
 30
0.0
 11
50.0
 21
46.0
 31
0.0
  0
LINE
  5
AB
330
1E
100
AcDbEntity
  8
0
100
AcDbLine
 10
6.0
 20
46.0
 30
0.0
 11
74.0
 21
46.0
 31
0.0
  0
LINE
  5
AD
330
1E
100
AcDbEntity
  8
0
100
AcDbLine
 10
52.426
 20
46.0
 30
0.0
 11
52.5
 21
46.0
 31
0.0
  0
LINE
  5
AE
330
1E
100
AcDbEntity
  8
0
100
AcDbLine
 10
52.1831
 20
46.0
 30
0.0
 11
52.426
 21
46.0
 31
0.0
  0
LINE
  5
AF
330
1E
100
AcDbEntity
  8
0
100
AcDbLine
 10
51.7669
 20
46.0
 30
0.0
 11
52.1831
 21
46.0
 31
0.0
  0
LINE
  5
B0
330
1E
100
AcDbEntity
  8
0
100
AcDbLine
 10
51.2899
 20
46.0
 30
0.0
 11
51.7669
 21
46.0
 31
0.0
  0
LINE
  5
B1
330
1E
100
AcDbEntity
  8
0
100
AcDbLine
 10
50.6482
 20
46.0
 30
0.0
 11
51.2899
 21
46.0
 31
0.0
  0
LINE
  5
B2
330
1E
100
AcDbEntity
  8
0
100
AcDbLine
 10
50.0
 20
46.0
 30
0.0
 11
50.6482
 21
46.0
 31
0.0
  0
LINE
  5
BB
330
1E
100
AcDbEntity
  8
0
100
AcDbLine
 10
9.5
 20
46.0
 30
0.0
 11
9.5
 21
38.2941
 31
0.0
  0
LINE
  5
BC
330
1E
100
AcDbEntity
  8
0
100
AcDbLine
 10
9.5
 20
38.2941
 30
0.0
 11
9.5
 21
46.0
 31
0.0
  0
LINE
  5
BD
330
1E
100
AcDbEntity
  8
0
100
AcDbLine
 10
9.5
 20
38.2941
 30
0.0
 11
9.570589999999999
 21
37.58829999999999
 31
0.0
  0
LINE
  5
BE
330
1E
100
AcDbEntity
  8
0
100
AcDbLine
 10
140.5
 20
21.3384
 30
0.0
 11
140.5
 21
20.47239999999999
 31
0.0
  0
LINE
  5
BF
330
1E
100
AcDbEntity
  8
0
100
AcDbLine
 10
140.5
 20
21.3384
 30
0.0
 11
140.5
 21
54.3897
 31
0.0
  0
LINE
  5
C0
330
1E
100
AcDbEntity
  8
0
100
AcDbLine
 10
140.5
 20
56.5812
 30
0.0
 11
140.5
 21
54.3897
 31
0.0
  0
LINE
  5
C1
330
1E
100
AcDbEntity
  8
0
100
AcDbLine
 10
140.5
 20
56.5812
 30
0.0
 11
140.5
 21
58.59709999999999
 31
0.0
  0
LINE
  5
C2
330
1E
100
AcDbEntity
  8
0
100
AcDbLine
 10
140.5
 20
58.59709999999999
 30
0.0
 11
140.5
 21
56.5812
 31
0.0
  0
LINE
  5
C3
330
1E
100
AcDbEntity
  8
0
100
AcDbLine
 10
140.5
 20
58.59709999999999
 30
0.0
 11
140.5
 21
60.7126
 31
0.0
  0
LINE
  5
C4
330
1E
100
AcDbEntity
  8
0
100
AcDbLine
 10
0.3
 20
79.7
 30
0.0
 11
1.0
 21
80.0
 31
0.0
  0
LINE
  5
C7
330
1E
100
AcDbEntity
  8
0
100
AcDbLine
 10
0.3
 20
79.7
 30
0.0
 11
1.0
 21
80.0
 31
0.0
  0
LINE
  5
C8
330
1E
100
AcDbEntity
  8
0
100
AcDbLine
 10
0.0
 20
79.0
 30
0.0
 11
0.3
 21
79.7
 31
0.0
  0
LINE
  5
C9
330
1E
100
AcDbEntity
  8
0
100
AcDbLine
 10
0.0
 20
79.0
 30
0.0
 11
0.0
 21
47.0
 31
0.0
  0
LINE
  5
CD
330
1E
100
AcDbEntity
  8
0
100
AcDbLine
 10
2.5
 20
80.0
 30
0.0
 11
3.6
 21
80.0
 31
0.0
  0
LINE
  5
CF
330
1E
100
AcDbEntity
  8
0
100
AcDbLine
 10
6.0
 20
80.0
 30
0.0
 11
74.0
 21
80.0
 31
0.0
  0
LINE
  5
D1
330
1E
100
AcDbEntity
  8
0
100
AcDbLine
 10
3.6
 20
80.0
 30
0.0
 11
4.799999999999999
 21
80.0
 31
0.0
  0
LINE
  5
D2
330
1E
100
AcDbEntity
  8
0
100
AcDbLine
 10
4.799999999999999
 20
80.0
 30
0.0
 11
6.0
 21
80.0
 31
0.0
  0
LINE
  5
D3
330
1E
100
AcDbEntity
  8
0
100
AcDbLine
 10
1.7
 20
80.0
 30
0.0
 11
2.5
 21
80.0
 31
0.0
  0
LINE
  5
D4
330
1E
100
AcDbEntity
  8
0
100
AcDbLine
 10
1.199999999999999
 20
80.0
 30
0.0
 11
1.7
 21
80.0
 31
0.0
  0
LINE
  5
D5
330
1E
100
AcDbEntity
  8
0
100
AcDbLine
 10
1.0
 20
80.0
 30
0.0
 11
1.199999999999999
 21
80.0
 31
0.0
  0
LINE
  5
D6
330
1E
100
AcDbEntity
  8
0
100
AcDbLine
 10
9.5
 20
87.7059
 30
0.0
 11
9.570589999999999
 21
88.41169999999999
 31
0.0
  0
LINE
  5
D7
330
1E
100
AcDbEntity
  8
0
100
AcDbLine
 10
9.5
 20
87.7059
 30
0.0
 11
9.5
 21
80.0
 31
0.0
  0
LINE
  5
DC
330
1E
100
AcDbEntity
  8
0
100
AcDbLine
 10
76.90000000000001
 20
79.1
 30
0.0
 11
78.2
 21
78.2
 31
0.0
  0
LINE
  5
DE
330
1E
100
AcDbEntity
  8
0
100
AcDbLine
 10
75.5
 20
79.7
 30
0.0
 11
76.90000000000001
 21
79.1
 31
0.0
  0
LINE
  5
E0
330
1E
100
AcDbEntity
  8
0
100
AcDbLine
 10
74.0
 20
80.0
 30
0.0
 11
75.5
 21
79.7
 31
0.0
  0
LINE
  5
E2
330
1E
100
AcDbEntity
  8
0
100
AcDbLine
 10
78.2
 20
78.2
 30
0.0
 11
79.1
 21
76.90000000000001
 31
0.0
  0
LINE
  5
E4
330
1E
100
AcDbEntity
  8
0
100
AcDbLine
 10
79.1
 20
76.90000000000001
 30
0.0
 11
79.7
 21
75.5
 31
0.0
  0
LINE
  5
E7
330
1E
100
AcDbEntity
  8
0
100
AcDbLine
 10
79.7
 20
75.5
 30
0.0
 11
80.0
 21
74.0
 31
0.0
  0
LINE
  5
EE
330
1E
100
AcDbEntity
  8
0
100
AcDbLine
 10
9.67647
 20
89.08240000000001
 30
0.0
 11
9.923529999999999
 21
89.71760000000001
 31
0.0
  0
LINE
  5
F9
330
1E
100
AcDbEntity
  8
0
100
AcDbLine
 10
11.05289999999999
 20
91.44710000000001
 30
0.0
 11
11.5823
 21
91.9059
 31
0.0
  0
LINE
  5
FA
330
1E
100
AcDbEntity
  8
0
100
AcDbLine
 10
11.5823
 20
91.9059
 30
0.0
 11
12.1471
 21
92.29409999999999
 31
0.0
  0
LINE
  5
100
330
1E
100
AcDbEntity
  8
0
100
AcDbLine
 10
12.1471
 20
92.29409999999999
 30
0.0
 11
12.78229999999999
 21
92.57649999999999
 31
0.0
  0
LINE
  5
103
330
1E
100
AcDbEntity
  8
0
100
AcDbLine
 10
13.4177
 20
92.82349999999999
 30
0.0
 11
14.0882
 21
92.92939999999999
 31
0.0
  0
LINE
  5
104
330
1E
100
AcDbEntity
  8
0
100
AcDbLine
 10
12.78229999999999
 20
92.57649999999999
 30
0.0
 11
13.4177
 21
92.82349999999999
 31
0.0
  0
LINE
  5
109
330
1E
100
AcDbEntity
  8
0
100
AcDbLine
 10
14.7941
 20
93.0
 30
0.0
 11
163.4999999999999
 21
93.0
 31
0.0
  0
LINE
  5
129
330
1E
100
AcDbEntity
  8
0
100
AcDbLine
 10
14.7941
 20
93.0
 30
0.0
 11
163.4999999999999
 21
93.0
 31
0.0
  0
LINE
  5
12A
330
1E
100
AcDbEntity
  8
0
100
AcDbLine
 10
14.0882
 20
92.92939999999999
 30
0.0
 11
14.7941
 21
93.0
 31
0.0
  0
LINE
  5
12C
330
1E
100
AcDbEntity
  8
0
100
AcDbLine
 10
10.59409999999999
 20
90.91759999999998
 30
0.0
 11
11.05289999999999
 21
91.44710000000001
 31
0.0
  0
LINE
  5
12D
330
1E
100
AcDbEntity
  8
0
100
AcDbLine
 10
10.2059
 20
90.35290000000001
 30
0.0
 11
10.59409999999999
 21
90.91759999999998
 31
0.0
  0
LINE
  5
12E
330
1E
100
AcDbEntity
  8
0
100
AcDbLine
 10
9.923529999999999
 20
89.71760000000001
 30
0.0
 11
10.2059
 21
90.35290000000001
 31
0.0
  0
LINE
  5
12F
330
1E
100
AcDbEntity
  8
0
100
AcDbLine
 10
9.570589999999999
 20
88.41169999999999
 30
0.0
 11
9.67647
 21
89.08240000000001
 31
0.0
  0
LINE
  5
130
330
1E
100
AcDbEntity
  8
0
100
AcDbLine
 10
9.5
 20
80.0
 30
0.0
 11
9.5
 21
87.7059
 31
0.0
  0
LINE
  5
131
330
1E
100
AcDbEntity
  8
0
100
AcDbLine
 10
140.5
 20
63.0
 30
0.0
 11
140.55
 21
65.4
 31
0.0
  0
LINE
  5
132
330
1E
100
AcDbEntity
  8
0
100
AcDbLine
 10
140.5
 20
63.0
 30
0.0
 11
140.5
 21
60.7126
 31
0.0
  0
LINE
  5
133
330
1E
100
AcDbEntity
  8
0
100
AcDbLine
 10
140.5
 20
60.7126
 30
0.0
 11
140.5
 21
58.59709999999999
 31
0.0
  0
LINE
  5
134
330
1E
100
AcDbEntity
  8
0
100
AcDbLine
 10
140.5
 20
60.7126
 30
0.0
 11
140.5
 21
63.0
 31
0.0
  0
LINE
  5
135
330
1E
100
AcDbEntity
  8
0
100
AcDbLine
 10
140.5
 20
54.3897
 30
0.0
 11
140.5
 21
21.3384
 31
0.0
  0
LINE
  5
136
330
1E
100
AcDbEntity
  8
0
100
AcDbLine
 10
140.5
 20
54.3897
 30
0.0
 11
140.5
 21
56.5812
 31
0.0
  0
LINE
  5
137
330
1E
100
AcDbEntity
  8
0
100
AcDbLine
 10
140.928
 20
13.39739999999999
 30
0.0
 11
141.109
 21
11.90709999999999
 31
0.0
  0
LINE
  5
138
330
1E
100
AcDbEntity
  8
0
100
AcDbLine
 10
141.3859999999999
 20
10.01659999999999
 30
0.0
 11
141.614
 21
8.881850000000008
 31
0.0
  0
LINE
  5
139
330
1E
100
AcDbEntity
  8
0
100
AcDbLine
 10
141.614
 20
8.881850000000008
 30
0.0
 11
142.312
 21
7.278520000000009
 31
0.0
  0
LINE
  5
13A
330
1E
100
AcDbEntity
  8
0
100
AcDbLine
 10
141.109
 20
11.90709999999999
 30
0.0
 11
141.3859999999999
 21
10.01659999999999
 31
0.0
  0
LINE
  5
13B
330
1E
100
AcDbEntity
  8
0
100
AcDbLine
 10
140.65
 20
15.9724
 30
0.0
 11
140.928
 21
13.39739999999999
 31
0.0
  0
LINE
  5
13C
330
1E
100
AcDbEntity
  8
0
100
AcDbLine
 10
140.976
 20
17.47889999999999
 30
0.0
 11
141.15
 21
16.0946
 31
0.0
  0
LINE
  5
13D
330
1E
100
AcDbEntity
  8
0
100
AcDbLine
 10
141.15
 20
16.0946
 30
0.0
 11
141.4
 21
14.9446
 31
0.0
  0
LINE
  5
13E
330
1E
100
AcDbEntity
  8
0
100
AcDbLine
 10
141.4
 20
14.9446
 30
0.0
 11
141.8
 21
13.8946
 31
0.0
  0
LINE
  5
13F
330
1E
100
AcDbEntity
  8
0
100
AcDbLine
 10
141.8
 20
13.8946
 30
0.0
 11
142.5999999999999
 21
12.94459999999999
 31
0.0
  0
LINE
  5
140
330
1E
100
AcDbEntity
  8
0
100
AcDbLine
 10
144.381
 20
5.167190000000009
 30
0.0
 11
145.7009999999999
 21
4.656980000000009
 31
0.0
  0
LINE
  5
141
330
1E
100
AcDbEntity
  8
0
100
AcDbLine
 10
143.3479999999999
 20
5.941630000000009
 30
0.0
 11
144.381
 21
5.167190000000009
 31
0.0
  0
LINE
  5
142
330
1E
100
AcDbEntity
  8
0
100
AcDbLine
 10
149.187
 20
3.801600000000009
 30
0.0
 11
150.954
 21
3.595980000000009
 31
0.0
  0
LINE
  5
143
330
1E
100
AcDbEntity
  8
0
100
AcDbLine
 10
147.662
 20
4.067700000000009
 30
0.0
 11
149.187
 21
3.801600000000009
 31
0.0
  0
LINE
  5
144
330
1E
100
AcDbEntity
  8
0
100
AcDbLine
 10
145.7009999999999
 20
4.656980000000009
 30
0.0
 11
147.662
 21
4.067700000000009
 31
0.0
  0
LINE
  5
145
330
1E
100
AcDbEntity
  8
0
100
AcDbLine
 10
150.954
 20
3.595980000000009
 30
0.0
 11
152.407
 21
3.499210000000009
 31
0.0
  0
LINE
  5
146
330
1E
100
AcDbEntity
  8
0
100
AcDbLine
 10
154.216
 20
0.0000000000000092
 30
0.0
 11
155.932
 21
0.0000000000000091
 31
0.0
  0
LINE
  5
147
330
1E
100
AcDbEntity
  8
0
100
AcDbLine
 10
153.16
 20
0.0000000000000094
 30
0.0
 11
154.216
 21
0.0000000000000092
 31
0.0
  0
LINE
  5
148
330
1E
100
AcDbEntity
  8
0
100
AcDbLine
 10
154.216
 20
0.0000000000000099
 30
0.0
 11
155.932
 21
0.00000000000001
 31
0.0
  0
LINE
  5
149
330
1E
100
AcDbEntity
  8
0
100
AcDbLine
 10
153.16
 20
0.0000000000000097
 30
0.0
 11
154.216
 21
0.0000000000000099
 31
0.0
  0
LINE
  5
14A
330
1E
100
AcDbEntity
  8
0
100
AcDbLine
 10
152.764
 20
0.0000000000000096
 30
0.0
 11
153.16
 21
0.0000000000000097
 31
0.0
  0
LINE
  5
14B
330
1E
100
AcDbEntity
  8
0
100
AcDbLine
 10
152.764
 20
0.0000000000000096
 30
0.0
 11
153.16
 21
0.0000000000000094
 31
0.0
  0
LINE
  5
14C
330
1E
100
AcDbEntity
  8
0
100
AcDbLine
 10
152.5
 20
3.49223820247935
 30
0.0
 11
152.5
 21
0.30000000000001
 31
0.0
  0
LINE
  5
14D
330
1E
100
AcDbEntity
  8
0
100
AcDbLine
 10
153.9519999999999
 20
0.30000000000001
 30
0.0
 11
155.712
 21
0.30000000000001
 31
0.0
  0
LINE
  5
14E
330
1E
100
AcDbEntity
  8
0
100
AcDbLine
 10
152.896
 20
0.30000000000001
 30
0.0
 11
153.9519999999999
 21
0.30000000000001
 31
0.0
  0
LINE
  5
14F
330
1E
100
AcDbEntity
  8
0
100
AcDbLine
 10
152.5
 20
0.30000000000001
 30
0.0
 11
152.5
 21
3.49223820247935
 31
0.0
  0
LINE
  5
150
330
1E
100
AcDbEntity
  8
0
100
AcDbLine
 10
152.5
 20
0.30000000000001
 30
0.0
 11
152.896
 21
0.30000000000001
 31
0.0
  0
LINE
  5
151
330
1E
100
AcDbEntity
  8
0
100
AcDbLine
 10
152.5
 20
0.30000000000001
 30
0.0
 11
152.764
 21
0.0000000000000096
 31
0.0
  0
LINE
  5
152
330
1E
100
AcDbEntity
  8
0
100
AcDbLine
 10
152.5
 20
0.30000000000001
 30
0.0
 11
152.764
 21
0.0000000000000096
 31
0.0
  0
LINE
  5
153
330
1E
100
AcDbEntity
  8
0
100
AcDbLine
 10
152.407
 20
3.499210000000009
 30
0.0
 11
152.7664932874699
 21
3.47226038268521
 31
0.0
  0
LINE
  5
154
330
1E
100
AcDbEntity
  8
0
100
AcDbLine
 10
151.6399999999999
 20
10.6031
 30
0.0
 11
154.428
 21
10.3856
 31
0.0
  0
LINE
  5
155
330
1E
100
AcDbEntity
  8
0
100
AcDbLine
 10
149.3689999999999
 20
10.83409999999999
 30
0.0
 11
151.6399999999999
 21
10.6031
 31
0.0
  0
LINE
  5
156
330
1E
100
AcDbEntity
  8
0
100
AcDbLine
 10
147.4
 20
11.0946
 30
0.0
 11
149.3689999999999
 21
10.83409999999999
 31
0.0
  0
LINE
  5
157
330
1E
100
AcDbEntity
  8
0
100
AcDbLine
 10
145.5
 20
11.4946
 30
0.0
 11
147.4
 21
11.0946
 31
0.0
  0
LINE
  5
158
330
1E
100
AcDbEntity
  8
0
100
AcDbLine
 10
143.8
 20
12.09459999999999
 30
0.0
 11
145.5
 21
11.4946
 31
0.0
  0
LINE
  5
159
330
1E
100
AcDbEntity
  8
0
100
AcDbLine
 10
142.5999999999999
 20
12.94459999999999
 30
0.0
 11
143.8
 21
12.09459999999999
 31
0.0
  0
LINE
  5
15A
330
1E
100
AcDbEntity
  8
0
100
AcDbLine
 10
140.8139999999999
 20
20.7989
 30
0.0
 11
140.8859999999999
 21
19.2562
 31
0.0
  0
LINE
  5
15B
330
1E
100
AcDbEntity
  8
0
100
AcDbLine
 10
140.8859999999999
 20
19.2562
 30
0.0
 11
140.976
 21
17.47889999999999
 31
0.0
  0
LINE
  5
15C
330
1E
100
AcDbEntity
  8
0
100
AcDbLine
 10
140.51
 20
19.3224
 30
0.0
 11
140.55
 21
17.7724
 31
0.0
  0
LINE
  5
15D
330
1E
100
AcDbEntity
  8
0
100
AcDbLine
 10
140.55
 20
17.7724
 30
0.0
 11
140.65
 21
15.9724
 31
0.0
  0
LINE
  5
15E
330
1E
100
AcDbEntity
  8
0
100
AcDbLine
 10
163.4999999999999
 20
0.0000000000000089
 30
0.0
 11
166.272
 21
0.0000000000000089
 31
0.0
  0
LINE
  5
15F
330
1E
100
AcDbEntity
  8
0
100
AcDbLine
 10
166.272
 20
0.0000000000000089
 30
0.0
 11
168.824
 21
0.000000000000009
 31
0.0
  0
LINE
  5
160
330
1E
100
AcDbEntity
  8
0
100
AcDbLine
 10
168.824
 20
0.000000000000009
 30
0.0
 11
171.0679999999999
 21
0.0000000000000091
 31
0.0
  0
LINE
  5
161
330
1E
100
AcDbEntity
  8
0
100
AcDbLine
 10
160.7279999999999
 20
0.0000000000000089
 30
0.0
 11
163.4999999999999
 21
0.0000000000000089
 31
0.0
  0
LINE
  5
162
330
1E
100
AcDbEntity
  8
0
100
AcDbLine
 10
171.0679999999999
 20
0.0000000000000091
 30
0.0
 11
172.784
 21
0.0000000000000092
 31
0.0
  0
LINE
  5
163
330
1E
100
AcDbEntity
  8
0
100
AcDbLine
 10
172.784
 20
0.0000000000000092
 30
0.0
 11
173.84
 21
0.0000000000000094
 31
0.0
  0
LINE
  5
164
330
1E
100
AcDbEntity
  8
0
100
AcDbLine
 10
173.84
 20
0.0000000000000094
 30
0.0
 11
174.2359999999999
 21
0.0000000000000096
 31
0.0
  0
LINE
  5
165
330
1E
100
AcDbEntity
  8
0
100
AcDbLine
 10
158.176
 20
0.000000000000009
 30
0.0
 11
160.7279999999999
 21
0.0000000000000089
 31
0.0
  0
LINE
  5
166
330
1E
100
AcDbEntity
  8
0
100
AcDbLine
 10
155.932
 20
0.0000000000000091
 30
0.0
 11
158.176
 21
0.000000000000009
 31
0.0
  0
LINE
  5
167
330
1E
100
AcDbEntity
  8
0
100
AcDbLine
 10
158.176
 20
0.0000000000000101
 30
0.0
 11
160.7279999999999
 21
0.0000000000000102
 31
0.0
  0
LINE
  5
168
330
1E
100
AcDbEntity
  8
0
100
AcDbLine
 10
155.932
 20
0.00000000000001
 30
0.0
 11
158.176
 21
0.0000000000000101
 31
0.0
  0
LINE
  5
169
330
1E
100
AcDbEntity
  8
0
100
AcDbLine
 10
160.7279999999999
 20
0.0000000000000102
 30
0.0
 11
163.4999999999999
 21
0.0000000000000102
 31
0.0
  0
LINE
  5
16A
330
1E
100
AcDbEntity
  8
0
100
AcDbLine
 10
163.4999999999999
 20
0.0000000000000102
 30
0.0
 11
166.272
 21
0.0000000000000102
 31
0.0
  0
LINE
  5
16B
330
1E
100
AcDbEntity
  8
0
100
AcDbLine
 10
166.272
 20
0.0000000000000102
 30
0.0
 11
168.824
 21
0.0000000000000101
 31
0.0
  0
LINE
  5
16C
330
1E
100
AcDbEntity
  8
0
100
AcDbLine
 10
168.824
 20
0.0000000000000101
 30
0.0
 11
171.0679999999999
 21
0.00000000000001
 31
0.0
  0
LINE
  5
16D
330
1E
100
AcDbEntity
  8
0
100
AcDbLine
 10
171.0679999999999
 20
0.00000000000001
 30
0.0
 11
172.784
 21
0.0000000000000099
 31
0.0
  0
LINE
  5
16E
330
1E
100
AcDbEntity
  8
0
100
AcDbLine
 10
172.784
 20
0.0000000000000099
 30
0.0
 11
173.84
 21
0.0000000000000097
 31
0.0
  0
LINE
  5
16F
330
1E
100
AcDbEntity
  8
0
100
AcDbLine
 10
173.84
 20
0.0000000000000097
 30
0.0
 11
174.2359999999999
 21
0.0000000000000096
 31
0.0
  0
LINE
  5
170
330
1E
100
AcDbEntity
  8
0
100
AcDbLine
 10
158.0439999999999
 20
0.30000000000001
 30
0.0
 11
160.684
 21
0.30000000000001
 31
0.0
  0
LINE
  5
171
330
1E
100
AcDbEntity
  8
0
100
AcDbLine
 10
155.712
 20
0.30000000000001
 30
0.0
 11
158.0439999999999
 21
0.30000000000001
 31
0.0
  0
LINE
  5
172
330
1E
100
AcDbEntity
  8
0
100
AcDbLine
 10
160.684
 20
0.30000000000001
 30
0.0
 11
163.4999999999999
 21
0.30000000000001
 31
0.0
  0
LINE
  5
175
330
1E
100
AcDbEntity
  8
0
100
AcDbLine
 10
163.4999999999999
 20
0.30000000000001
 30
0.0
 11
166.3159999999999
 21
0.30000000000001
 31
0.0
  0
LINE
  5
177
330
1E
100
AcDbEntity
  8
0
100
AcDbLine
 10
166.3159999999999
 20
0.30000000000001
 30
0.0
 11
168.9559999999999
 21
0.30000000000001
 31
0.0
  0
LINE
  5
178
330
1E
100
AcDbEntity
  8
0
100
AcDbLine
 10
168.9559999999999
 20
0.30000000000001
 30
0.0
 11
171.288
 21
0.30000000000001
 31
0.0
  0
LINE
  5
179
330
1E
100
AcDbEntity
  8
0
100
AcDbLine
 10
171.288
 20
0.30000000000001
 30
0.0
 11
173.048
 21
0.30000000000001
 31
0.0
  0
LINE
  5
17A
330
1E
100
AcDbEntity
  8
0
100
AcDbLine
 10
173.048
 20
0.30000000000001
 30
0.0
 11
174.104
 21
0.30000000000001
 31
0.0
  0
LINE
  5
17B
330
1E
100
AcDbEntity
  8
0
100
AcDbLine
 10
174.23350671253
 20
3.47226038268522
 30
0.0
 11
174.5929999999999
 21
3.499210000000009
 31
0.0
  0
LINE
  5
17C
330
1E
100
AcDbEntity
  8
0
100
AcDbLine
 10
174.2359999999999
 20
0.0000000000000096
 30
0.0
 11
174.5
 21
0.30000000000001
 31
0.0
  0
LINE
  5
17D
330
1E
100
AcDbEntity
  8
0
100
AcDbLine
 10
174.5
 20
0.30000000000001
 30
0.0
 11
174.5
 21
3.49223820247935
 31
0.0
  0
LINE
  5
17E
330
1E
100
AcDbEntity
  8
0
100
AcDbLine
 10
174.2359999999999
 20
0.0000000000000096
 30
0.0
 11
174.5
 21
0.30000000000001
 31
0.0
  0
LINE
  5
17F
330
1E
100
AcDbEntity
  8
0
100
AcDbLine
 10
174.5929999999999
 20
3.499210000000009
 30
0.0
 11
176.0459999999999
 21
3.595980000000009
 31
0.0
  0
LINE
  5
180
330
1E
100
AcDbEntity
  8
0
100
AcDbLine
 10
176.0459999999999
 20
3.595980000000009
 30
0.0
 11
177.8129999999999
 21
3.801600000000009
 31
0.0
  0
LINE
  5
181
330
1E
100
AcDbEntity
  8
0
100
AcDbLine
 10
182.619
 20
5.167190000000009
 30
0.0
 11
183.652
 21
5.941630000000009
 31
0.0
  0
LINE
  5
182
330
1E
100
AcDbEntity
  8
0
100
AcDbLine
 10
184.6879999999999
 20
7.278520000000009
 30
0.0
 11
185.386
 21
8.881850000000008
 31
0.0
  0
LINE
  5
183
330
1E
100
AcDbEntity
  8
0
100
AcDbLine
 10
181.299
 20
4.656980000000009
 30
0.0
 11
182.619
 21
5.167190000000009
 31
0.0
  0
LINE
  5
184
330
1E
100
AcDbEntity
  8
0
100
AcDbLine
 10
179.3379999999999
 20
4.067700000000009
 30
0.0
 11
181.299
 21
4.656980000000009
 31
0.0
  0
LINE
  5
185
330
1E
100
AcDbEntity
  8
0
100
AcDbLine
 10
177.8129999999999
 20
3.801600000000009
 30
0.0
 11
179.3379999999999
 21
4.067700000000009
 31
0.0
  0
LINE
  5
186
330
1E
100
AcDbEntity
  8
0
100
AcDbLine
 10
174.5
 20
3.49223820247935
 30
0.0
 11
174.5
 21
0.30000000000001
 31
0.0
  0
LINE
  5
187
330
1E
100
AcDbEntity
  8
0
100
AcDbLine
 10
174.104
 20
0.30000000000001
 30
0.0
 11
174.5
 21
0.30000000000001
 31
0.0
  0
LINE
  5
189
330
1E
100
AcDbEntity
  8
0
100
AcDbLine
 10
163.4999999999999
 20
10.0946
 30
0.0
 11
165.799
 21
10.13419999999999
 31
0.0
  0
LINE
  5
18A
330
1E
100
AcDbEntity
  8
0
100
AcDbLine
 10
185.614
 20
10.01659999999999
 30
0.0
 11
185.8909999999999
 21
11.90709999999999
 31
0.0
  0
LINE
  5
18B
330
1E
100
AcDbEntity
  8
0
100
AcDbLine
 10
185.386
 20
8.881850000000008
 30
0.0
 11
185.614
 21
10.01659999999999
 31
0.0
  0
LINE
  5
18D
330
1E
100
AcDbEntity
  8
0
100
AcDbLine
 10
165.799
 20
10.13419999999999
 30
0.0
 11
168.954
 21
10.2089
 31
0.0
  0
LINE
  5
18E
330
1E
100
AcDbEntity
  8
0
100
AcDbLine
 10
168.954
 20
10.2089
 30
0.0
 11
172.572
 21
10.3856
 31
0.0
  0
LINE
  5
18F
330
1E
100
AcDbEntity
  8
0
100
AcDbLine
 10
161.2009999999999
 20
10.13419999999999
 30
0.0
 11
163.4999999999999
 21
10.0946
 31
0.0
  0
LINE
  5
190
330
1E
100
AcDbEntity
  8
0
100
AcDbLine
 10
172.572
 20
10.3856
 30
0.0
 11
175.36
 21
10.6031
 31
0.0
  0
LINE
  5
191
330
1E
100
AcDbEntity
  8
0
100
AcDbLine
 10
175.36
 20
10.6031
 30
0.0
 11
177.6309999999999
 21
10.83409999999999
 31
0.0
  0
LINE
  5
192
330
1E
100
AcDbEntity
  8
0
100
AcDbLine
 10
177.6309999999999
 20
10.83409999999999
 30
0.0
 11
179.6
 21
11.0946
 31
0.0
  0
LINE
  5
193
330
1E
100
AcDbEntity
  8
0
100
AcDbLine
 10
179.6
 20
11.0946
 30
0.0
 11
181.4999999999999
 21
11.4946
 31
0.0
  0
LINE
  5
194
330
1E
100
AcDbEntity
  8
0
100
AcDbLine
 10
185.8909999999999
 20
11.90709999999999
 30
0.0
 11
186.072
 21
13.39739999999999
 31
0.0
  0
LINE
  5
195
330
1E
100
AcDbEntity
  8
0
100
AcDbLine
 10
186.072
 20
13.39739999999999
 30
0.0
 11
186.3499999999999
 21
15.9724
 31
0.0
  0
LINE
  5
196
330
1E
100
AcDbEntity
  8
0
100
AcDbLine
 10
186.3499999999999
 20
15.9724
 30
0.0
 11
186.4499999999999
 21
17.7724
 31
0.0
  0
LINE
  5
197
330
1E
100
AcDbEntity
  8
0
100
AcDbLine
 10
186.1139999999999
 20
19.2562
 30
0.0
 11
186.1859999999999
 21
20.7989
 31
0.0
  0
LINE
  5
198
330
1E
100
AcDbEntity
  8
0
100
AcDbLine
 10
186.024
 20
17.47889999999999
 30
0.0
 11
186.1139999999999
 21
19.2562
 31
0.0
  0
LINE
  5
199
330
1E
100
AcDbEntity
  8
0
100
AcDbLine
 10
185.85
 20
16.0946
 30
0.0
 11
186.024
 21
17.47889999999999
 31
0.0
  0
LINE
  5
19A
330
1E
100
AcDbEntity
  8
0
100
AcDbLine
 10
185.5999999999999
 20
14.9446
 30
0.0
 11
185.85
 21
16.0946
 31
0.0
  0
LINE
  5
19B
330
1E
100
AcDbEntity
  8
0
100
AcDbLine
 10
185.1999999999999
 20
13.8946
 30
0.0
 11
185.5999999999999
 21
14.9446
 31
0.0
  0
LINE
  5
19C
330
1E
100
AcDbEntity
  8
0
100
AcDbLine
 10
184.4
 20
12.94459999999999
 30
0.0
 11
185.1999999999999
 21
13.8946
 31
0.0
  0
LINE
  5
19D
330
1E
100
AcDbEntity
  8
0
100
AcDbLine
 10
183.1999999999999
 20
12.09459999999999
 30
0.0
 11
184.4
 21
12.94459999999999
 31
0.0
  0
LINE
  5
19E
330
1E
100
AcDbEntity
  8
0
100
AcDbLine
 10
186.4499999999999
 20
17.7724
 30
0.0
 11
186.49
 21
19.3224
 31
0.0
  0
LINE
  5
19F
330
1E
100
AcDbEntity
  8
0
100
AcDbLine
 10
186.1859999999999
 20
20.7989
 30
0.0
 11
186.1999999999999
 21
21.9446
 31
0.0
  0
LINE
  5
1A0
330
1E
100
AcDbEntity
  8
0
100
AcDbLine
 10
186.4918160971189
 20
20.3972511687232
 30
0.0
 11
186.5
 21
20.47239999999999
 31
0.0
  0
LINE
  5
1A1
330
1E
100
AcDbEntity
  8
0
100
AcDbLine
 10
186.49
 20
19.3224
 30
0.0
 11
186.5
 21
20.47239999999999
 31
0.0
  0
LINE
  5
1A2
330
1E
100
AcDbEntity
  8
0
100
AcDbLine
 10
181.4999999999999
 20
11.4946
 30
0.0
 11
183.1999999999999
 21
12.09459999999999
 31
0.0
  0
LINE
  5
1A3
330
1E
100
AcDbEntity
  8
0
100
AcDbLine
 10
186.1999999999999
 20
21.9446
 30
0.0
 11
186.1999999999999
 21
54.9229
 31
0.0
  0
LINE
  5
1A4
330
1E
100
AcDbEntity
  8
0
100
AcDbLine
 10
186.5
 20
20.47239999999999
 30
0.0
 11
186.5
 21
21.3384
 31
0.0
  0
LINE
  5
1A5
330
1E
100
AcDbEntity
  8
0
100
AcDbLine
 10
186.5
 20
21.3384
 30
0.0
 11
186.5
 21
20.47239999999999
 31
0.0
  0
LINE
  5
1A6
330
1E
100
AcDbEntity
  8
0
100
AcDbLine
 10
186.5
 20
21.3384
 30
0.0
 11
186.5
 21
54.3897
 31
0.0
  0
LINE
  5
1A7
330
1E
100
AcDbEntity
  8
0
100
AcDbLine
 10
186.491816124161
 20
20.3972542785301
 30
0.0
 11
186.5
 21
20.47239999999999
 31
0.0
  0
LINE
  5
1A8
330
1E
100
AcDbEntity
  8
0
100
AcDbLine
 10
158.0459999999999
 20
10.2089
 30
0.0
 11
161.2009999999999
 21
10.13419999999999
 31
0.0
  0
LINE
  5
1A9
330
1E
100
AcDbEntity
  8
0
100
AcDbLine
 10
154.428
 20
10.3856
 30
0.0
 11
158.0459999999999
 21
10.2089
 31
0.0
  0
LINE
  5
1AD
330
1E
100
AcDbEntity
  8
0
100
AcDbLine
 10
140.8
 20
57.1555
 30
0.0
 11
140.8
 21
59.0659
 31
0.0
  0
LINE
  5
1AE
330
1E
100
AcDbEntity
  8
0
100
AcDbLine
 10
140.8
 20
57.1555
 30
0.0
 11
140.8
 21
54.9229
 31
0.0
  0
LINE
  5
1AF
330
1E
100
AcDbEntity
  8
0
100
AcDbLine
 10
140.55
 20
65.4
 30
0.0
 11
140.65
 21
69.0
 31
0.0
  0
LINE
  5
1B0
330
1E
100
AcDbEntity
  8
0
100
AcDbLine
 10
140.65
 20
69.0
 30
0.0
 11
140.8499999999999
 21
72.0
 31
0.0
  0
LINE
  5
1B1
330
1E
100
AcDbEntity
  8
0
100
AcDbLine
 10
140.8
 20
63.0141
 30
0.0
 11
140.8859999999999
 21
65.2231
 31
0.0
  0
LINE
  5
1B2
330
1E
100
AcDbEntity
  8
0
100
AcDbLine
 10
140.8
 20
63.0141
 30
0.0
 11
140.8
 21
61.13389999999999
 31
0.0
  0
LINE
  5
1B3
330
1E
100
AcDbEntity
  8
0
100
AcDbLine
 10
140.8
 20
61.13389999999999
 30
0.0
 11
140.8
 21
59.0659
 31
0.0
  0
LINE
  5
1B4
330
1E
100
AcDbEntity
  8
0
100
AcDbLine
 10
140.8
 20
61.13389999999999
 30
0.0
 11
140.8
 21
63.0141
 31
0.0
  0
LINE
  5
1B5
330
1E
100
AcDbEntity
  8
0
100
AcDbLine
 10
140.8
 20
59.0659
 30
0.0
 11
140.8
 21
61.13389999999999
 31
0.0
  0
LINE
  5
1B6
330
1E
100
AcDbEntity
  8
0
100
AcDbLine
 10
140.8
 20
59.0659
 30
0.0
 11
140.8
 21
57.1555
 31
0.0
  0
LINE
  5
1B7
330
1E
100
AcDbEntity
  8
0
100
AcDbLine
 10
140.8859999999999
 20
65.2231
 30
0.0
 11
140.976
 21
68.7012
 31
0.0
  0
LINE
  5
1B8
330
1E
100
AcDbEntity
  8
0
100
AcDbLine
 10
140.8499999999999
 20
72.0
 30
0.0
 11
141.1
 21
74.29999999999999
 31
0.0
  0
LINE
  5
1B9
330
1E
100
AcDbEntity
  8
0
100
AcDbLine
 10
140.976
 20
68.7012
 30
0.0
 11
141.15
 21
71.6858
 31
0.0
  0
LINE
  5
1BA
330
1E
100
AcDbEntity
  8
0
100
AcDbLine
 10
141.15
 20
71.6858
 30
0.0
 11
141.4
 21
74.0
 31
0.0
  0
LINE
  5
1BB
330
1E
100
AcDbEntity
  8
0
100
AcDbLine
 10
141.1
 20
74.29999999999999
 30
0.0
 11
141.5
 21
76.4
 31
0.0
  0
LINE
  5
1BC
330
1E
100
AcDbEntity
  8
0
100
AcDbLine
 10
141.4
 20
74.0
 30
0.0
 11
141.8
 21
76.09999999999999
 31
0.0
  0
LINE
  5
1BD
330
1E
100
AcDbEntity
  8
0
100
AcDbLine
 10
141.5
 20
76.4
 30
0.0
 11
142.3
 21
78.3
 31
0.0
  0
LINE
  5
1C2
330
1E
100
AcDbEntity
  8
0
100
AcDbLine
 10
186.5
 20
33.0
 30
0.0
 11
312.2059999999999
 21
33.0
 31
0.0
  0
LINE
  5
21B
330
1E
100
AcDbEntity
  8
0
100
AcDbLine
 10
312.2059999999999
 20
33.0
 30
0.0
 11
312.912
 21
33.07059999999999
 31
0.0
  0
LINE
  5
21C
330
1E
100
AcDbEntity
  8
0
100
AcDbLine
 10
186.5
 20
33.0
 30
0.0
 11
312.2059999999999
 21
33.0
 31
0.0
  0
LINE
  5
22B
330
1E
100
AcDbEntity
  8
0
100
AcDbLine
 10
317.5
 20
38.2941
 30
0.0
 11
317.5
 21
46.0
 31
0.0
  0
LINE
  5
22C
330
1E
100
AcDbEntity
  8
0
100
AcDbLine
 10
317.429
 20
37.58829999999999
 30
0.0
 11
317.5
 21
38.2941
 31
0.0
  0
LINE
  5
22D
330
1E
100
AcDbEntity
  8
0
100
AcDbLine
 10
186.1999999999999
 20
57.1555
 30
0.0
 11
186.1999999999999
 21
54.9229
 31
0.0
  0
LINE
  5
22E
330
1E
100
AcDbEntity
  8
0
100
AcDbLine
 10
186.1999999999999
 20
57.1555
 30
0.0
 11
186.1999999999999
 21
59.0659
 31
0.0
  0
LINE
  5
22F
330
1E
100
AcDbEntity
  8
0
100
AcDbLine
 10
186.1999999999999
 20
54.9229
 30
0.0
 11
186.1999999999999
 21
21.9446
 31
0.0
  0
LINE
  5
230
330
1E
100
AcDbEntity
  8
0
100
AcDbLine
 10
186.1999999999999
 20
54.9229
 30
0.0
 11
186.1999999999999
 21
57.1555
 31
0.0
  0
LINE
  5
231
330
1E
100
AcDbEntity
  8
0
100
AcDbLine
 10
186.5
 20
54.3897
 30
0.0
 11
186.5
 21
21.3384
 31
0.0
  0
LINE
  5
232
330
1E
100
AcDbEntity
  8
0
100
AcDbLine
 10
186.5
 20
54.3897
 30
0.0
 11
186.5
 21
56.5812
 31
0.0
  0
LINE
  5
233
330
1E
100
AcDbEntity
  8
0
100
AcDbLine
 10
186.5
 20
56.5812
 30
0.0
 11
186.5
 21
54.3897
 31
0.0
  0
LINE
  5
234
330
1E
100
AcDbEntity
  8
0
100
AcDbLine
 10
186.5
 20
56.5812
 30
0.0
 11
186.5
 21
58.59709999999999
 31
0.0
  0
LINE
  5
235
330
1E
100
AcDbEntity
  8
0
100
AcDbLine
 10
186.1999999999999
 20
63.0141
 30
0.0
 11
186.1999999999999
 21
61.13389999999999
 31
0.0
  0
LINE
  5
236
330
1E
100
AcDbEntity
  8
0
100
AcDbLine
 10
186.1999999999999
 20
59.0659
 30
0.0
 11
186.1999999999999
 21
61.13389999999999
 31
0.0
  0
LINE
  5
237
330
1E
100
AcDbEntity
  8
0
100
AcDbLine
 10
186.1999999999999
 20
59.0659
 30
0.0
 11
186.1999999999999
 21
57.1555
 31
0.0
  0
LINE
  5
238
330
1E
100
AcDbEntity
  8
0
100
AcDbLine
 10
186.5
 20
63.0
 30
0.0
 11
186.5
 21
60.7126
 31
0.0
  0
LINE
  5
239
330
1E
100
AcDbEntity
  8
0
100
AcDbLine
 10
186.1999999999999
 20
61.13389999999999
 30
0.0
 11
186.1999999999999
 21
59.0659
 31
0.0
  0
LINE
  5
23A
330
1E
100
AcDbEntity
  8
0
100
AcDbLine
 10
186.1999999999999
 20
61.13389999999999
 30
0.0
 11
186.1999999999999
 21
63.0141
 31
0.0
  0
LINE
  5
23B
330
1E
100
AcDbEntity
  8
0
100
AcDbLine
 10
186.4499999999999
 20
65.4
 30
0.0
 11
186.5
 21
63.0
 31
0.0
  0
LINE
  5
23C
330
1E
100
AcDbEntity
  8
0
100
AcDbLine
 10
186.3499999999999
 20
69.0
 30
0.0
 11
186.4499999999999
 21
65.4
 31
0.0
  0
LINE
  5
23D
330
1E
100
AcDbEntity
  8
0
100
AcDbLine
 10
186.1139999999999
 20
65.2231
 30
0.0
 11
186.1999999999999
 21
63.0141
 31
0.0
  0
LINE
  5
23E
330
1E
100
AcDbEntity
  8
0
100
AcDbLine
 10
186.024
 20
68.7012
 30
0.0
 11
186.1139999999999
 21
65.2231
 31
0.0
  0
LINE
  5
23F
330
1E
100
AcDbEntity
  8
0
100
AcDbLine
 10
186.15
 20
72.0
 30
0.0
 11
186.3499999999999
 21
69.0
 31
0.0
  0
LINE
  5
240
330
1E
100
AcDbEntity
  8
0
100
AcDbLine
 10
185.8999999999999
 20
74.29999999999999
 30
0.0
 11
186.15
 21
72.0
 31
0.0
  0
LINE
  5
241
330
1E
100
AcDbEntity
  8
0
100
AcDbLine
 10
185.85
 20
71.6858
 30
0.0
 11
186.024
 21
68.7012
 31
0.0
  0
LINE
  5
242
330
1E
100
AcDbEntity
  8
0
100
AcDbLine
 10
185.5999999999999
 20
74.0
 30
0.0
 11
185.85
 21
71.6858
 31
0.0
  0
LINE
  5
243
330
1E
100
AcDbEntity
  8
0
100
AcDbLine
 10
185.5
 20
76.4
 30
0.0
 11
185.8999999999999
 21
74.29999999999999
 31
0.0
  0
LINE
  5
244
330
1E
100
AcDbEntity
  8
0
100
AcDbLine
 10
185.1999999999999
 20
76.09999999999999
 30
0.0
 11
185.5999999999999
 21
74.0
 31
0.0
  0
LINE
  5
245
330
1E
100
AcDbEntity
  8
0
100
AcDbLine
 10
184.4
 20
78.0
 30
0.0
 11
185.1999999999999
 21
76.09999999999999
 31
0.0
  0
LINE
  5
246
330
1E
100
AcDbEntity
  8
0
100
AcDbLine
 10
186.5
 20
58.59709999999999
 30
0.0
 11
186.5
 21
56.5812
 31
0.0
  0
LINE
  5
247
330
1E
100
AcDbEntity
  8
0
100
AcDbLine
 10
186.5
 20
58.59709999999999
 30
0.0
 11
186.5
 21
60.7126
 31
0.0
  0
LINE
  5
24A
330
1E
100
AcDbEntity
  8
0
100
AcDbLine
 10
247.0
 20
52.0
 30
0.0
 11
247.0
 21
74.0
 31
0.0
  0
LINE
  5
24B
330
1E
100
AcDbEntity
  8
0
100
AcDbLine
 10
247.0
 20
52.0
 30
0.0
 11
247.3
 21
50.5
 31
0.0
  0
LINE
  5
24C
330
1E
100
AcDbEntity
  8
0
100
AcDbLine
 10
251.5
 20
46.29999999999999
 30
0.0
 11
253.0
 21
46.0
 31
0.0
  0
LINE
  5
24D
330
1E
100
AcDbEntity
  8
0
100
AcDbLine
 10
253.0
 20
46.0
 30
0.0
 11
321.0
 21
46.0
 31
0.0
  0
LINE
  5
24E
330
1E
100
AcDbEntity
  8
0
100
AcDbLine
 10
274.574
 20
46.0
 30
0.0
 11
274.817
 21
46.0
 31
0.0
  0
LINE
  5
24F
330
1E
100
AcDbEntity
  8
0
100
AcDbLine
 10
274.817
 20
46.0
 30
0.0
 11
275.233
 21
46.0
 31
0.0
  0
LINE
  5
250
330
1E
100
AcDbEntity
  8
0
100
AcDbLine
 10
275.233
 20
46.0
 30
0.0
 11
275.7099999999999
 21
46.0
 31
0.0
  0
LINE
  5
251
330
1E
100
AcDbEntity
  8
0
100
AcDbLine
 10
275.7099999999999
 20
46.0
 30
0.0
 11
276.352
 21
46.0
 31
0.0
  0
LINE
  5
252
330
1E
100
AcDbEntity
  8
0
100
AcDbLine
 10
276.352
 20
46.0
 30
0.0
 11
277.0
 21
46.0
 31
0.0
  0
LINE
  5
253
330
1E
100
AcDbEntity
  8
0
100
AcDbLine
 10
274.5
 20
46.0
 30
0.0
 11
274.574
 21
46.0
 31
0.0
  0
LINE
  5
255
330
1E
100
AcDbEntity
  8
0
100
AcDbLine
 10
322.1999999999999
 20
46.0
 30
0.0
 11
323.3999999999999
 21
46.0
 31
0.0
  0
LINE
  5
256
330
1E
100
AcDbEntity
  8
0
100
AcDbLine
 10
321.0
 20
46.0
 30
0.0
 11
321.6479999999999
 21
46.0
 31
0.0
  0
LINE
  5
257
330
1E
100
AcDbEntity
  8
0
100
AcDbLine
 10
321.0
 20
46.0
 30
0.0
 11
322.1999999999999
 21
46.0
 31
0.0
  0
LINE
  5
258
330
1E
100
AcDbEntity
  8
0
100
AcDbLine
 10
321.6479999999999
 20
46.0
 30
0.0
 11
322.29
 21
46.0
 31
0.0
  0
LINE
  5
259
330
1E
100
AcDbEntity
  8
0
100
AcDbLine
 10
325.3
 20
46.0
 30
0.0
 11
325.8
 21
46.0
 31
0.0
  0
LINE
  5
25A
330
1E
100
AcDbEntity
  8
0
100
AcDbLine
 10
324.5
 20
46.0
 30
0.0
 11
325.3
 21
46.0
 31
0.0
  0
LINE
  5
25B
330
1E
100
AcDbEntity
  8
0
100
AcDbLine
 10
323.3999999999999
 20
46.0
 30
0.0
 11
324.5
 21
46.0
 31
0.0
  0
LINE
  5
25C
330
1E
100
AcDbEntity
  8
0
100
AcDbLine
 10
325.8
 20
46.0
 30
0.0
 11
326.0
 21
46.0
 31
0.0
  0
LINE
  5
25D
330
1E
100
AcDbEntity
  8
0
100
AcDbLine
 10
323.4259999999999
 20
46.0
 30
0.0
 11
323.4999999999999
 21
46.0
 31
0.0
  0
LINE
  5
25E
330
1E
100
AcDbEntity
  8
0
100
AcDbLine
 10
322.7669999999999
 20
46.0
 30
0.0
 11
323.1829999999999
 21
46.0
 31
0.0
  0
LINE
  5
25F
330
1E
100
AcDbEntity
  8
0
100
AcDbLine
 10
323.1829999999999
 20
46.0
 30
0.0
 11
323.4259999999999
 21
46.0
 31
0.0
  0
LINE
  5
260
330
1E
100
AcDbEntity
  8
0
100
AcDbLine
 10
322.29
 20
46.0
 30
0.0
 11
322.7669999999999
 21
46.0
 31
0.0
  0
LINE
  5
267
330
1E
100
AcDbEntity
  8
0
100
AcDbLine
 10
277.0
 20
46.0
 30
0.0
 11
321.0
 21
46.0
 31
0.0
  0
LINE
  5
268
330
1E
100
AcDbEntity
  8
0
100
AcDbLine
 10
250.0999999999999
 20
46.9
 30
0.0
 11
251.5
 21
46.29999999999999
 31
0.0
  0
LINE
  5
269
330
1E
100
AcDbEntity
  8
0
100
AcDbLine
 10
248.7999999999999
 20
47.8
 30
0.0
 11
250.0999999999999
 21
46.9
 31
0.0
  0
LINE
  5
26A
330
1E
100
AcDbEntity
  8
0
100
AcDbLine
 10
247.3
 20
50.5
 30
0.0
 11
247.9
 21
49.1
 31
0.0
  0
LINE
  5
26B
330
1E
100
AcDbEntity
  8
0
100
AcDbLine
 10
247.9
 20
49.1
 30
0.0
 11
248.7999999999999
 21
47.8
 31
0.0
  0
LINE
  5
273
330
1E
100
AcDbEntity
  8
0
100
AcDbLine
 10
247.0
 20
74.0
 30
0.0
 11
247.3
 21
75.5
 31
0.0
  0
LINE
  5
274
330
1E
100
AcDbEntity
  8
0
100
AcDbLine
 10
247.0
 20
74.0
 30
0.0
 11
247.0
 21
52.0
 31
0.0
  0
LINE
  5
275
330
1E
100
AcDbEntity
  8
0
100
AcDbLine
 10
247.3
 20
75.5
 30
0.0
 11
247.9
 21
76.90000000000001
 31
0.0
  0
LINE
  5
277
330
1E
100
AcDbEntity
  8
0
100
AcDbLine
 10
247.9
 20
76.90000000000001
 30
0.0
 11
248.7999999999999
 21
78.2
 31
0.0
  0
LINE
  5
27C
330
1E
100
AcDbEntity
  8
0
100
AcDbLine
 10
327.0
 20
47.0
 30
0.0
 11
327.0
 21
79.0
 31
0.0
  0
LINE
  5
27D
330
1E
100
AcDbEntity
  8
0
100
AcDbLine
 10
317.5
 20
46.0
 30
0.0
 11
317.5
 21
38.2941
 31
0.0
  0
LINE
  5
27E
330
1E
100
AcDbEntity
  8
0
100
AcDbLine
 10
186.5
 20
60.7126
 30
0.0
 11
186.5
 21
58.59709999999999
 31
0.0
  0
LINE
  5
27F
330
1E
100
AcDbEntity
  8
0
100
AcDbLine
 10
186.5
 20
60.7126
 30
0.0
 11
186.5
 21
63.0
 31
0.0
  0
LINE
  5
280
330
1E
100
AcDbEntity
  8
0
100
AcDbLine
 10
141.8
 20
76.09999999999999
 30
0.0
 11
142.5999999999999
 21
78.0
 31
0.0
  0
LINE
  5
281
330
1E
100
AcDbEntity
  8
0
100
AcDbLine
 10
248.7999999999999
 20
78.2
 30
0.0
 11
250.0999999999999
 21
79.1
 31
0.0
  0
LINE
  5
282
330
1E
100
AcDbEntity
  8
0
100
AcDbLine
 10
250.0999999999999
 20
79.1
 30
0.0
 11
251.5
 21
79.7
 31
0.0
  0
LINE
  5
285
330
1E
100
AcDbEntity
  8
0
100
AcDbLine
 10
251.5
 20
79.7
 30
0.0
 11
253.0
 21
80.0
 31
0.0
  0
LINE
  5
28D
330
1E
100
AcDbEntity
  8
0
100
AcDbLine
 10
327.0
 20
79.0
 30
0.0
 11
327.0
 21
47.0
 31
0.0
  0
LINE
  5
28E
330
1E
100
AcDbEntity
  8
0
100
AcDbLine
 10
326.6999999999999
 20
79.7
 30
0.0
 11
327.0
 21
79.0
 31
0.0
  0
LINE
  5
28F
330
1E
100
AcDbEntity
  8
0
100
AcDbLine
 10
184.6999999999999
 20
78.3
 30
0.0
 11
185.5
 21
76.4
 31
0.0
  0
LINE
  5
290
330
1E
100
AcDbEntity
  8
0
100
AcDbLine
 10
183.1999999999999
 20
79.7
 30
0.0
 11
184.4
 21
78.0
 31
0.0
  0
LINE
  5
291
330
1E
100
AcDbEntity
  8
0
100
AcDbLine
 10
253.0
 20
80.0
 30
0.0
 11
321.0
 21
80.0
 31
0.0
  0
LINE
  5
293
330
1E
100
AcDbEntity
  8
0
100
AcDbLine
 10
323.3999999999999
 20
80.0
 30
0.0
 11
324.5
 21
80.0
 31
0.0
  0
LINE
  5
294
330
1E
100
AcDbEntity
  8
0
100
AcDbLine
 10
322.1999999999999
 20
80.0
 30
0.0
 11
323.3999999999999
 21
80.0
 31
0.0
  0
LINE
  5
295
330
1E
100
AcDbEntity
  8
0
100
AcDbLine
 10
321.0
 20
80.0
 30
0.0
 11
322.1999999999999
 21
80.0
 31
0.0
  0
LINE
  5
296
330
1E
100
AcDbEntity
  8
0
100
AcDbLine
 10
324.5
 20
80.0
 30
0.0
 11
325.3
 21
80.0
 31
0.0
  0
LINE
  5
297
330
1E
100
AcDbEntity
  8
0
100
AcDbLine
 10
326.0
 20
80.0
 30
0.0
 11
326.6999999999999
 21
79.7
 31
0.0
  0
LINE
  5
298
330
1E
100
AcDbEntity
  8
0
100
AcDbLine
 10
325.3
 20
80.0
 30
0.0
 11
325.8
 21
80.0
 31
0.0
  0
LINE
  5
299
330
1E
100
AcDbEntity
  8
0
100
AcDbLine
 10
325.8
 20
80.0
 30
0.0
 11
326.0
 21
80.0
 31
0.0
  0
LINE
  5
29B
330
1E
100
AcDbEntity
  8
0
100
AcDbLine
 10
317.5
 20
80.0
 30
0.0
 11
317.5
 21
87.7059
 31
0.0
  0
LINE
  5
29C
330
1E
100
AcDbEntity
  8
0
100
AcDbLine
 10
183.4999999999999
 20
80.0
 30
0.0
 11
184.6999999999999
 21
78.3
 31
0.0
  0
LINE
  5
29D
330
1E
100
AcDbEntity
  8
0
100
AcDbLine
 10
181.7999999999999
 20
81.2
 30
0.0
 11
183.4999999999999
 21
80.0
 31
0.0
  0
LINE
  5
29E
330
1E
100
AcDbEntity
  8
0
100
AcDbLine
 10
181.4999999999999
 20
80.90000000000001
 30
0.0
 11
183.1999999999999
 21
79.7
 31
0.0
  0
LINE
  5
29F
330
1E
100
AcDbEntity
  8
0
100
AcDbLine
 10
145.5
 20
80.90000000000001
 30
0.0
 11
147.4
 21
81.69999999999999
 31
0.0
  0
LINE
  5
2A0
330
1E
100
AcDbEntity
  8
0
100
AcDbLine
 10
179.6
 20
81.69999999999999
 30
0.0
 11
181.4999999999999
 21
80.90000000000001
 31
0.0
  0
LINE
  5
2A1
330
1E
100
AcDbEntity
  8
0
100
AcDbLine
 10
177.5
 20
82.09999999999999
 30
0.0
 11
179.6
 21
81.69999999999999
 31
0.0
  0
LINE
  5
2A2
330
1E
100
AcDbEntity
  8
0
100
AcDbLine
 10
179.9
 20
82.0
 30
0.0
 11
181.7999999999999
 21
81.2
 31
0.0
  0
LINE
  5
2A3
330
1E
100
AcDbEntity
  8
0
100
AcDbLine
 10
175.1999999999999
 20
82.34999999999999
 30
0.0
 11
177.5
 21
82.09999999999999
 31
0.0
  0
LINE
  5
2A4
330
1E
100
AcDbEntity
  8
0
100
AcDbLine
 10
172.432
 20
82.5239
 30
0.0
 11
175.1999999999999
 21
82.34999999999999
 31
0.0
  0
LINE
  5
2A5
330
1E
100
AcDbEntity
  8
0
100
AcDbLine
 10
177.8
 20
82.4
 30
0.0
 11
179.9
 21
82.0
 31
0.0
  0
LINE
  5
2A6
330
1E
100
AcDbEntity
  8
0
100
AcDbLine
 10
168.877
 20
82.61409999999999
 30
0.0
 11
172.432
 21
82.5239
 31
0.0
  0
LINE
  5
2A7
330
1E
100
AcDbEntity
  8
0
100
AcDbLine
 10
165.791
 20
82.68640000000001
 30
0.0
 11
168.877
 21
82.61409999999999
 31
0.0
  0
LINE
  5
2A8
330
1E
100
AcDbEntity
  8
0
100
AcDbLine
 10
175.5
 20
82.65
 30
0.0
 11
177.8
 21
82.4
 31
0.0
  0
LINE
  5
2AB
330
1E
100
AcDbEntity
  8
0
100
AcDbLine
 10
163.4999999999999
 20
93.0
 30
0.0
 11
312.2059999999999
 21
93.0
 31
0.0
  0
LINE
  5
2AC
330
1E
100
AcDbEntity
  8
0
100
AcDbLine
 10
163.4999999999999
 20
83.0
 30
0.0
 11
165.8
 21
82.98999999999999
 31
0.0
  0
LINE
  5
2AD
330
1E
100
AcDbEntity
  8
0
100
AcDbLine
 10
165.8
 20
82.98999999999999
 30
0.0
 11
168.9
 21
82.94999999999999
 31
0.0
  0
LINE
  5
2CA
330
1E
100
AcDbEntity
  8
0
100
AcDbLine
 10
313.5819999999999
 20
92.82349999999999
 30
0.0
 11
314.218
 21
92.57649999999999
 31
0.0
  0
LINE
  5
2CB
330
1E
100
AcDbEntity
  8
0
100
AcDbLine
 10
312.912
 20
92.92939999999999
 30
0.0
 11
313.5819999999999
 21
92.82349999999999
 31
0.0
  0
LINE
  5
2E4
330
1E
100
AcDbEntity
  8
0
100
AcDbLine
 10
312.2059999999999
 20
93.0
 30
0.0
 11
312.912
 21
92.92939999999999
 31
0.0
  0
LINE
  5
2E9
330
1E
100
AcDbEntity
  8
0
100
AcDbLine
 10
315.418
 20
91.9059
 30
0.0
 11
315.947
 21
91.44710000000001
 31
0.0
  0
LINE
  5
2EA
330
1E
100
AcDbEntity
  8
0
100
AcDbLine
 10
314.853
 20
92.29409999999999
 30
0.0
 11
315.418
 21
91.9059
 31
0.0
  0
LINE
  5
2EB
330
1E
100
AcDbEntity
  8
0
100
AcDbLine
 10
314.218
 20
92.57649999999999
 30
0.0
 11
314.853
 21
92.29409999999999
 31
0.0
  0
LINE
  5
2EC
330
1E
100
AcDbEntity
  8
0
100
AcDbLine
 10
315.947
 20
91.44710000000001
 30
0.0
 11
316.406
 21
90.91759999999998
 31
0.0
  0
LINE
  5
2ED
330
1E
100
AcDbEntity
  8
0
100
AcDbLine
 10
316.406
 20
90.91759999999998
 30
0.0
 11
316.794
 21
90.35290000000001
 31
0.0
  0
LINE
  5
2EE
330
1E
100
AcDbEntity
  8
0
100
AcDbLine
 10
316.794
 20
90.35290000000001
 30
0.0
 11
317.0759999999999
 21
89.71760000000001
 31
0.0
  0
LINE
  5
2EF
330
1E
100
AcDbEntity
  8
0
100
AcDbLine
 10
317.0759999999999
 20
89.71760000000001
 30
0.0
 11
317.324
 21
89.08240000000001
 31
0.0
  0
LINE
  5
2F0
330
1E
100
AcDbEntity
  8
0
100
AcDbLine
 10
317.324
 20
89.08240000000001
 30
0.0
 11
317.429
 21
88.41169999999999
 31
0.0
  0
LINE
  5
2F1
330
1E
100
AcDbEntity
  8
0
100
AcDbLine
 10
317.429
 20
88.41169999999999
 30
0.0
 11
317.5
 21
87.7059
 31
0.0
  0
LINE
  5
2F2
330
1E
100
AcDbEntity
  8
0
100
AcDbLine
 10
317.5
 20
87.7059
 30
0.0
 11
317.5
 21
80.0
 31
0.0
  0
LINE
  5
2F3
330
1E
100
AcDbEntity
  8
0
100
AcDbLine
 10
168.9
 20
82.94999999999999
 30
0.0
 11
172.5
 21
82.85
 31
0.0
  0
LINE
  5
2F4
330
1E
100
AcDbEntity
  8
0
100
AcDbLine
 10
172.5
 20
82.85
 30
0.0
 11
175.5
 21
82.65
 31
0.0
  0
LINE
  5
2F5
330
1E
100
AcDbEntity
  8
0
100
AcDbLine
 10
163.4999999999999
 20
82.70000000000001
 30
0.0
 11
165.791
 21
82.68640000000001
 31
0.0
  0
LINE
  5
2F6
330
1E
100
AcDbEntity
  8
0
100
AcDbLine
 10
161.209
 20
82.68640000000001
 30
0.0
 11
163.4999999999999
 21
82.70000000000001
 31
0.0
  0
LINE
  5
2F7
330
1E
100
AcDbEntity
  8
0
100
AcDbLine
 10
161.1999999999999
 20
82.98999999999999
 30
0.0
 11
163.4999999999999
 21
83.0
 31
0.0
  0
LINE
  5
2F8
330
1E
100
AcDbEntity
  8
0
100
AcDbLine
 10
158.1229999999999
 20
82.61409999999999
 30
0.0
 11
161.209
 21
82.68640000000001
 31
0.0
  0
LINE
  5
2F9
330
1E
100
AcDbEntity
  8
0
100
AcDbLine
 10
158.0999999999999
 20
82.94999999999999
 30
0.0
 11
161.1999999999999
 21
82.98999999999999
 31
0.0
  0
LINE
  5
2FA
330
1E
100
AcDbEntity
  8
0
100
AcDbLine
 10
154.5679999999999
 20
82.5239
 30
0.0
 11
158.1229999999999
 21
82.61409999999999
 31
0.0
  0
LINE
  5
2FB
330
1E
100
AcDbEntity
  8
0
100
AcDbLine
 10
154.4999999999999
 20
82.85
 30
0.0
 11
158.0999999999999
 21
82.94999999999999
 31
0.0
  0
LINE
  5
2FC
330
1E
100
AcDbEntity
  8
0
100
AcDbLine
 10
151.8
 20
82.34999999999999
 30
0.0
 11
154.5679999999999
 21
82.5239
 31
0.0
  0
LINE
  5
2FD
330
1E
100
AcDbEntity
  8
0
100
AcDbLine
 10
151.5
 20
82.65
 30
0.0
 11
154.4999999999999
 21
82.85
 31
0.0
  0
LINE
  5
2FE
330
1E
100
AcDbEntity
  8
0
100
AcDbLine
 10
149.5
 20
82.09999999999999
 30
0.0
 11
151.8
 21
82.34999999999999
 31
0.0
  0
LINE
  5
2FF
330
1E
100
AcDbEntity
  8
0
100
AcDbLine
 10
149.1999999999999
 20
82.4
 30
0.0
 11
151.5
 21
82.65
 31
0.0
  0
LINE
  5
300
330
1E
100
AcDbEntity
  8
0
100
AcDbLine
 10
147.4
 20
81.69999999999999
 30
0.0
 11
149.5
 21
82.09999999999999
 31
0.0
  0
LINE
  5
301
330
1E
100
AcDbEntity
  8
0
100
AcDbLine
 10
147.0999999999999
 20
82.0
 30
0.0
 11
149.1999999999999
 21
82.4
 31
0.0
  0
LINE
  5
302
330
1E
100
AcDbEntity
  8
0
100
AcDbLine
 10
145.1999999999999
 20
81.2
 30
0.0
 11
147.0999999999999
 21
82.0
 31
0.0
  0
LINE
  5
303
330
1E
100
AcDbEntity
  8
0
100
AcDbLine
 10
143.5
 20
80.0
 30
0.0
 11
145.1999999999999
 21
81.2
 31
0.0
  0
LINE
  5
304
330
1E
100
AcDbEntity
  8
0
100
AcDbLine
 10
143.8
 20
79.7
 30
0.0
 11
145.5
 21
80.90000000000001
 31
0.0
  0
LINE
  5
305
330
1E
100
AcDbEntity
  8
0
100
AcDbLine
 10
142.3
 20
78.3
 30
0.0
 11
143.5
 21
80.0
 31
0.0
  0
LINE
  5
306
330
1E
100
AcDbEntity
  8
0
100
AcDbLine
 10
142.5999999999999
 20
78.0
 30
0.0
 11
143.8
 21
79.7
 31
0.0
  0
LINE
  5
307
330
1E
100
AcDbEntity
  8
0
100
AcDbLine
 10
140.8
 20
54.9229
 30
0.0
 11
140.8
 21
21.9446
 31
0.0
  0
LINE
  5
308
330
1E
100
AcDbEntity
  8
0
100
AcDbLine
 10
140.8
 20
54.9229
 30
0.0
 11
140.8
 21
57.1555
 31
0.0
  0
LINE
  5
309
330
1E
100
AcDbEntity
  8
0
100
AcDbLine
 10
140.8
 20
21.9446
 30
0.0
 11
140.8
 21
54.9229
 31
0.0
  0
LINE
  5
30A
330
1E
100
AcDbEntity
  8
0
100
AcDbLine
 10
140.8
 20
21.9446
 30
0.0
 11
140.8139999999999
 21
20.7989
 31
0.0
  0
LINE
  5
30B
330
1E
100
AcDbEntity
  8
0
100
AcDbLine
 10
140.5
 20
20.47239999999999
 30
0.0
 11
140.5081838758389
 21
20.3972542785299
 31
0.0
  0
LINE
  5
30C
330
1E
100
AcDbEntity
  8
0
100
AcDbLine
 10
140.5
 20
20.47239999999999
 30
0.0
 11
140.51
 21
19.3224
 31
0.0
  0
LINE
  5
30D
330
1E
100
AcDbEntity
  8
0
100
AcDbLine
 10
140.5
 20
20.47239999999999
 30
0.0
 11
140.508183902881
 21
20.3972511687231
 31
0.0
  0
LINE
  5
30E
330
1E
100
AcDbEntity
  8
0
100
AcDbLine
 10
140.5
 20
20.47239999999999
 30
0.0
 11
140.5
 21
21.3384
 31
0.0
  0
LINE
  5
313
330
1E
100
AcDbEntity
  8
0
100
AcDbLine
 10
2.5
 20
46.0
 30
0.0
 11
1.7
 21
46.0
 31
0.0
  0
LINE
  5
314
330
1E
100
AcDbEntity
  8
0
100
AcDbLine
 10
1.7
 20
46.0
 30
0.0
 11
1.0
 21
46.0
 31
0.0
  0
LINE
  5
315
330
1E
100
AcDbEntity
  8
0
100
AcDbLine
 10
1.0
 20
46.0
 30
0.0
 11
0.3
 21
46.29999999999999
 31
0.0
  0
LINE
  5
316
330
1E
100
AcDbEntity
  8
0
100
AcDbLine
 10
11.5823
 20
34.09409999999999
 30
0.0
 11
12.15082749485554
 21
33.7321860917936
 31
0.0
  0
LINE
  5
317
330
1E
100
AcDbEntity
  8
0
100
AcDbLine
 10
12.15082749485554
 20
33.7321860917936
 30
0.0
 11
12.78229999999999
 21
33.42349999999999
 31
0.0
  0
LINE
  5
318
330
1E
100
AcDbEntity
  8
0
100
AcDbLine
 10
74.0
 20
46.0
 30
0.0
 11
75.4751977580728
 21
46.21796045717411
 31
0.0
  0
LINE
  5
319
330
1E
100
AcDbEntity
  8
0
100
AcDbLine
 10
75.4751977580728
 20
46.21796045717411
 30
0.0
 11
77.08713503641593
 21
46.95415931271151
 31
0.0
  0
LINE
  5
31A
330
1E
100
AcDbEntity
  8
0
100
AcDbLine
 10
77.08713503641593
 20
46.95415931271151
 30
0.0
 11
78.17599279927652
 21
47.87174053996489
 31
0.0
  0
LINE
  5
31B
330
1E
100
AcDbEntity
  8
0
100
AcDbLine
 10
78.17599279927652
 20
47.87174053996489
 30
0.0
 11
79.08337465022725
 21
49.13074777330343
 31
0.0
  0
LINE
  5
31C
330
1E
100
AcDbEntity
  8
0
100
AcDbLine
 10
79.08337465022725
 20
49.13074777330343
 30
0.0
 11
79.69185468470266
 21
50.49644985747653
 31
0.0
  0
LINE
  5
31D
330
1E
100
AcDbEntity
  8
0
100
AcDbLine
 10
79.69185468470266
 20
50.49644985747653
 30
0.0
 11
79.90535598218503
 21
51.9688479565848
 31
0.0
  0
LINE
  5
31E
330
1E
100
AcDbEntity
  8
0
100
AcDbLine
 10
79.90535598218503
 20
51.9688479565848
 30
0.0
 11
80.0
 21
74.0
 31
0.0
  0
LINE
  5
31F
330
1E
100
AcDbEntity
  8
0
100
AcDbLine
 10
143.3479999999999
 20
5.941630000000009
 30
0.0
 11
142.312
 21
7.278520000000009
 31
0.0
  0
LINE
  5
320
330
1E
100
AcDbEntity
  8
0
100
AcDbLine
 10
183.652
 20
5.941630000000009
 30
0.0
 11
184.6879999999999
 21
7.278520000000009
 31
0.0
  0
LINE
  5
321
330
1E
100
AcDbEntity
  8
0
100
AcDbLine
 10
174.23350671253
 20
3.47226038268522
 30
0.0
 11
152.7664932874699
 21
3.47226038268521
 31
0.0
  0
LINE
  5
322
330
1E
100
AcDbEntity
  8
0
100
AcDbLine
 10
312.912
 20
33.07059999999999
 30
0.0
 11
313.7400732687676
 21
33.25580359214063
 31
0.0
  0
LINE
  5
323
330
1E
100
AcDbEntity
  8
0
100
AcDbLine
 10
313.7400732687676
 20
33.25580359214063
 30
0.0
 11
314.3683998919696
 21
33.49236005689943
 31
0.0
  0
LINE
  5
324
330
1E
100
AcDbEntity
  8
0
100
AcDbLine
 10
314.3683998919696
 20
33.49236005689943
 30
0.0
 11
314.8614811480527
 21
33.74018152172942
 31
0.0
  0
LINE
  5
325
330
1E
100
AcDbEntity
  8
0
100
AcDbLine
 10
314.8614811480527
 20
33.74018152172942
 30
0.0
 11
315.4306384482529
 21
34.15133947307299
 31
0.0
  0
LINE
  5
326
330
1E
100
AcDbEntity
  8
0
100
AcDbLine
 10
315.4306384482529
 20
34.15133947307299
 30
0.0
 11
315.9054045353444
 21
34.5681293424019
 31
0.0
  0
LINE
  5
327
330
1E
100
AcDbEntity
  8
0
100
AcDbLine
 10
315.9054045353444
 20
34.5681293424019
 30
0.0
 11
316.3843982574653
 21
35.08911706709659
 31
0.0
  0
LINE
  5
328
330
1E
100
AcDbEntity
  8
0
100
AcDbLine
 10
316.3843982574653
 20
35.08911706709659
 30
0.0
 11
316.7647754228495
 21
35.66642785197984
 31
0.0
  0
LINE
  5
329
330
1E
100
AcDbEntity
  8
0
100
AcDbLine
 10
316.7647754228495
 20
35.66642785197984
 30
0.0
 11
317.0549897739548
 21
36.27189977892402
 31
0.0
  0
LINE
  5
32A
330
1E
100
AcDbEntity
  8
0
100
AcDbLine
 10
317.0549897739548
 20
36.27189977892402
 30
0.0
 11
317.269128080943
 21
36.96467264317726
 31
0.0
  0
LINE
  5
32B
330
1E
100
AcDbEntity
  8
0
100
AcDbLine
 10
317.269128080943
 20
36.96467264317726
 30
0.0
 11
317.429
 21
37.58829999999999
 31
0.0
  0
LINE
  5
32C
330
1E
100
AcDbEntity
  8
0
100
AcDbLine
 10
326.0
 20
46.0
 30
0.0
 11
326.6999999999999
 21
46.29999999999999
 31
0.0
  0
LINE
  5
32D
330
1E
100
AcDbEntity
  8
0
100
AcDbLine
 10
326.6999999999999
 20
46.29999999999999
 30
0.0
 11
327.0
 21
47.0
 31
0.0
  0
ENDSEC
  0
SECTION
  2
OBJECTS
  0
DICTIONARY
  5
C
330
0
100
AcDbDictionary
281
     1
  3
ACAD_GROUP
350
D
  3
ACAD_LAYOUT
350
19
  3
ACAD_MLINESTYLE
350
16
  3
ACAD_PLOTSETTINGS
350
18
  3
ACAD_PLOTSTYLENAME
350
E
  3
AcDbVariableDictionary
350
32E
  0
DICTIONARY
  5
D
102
{ACAD_REACTORS
330
C
102
}
330
C
100
AcDbDictionary
281
     1
  0
DICTIONARY
  5
19
102
{ACAD_REACTORS
330
C
102
}
330
C
100
AcDbDictionary
281
     1
  3
Layout1
350
1D
  3
Model
350
21
  0
DICTIONARY
  5
16
102
{ACAD_REACTORS
330
C
102
}
330
C
100
AcDbDictionary
281
     1
  3
Standard
350
17
  0
DICTIONARY
  5
18
102
{ACAD_REACTORS
330
C
102
}
330
C
100
AcDbDictionary
281
     1
  0
ACDBDICTIONARYWDFLT
  5
E
102
{ACAD_REACTORS
330
C
102
}
330
C
100
AcDbDictionary
281
     1
  3
Normal
350
F
100
AcDbDictionaryWithDefault
340
F
  0
DICTIONARY
  5
32E
102
{ACAD_REACTORS
330
C
102
}
330
C
100
AcDbDictionary
281
     1
  3
DIMASSOC
350
32F
  0
LAYOUT
  5
1D
102
{ACAD_REACTORS
330
19
102
}
330
19
100
AcDbPlotSettings
  1

  2
hp deskjet 980c series
  4

  6

 40
0.0
 41
0.0
 42
0.0
 43
0.0
 44
0.0
 45
0.0
 46
0.0
 47
0.0
 48
0.0
 49
0.0
140
0.0
141
0.0
142
1.0
143
1.0
 70
   688
 72
     0
 73
     0
 74
     5
  7

 75
    16
147
1.0
148
0.0
149
0.0
100
AcDbLayout
  1
Layout1
 70
     1
 71
     1
 10
0.0
 20
0.0
 11
12.0
 21
9.0
 12
0.0
 22
0.0
 32
0.0
 14
1.000000000000000E+20
 24
1.000000000000000E+20
 34
1.000000000000000E+20
 15
-1.000000000000000E+20
 25
-1.000000000000000E+20
 35
-1.000000000000000E+20
146
0.0
 13
0.0
 23
0.0
 33
0.0
 16
1.0
 26
0.0
 36
0.0
 17
0.0
 27
1.0
 37
0.0
 76
     0
330
1A
  0
LAYOUT
  5
21
102
{ACAD_REACTORS
330
19
102
}
330
19
100
AcDbPlotSettings
  1

  2
hp deskjet 980c series
  4

  6

 40
0.0
 41
0.0
 42
0.0
 43
0.0
 44
0.0
 45
0.0
 46
0.0
 47
0.0
 48
0.0
 49
0.0
140
0.0
141
0.0
142
1.0
143
1.0
 70
  1712
 72
     0
 73
     0
 74
     0
  7

 75
     0
147
1.0
148
0.0
149
0.0
100
AcDbLayout
  1
Model
 70
     1
 71
     0
 10
0.0
 20
0.0
 11
12.0
 21
9.0
 12
0.0
 22
0.0
 32
0.0
 14
0.0
 24
0.0
 34
0.0
 15
0.0
 25
0.0
 35
0.0
146
0.0
 13
0.0
 23
0.0
 33
0.0
 16
1.0
 26
0.0
 36
0.0
 17
0.0
 27
1.0
 37
0.0
 76
     0
330
1E
  0
MLINESTYLE
  5
17
102
{ACAD_REACTORS
330
16
102
}
330
16
100
AcDbMlineStyle
  2
STANDARD
 70
     0
  3

 62
   256
 51
90.0
 52
90.0
 71
     2
 49
0.5
 62
   256
  6
BYLAYER
 49
-0.5
 62
   256
  6
BYLAYER
  0
ACDBPLACEHOLDER
  5
F
102
{ACAD_REACTORS
330
E
102
}
330
E
  0
DICTIONARYVAR
  5
32F
102
{ACAD_REACTORS
330
32E
102
}
330
32E
100
DictionaryVariables
280
     0
  1
1
  0
ENDSEC
  0
EOF
