  0
SECTION
  2
HEADER
  9
$ACADVER
  1
AC1015
  9
$ACADMAINTVER
 70
    13
  9
$DWGCODEPAGE
  3
ANSI_1252
  9
$INSBASE
 10
0.0
 20
0.0
 30
0.0
  9
$EXTMIN
 10
-0.249910500000002
 20
-0.0000000000000065
 30
0.0
  9
$EXTMAX
 10
24.2499105
 20
185.0
 30
0.0
  9
$LIMMIN
 10
0.0
 20
0.0
  9
$LIMMAX
 10
12.0
 20
9.0
  9
$ORTHOMODE
 70
     0
  9
$REGENMODE
 70
     1
  9
$FILLMODE
 70
     1
  9
$QTEXTMODE
 70
     0
  9
$MIRRTEXT
 70
     1
  9
$LTSCALE
 40
1.0
  9
$ATTMODE
 70
     1
  9
$TEXTSIZE
 40
0.2
  9
$TRACEWID
 40
0.05
  9
$TEXTSTYLE
  7
Standard
  9
$CLAYER
  8
0
  9
$CELTYPE
  6
Continuous
  9
$CECOLOR
 62
   256
  9
$CELTSCALE
 40
1.0
  9
$DISPSILH
 70
     0
  9
$DIMSCALE
 40
1.0
  9
$DIMASZ
 40
0.18
  9
$DIMEXO
 40
0.0625
  9
$DIMDLI
 40
0.38
  9
$DIMRND
 40
0.0
  9
$DIMDLE
 40
0.0
  9
$DIMEXE
 40
0.18
  9
$DIMTP
 40
0.0
  9
$DIMTM
 40
0.0
  9
$DIMTXT
 40
0.18
  9
$DIMCEN
 40
0.09
  9
$DIMTSZ
 40
0.0
  9
$DIMTOL
 70
     0
  9
$DIMLIM
 70
     0
  9
$DIMTIH
 70
     1
  9
$DIMTOH
 70
     1
  9
$DIMSE1
 70
     0
  9
$DIMSE2
 70
     0
  9
$DIMTAD
 70
     0
  9
$DIMZIN
 70
     0
  9
$DIMBLK
  1

  9
$DIMASO
 70
     1
  9
$DIMSHO
 70
     1
  9
$DIMPOST
  1

  9
$DIMAPOST
  1

  9
$DIMALT
 70
     0
  9
$DIMALTD
 70
     2
  9
$DIMALTF
 40
25.4
  9
$DIMLFAC
 40
1.0
  9
$DIMTOFL
 70
     0
  9
$DIMTVP
 40
0.0
  9
$DIMTIX
 70
     0
  9
$DIMSOXD
 70
     0
  9
$DIMSAH
 70
     0
  9
$DIMBLK1
  1

  9
$DIMBLK2
  1

  9
$DIMSTYLE
  2
Standard
  9
$DIMCLRD
 70
     0
  9
$DIMCLRE
 70
     0
  9
$DIMCLRT
 70
     0
  9
$DIMTFAC
 40
1.0
  9
$DIMGAP
 40
0.09
  9
$DIMJUST
 70
     0
  9
$DIMSD1
 70
     0
  9
$DIMSD2
 70
     0
  9
$DIMTOLJ
 70
     1
  9
$DIMTZIN
 70
     0
  9
$DIMALTZ
 70
     0
  9
$DIMALTTZ
 70
     0
  9
$DIMUPT
 70
     0
  9
$DIMDEC
 70
     4
  9
$DIMTDEC
 70
     4
  9
$DIMALTU
 70
     2
  9
$DIMALTTD
 70
     2
  9
$DIMTXSTY
  7
Standard
  9
$DIMAUNIT
 70
     0
  9
$DIMADEC
 70
     0
  9
$DIMALTRND
 40
0.0
  9
$DIMAZIN
 70
     0
  9
$DIMDSEP
 70
    46
  9
$DIMATFIT
 70
     3
  9
$DIMFRAC
 70
     0
  9
$DIMLDRBLK
  1

  9
$DIMLUNIT
 70
     2
  9
$DIMLWD
 70
    -2
  9
$DIMLWE
 70
    -2
  9
$DIMTMOVE
 70
     0
  9
$LUNITS
 70
     2
  9
$LUPREC
 70
     4
  9
$SKETCHINC
 40
0.1
  9
$FILLETRAD
 40
0.0
  9
$AUNITS
 70
     0
  9
$AUPREC
 70
     0
  9
$MENU
  1
.
  9
$ELEVATION
 40
0.0
  9
$PELEVATION
 40
0.0
  9
$THICKNESS
 40
0.0
  9
$LIMCHECK
 70
     0
  9
$CHAMFERA
 40
0.0
  9
$CHAMFERB
 40
0.0
  9
$CHAMFERC
 40
0.0
  9
$CHAMFERD
 40
0.0
  9
$SKPOLY
 70
     0
  9
$TDCREATE
 40
2454745.702429109
  9
$TDUCREATE
 40
2454745.619095775
  9
$TDUPDATE
 40
2454745.705958657
  9
$TDUUPDATE
 40
2454745.622625324
  9
$TDINDWG
 40
0.0035297222
  9
$TDUSRTIMER
 40
0.0035297222
  9
$USRTIMER
 70
     1
  9
$ANGBASE
 50
0.0
  9
$ANGDIR
 70
     0
  9
$PDMODE
 70
     0
  9
$PDSIZE
 40
0.0
  9
$PLINEWID
 40
0.0
  9
$SPLFRAME
 70
     0
  9
$SPLINETYPE
 70
     6
  9
$SPLINESEGS
 70
     8
  9
$HANDSEED
  5
25D
  9
$SURFTAB1
 70
     6
  9
$SURFTAB2
 70
     6
  9
$SURFTYPE
 70
     6
  9
$SURFU
 70
     6
  9
$SURFV
 70
     6
  9
$UCSBASE
  2

  9
$UCSNAME
  2

  9
$UCSORG
 10
0.0
 20
0.0
 30
0.0
  9
$UCSXDIR
 10
1.0
 20
0.0
 30
0.0
  9
$UCSYDIR
 10
0.0
 20
1.0
 30
0.0
  9
$UCSORTHOREF
  2

  9
$UCSORTHOVIEW
 70
     1
  9
$UCSORGTOP
 10
0.0
 20
0.0
 30
0.0
  9
$UCSORGBOTTOM
 10
0.0
 20
0.0
 30
0.0
  9
$UCSORGLEFT
 10
0.0
 20
0.0
 30
0.0
  9
$UCSORGRIGHT
 10
0.0
 20
0.0
 30
0.0
  9
$UCSORGFRONT
 10
0.0
 20
0.0
 30
0.0
  9
$UCSORGBACK
 10
0.0
 20
0.0
 30
0.0
  9
$PUCSBASE
  2

  9
$PUCSNAME
  2

  9
$PUCSORG
 10
0.0
 20
0.0
 30
0.0
  9
$PUCSXDIR
 10
1.0
 20
0.0
 30
0.0
  9
$PUCSYDIR
 10
0.0
 20
1.0
 30
0.0
  9
$PUCSORTHOREF
  2

  9
$PUCSORTHOVIEW
 70
     0
  9
$PUCSORGTOP
 10
0.0
 20
0.0
 30
0.0
  9
$PUCSORGBOTTOM
 10
0.0
 20
0.0
 30
0.0
  9
$PUCSORGLEFT
 10
0.0
 20
0.0
 30
0.0
  9
$PUCSORGRIGHT
 10
0.0
 20
0.0
 30
0.0
  9
$PUCSORGFRONT
 10
0.0
 20
0.0
 30
0.0
  9
$PUCSORGBACK
 10
0.0
 20
0.0
 30
0.0
  9
$USERI1
 70
     0
  9
$USERI2
 70
     0
  9
$USERI3
 70
     0
  9
$USERI4
 70
     0
  9
$USERI5
 70
     0
  9
$USERR1
 40
0.0
  9
$USERR2
 40
0.0
  9
$USERR3
 40
0.0
  9
$USERR4
 40
0.0
  9
$USERR5
 40
0.0
  9
$WORLDVIEW
 70
     1
  9
$SHADEDGE
 70
     3
  9
$SHADEDIF
 70
    70
  9
$TILEMODE
 70
     1
  9
$MAXACTVP
 70
    64
  9
$PINSBASE
 10
0.0
 20
0.0
 30
0.0
  9
$PLIMCHECK
 70
     0
  9
$PEXTMIN
 10
1.000000000000000E+20
 20
1.000000000000000E+20
 30
1.000000000000000E+20
  9
$PEXTMAX
 10
-1.000000000000000E+20
 20
-1.000000000000000E+20
 30
-1.000000000000000E+20
  9
$PLIMMIN
 10
0.0
 20
0.0
  9
$PLIMMAX
 10
12.0
 20
9.0
  9
$UNITMODE
 70
     0
  9
$VISRETAIN
 70
     1
  9
$PLINEGEN
 70
     0
  9
$PSLTSCALE
 70
     1
  9
$TREEDEPTH
 70
  3020
  9
$CMLSTYLE
  2
Standard
  9
$CMLJUST
 70
     0
  9
$CMLSCALE
 40
1.0
  9
$PROXYGRAPHICS
 70
     1
  9
$MEASUREMENT
 70
     0
  9
$CELWEIGHT
370
    -1
  9
$ENDCAPS
280
     0
  9
$JOINSTYLE
280
     0
  9
$LWDISPLAY
290
     0
  9
$INSUNITS
 70
     0
  9
$HYPERLINKBASE
  1

  9
$STYLESHEET
  1

  9
$XEDIT
290
     1
  9
$CEPSNTYPE
380
     0
  9
$PSTYLEMODE
290
     1
  9
$FINGERPRINTGUID
  2
{F2BDF989-FAB3-4861-B761-074F781DFA9B}
  9
$VERSIONGUID
  2
{AD0F8712-7A39-4644-97DD-7E89518A3B0A}
  9
$EXTNAMES
290
     1
  9
$PSVPSCALE
 40
0.0
  9
$OLESTARTUP
290
     0
  0
ENDSEC
  0
SECTION
  2
CLASSES
  0
CLASS
  1
ACDBDICTIONARYWDFLT
  2
AcDbDictionaryWithDefault
  3
AutoCAD 2000
 90
        0
280
     0
281
     0
  0
CLASS
  1
ACDBPLACEHOLDER
  2
AcDbPlaceHolder
  3
AutoCAD 2000
 90
        0
280
     0
281
     0
  0
CLASS
  1
LAYOUT
  2
AcDbLayout
  3
AutoCAD 2000
 90
        0
280
     0
281
     0
  0
CLASS
  1
DICTIONARYVAR
  2
AcDbDictionaryVar
  3
AutoCAD 2000
 90
        0
280
     0
281
     0
  0
ENDSEC
  0
SECTION
  2
TABLES
  0
TABLE
  2
VPORT
  5
8
330
0
100
AcDbSymbolTable
 70
     2
  0
VPORT
  5
25C
330
8
100
AcDbSymbolTableRecord
100
AcDbViewportTableRecord
  2
*Active
 70
     0
 10
0.0
 20
0.0
 11
1.0
 21
1.0
 12
12.0
 22
92.5
 13
0.0
 23
0.0
 14
1.0
 24
1.0
 15
0.0
 25
0.0
 16
0.0
 26
0.0
 36
1.0
 17
0.0
 27
0.0
 37
0.0
 40
186.4194373401534
 41
2.078104993597951
 42
50.0
 43
0.0
 44
0.0
 50
0.0
 51
0.0
 71
     0
 72
   100
 73
     1
 74
     3
 75
     0
 76
     0
 77
     0
 78
     0
281
     0
 65
     1
110
0.0
120
0.0
130
0.0
111
1.0
121
0.0
131
0.0
112
0.0
122
1.0
132
0.0
 79
     1
146
0.0
  0
ENDTAB
  0
TABLE
  2
LTYPE
  5
5
330
0
100
AcDbSymbolTable
 70
     1
  0
LTYPE
  5
13
330
5
100
AcDbSymbolTableRecord
100
AcDbLinetypeTableRecord
  2
ByBlock
 70
     0
  3

 72
    65
 73
     0
 40
0.0
  0
LTYPE
  5
14
330
5
100
AcDbSymbolTableRecord
100
AcDbLinetypeTableRecord
  2
ByLayer
 70
     0
  3

 72
    65
 73
     0
 40
0.0
  0
LTYPE
  5
15
330
5
100
AcDbSymbolTableRecord
100
AcDbLinetypeTableRecord
  2
Continuous
 70
     0
  3
Solid line
 72
    65
 73
     0
 40
0.0
  0
ENDTAB
  0
TABLE
  2
LAYER
  5
2
330
0
100
AcDbSymbolTable
 70
     1
  0
LAYER
  5
10
330
2
100
AcDbSymbolTableRecord
100
AcDbLayerTableRecord
  2
0
 70
     0
 62
     7
  6
Continuous
370
    -3
390
F
  0
ENDTAB
  0
TABLE
  2
STYLE
  5
3
330
0
100
AcDbSymbolTable
 70
     1
  0
STYLE
  5
11
330
3
100
AcDbSymbolTableRecord
100
AcDbTextStyleTableRecord
  2
Standard
 70
     0
 40
0.0
 41
1.0
 50
0.0
 71
     0
 42
0.2
  3
txt
  4

  0
ENDTAB
  0
TABLE
  2
VIEW
  5
6
330
0
100
AcDbSymbolTable
 70
     0
  0
ENDTAB
  0
TABLE
  2
UCS
  5
7
330
0
100
AcDbSymbolTable
 70
     0
  0
ENDTAB
  0
TABLE
  2
APPID
  5
9
330
0
100
AcDbSymbolTable
 70
     1
  0
APPID
  5
12
330
9
100
AcDbSymbolTableRecord
100
AcDbRegAppTableRecord
  2
ACAD
 70
     0
  0
ENDTAB
  0
TABLE
  2
DIMSTYLE
  5
A
330
0
100
AcDbSymbolTable
 70
     1
100
AcDbDimStyleTable
 71
     0
  0
DIMSTYLE
105
256
330
A
100
AcDbSymbolTableRecord
100
AcDbDimStyleTableRecord
  2
Standard
 70
     0
340
11
  0
ENDTAB
  0
TABLE
  2
BLOCK_RECORD
  5
1
330
0
100
AcDbSymbolTable
 70
     0
  0
BLOCK_RECORD
  5
1E
330
1
100
AcDbSymbolTableRecord
100
AcDbBlockTableRecord
  2
*Model_Space
340
21
  0
BLOCK_RECORD
  5
1A
330
1
100
AcDbSymbolTableRecord
100
AcDbBlockTableRecord
  2
*Paper_Space
340
1D
  0
ENDTAB
  0
ENDSEC
  0
SECTION
  2
BLOCKS
  0
BLOCK
  5
1F
330
1E
100
AcDbEntity
  8
0
100
AcDbBlockBegin
  2
*Model_Space
 70
     0
 10
0.0
 20
0.0
 30
0.0
  3
*Model_Space
  1

  0
ENDBLK
  5
20
330
1E
100
AcDbEntity
  8
0
100
AcDbBlockEnd
  0
BLOCK
  5
1B
330
1A
100
AcDbEntity
 67
     1
  8
0
100
AcDbBlockBegin
  2
*Paper_Space
 70
     0
 10
0.0
 20
0.0
 30
0.0
  3
*Paper_Space
  1

  0
ENDBLK
  5
1C
330
1A
100
AcDbEntity
 67
     1
  8
0
100
AcDbBlockEnd
  0
ENDSEC
  0
SECTION
  2
ENTITIES
  0
LINE
  5
22
330
1E
100
AcDbEntity
  8
0
100
AcDbLine
 10
-0.249910500000002
 20
95.00020000000001
 30
0.0
 11
0.2499104999999981
 21
95.00025917156191
 31
0.0
  0
LINE
  5
23
330
1E
100
AcDbEntity
  8
0
100
AcDbLine
 10
-0.2499104999999981
 20
163.0
 30
0.0
 11
0.249910500000002
 21
163.0
 31
0.0
  0
LINE
  5
24
330
1E
100
AcDbEntity
  8
0
100
AcDbLine
 10
-0.2499104999999981
 20
163.0
 30
0.0
 11
-0.249904499999998
 21
162.5
 31
0.0
  0
LINE
  5
25
330
1E
100
AcDbEntity
  8
0
100
AcDbLine
 10
-0.2499104999999981
 20
163.0
 30
0.0
 11
0.249910500000002
 21
163.0
 31
0.0
  0
LINE
  5
26
330
1E
100
AcDbEntity
  8
0
100
AcDbLine
 10
-0.2499104999999981
 20
156.1999999999999
 30
0.0
 11
0.249910500000002
 21
156.1999999999999
 31
0.0
  0
LINE
  5
27
330
1E
100
AcDbEntity
  8
0
100
AcDbLine
 10
-0.2499104999999981
 20
156.1999999999999
 30
0.0
 11
0.249910500000002
 21
156.1999999999999
 31
0.0
  0
LINE
  5
28
330
1E
100
AcDbEntity
  8
0
100
AcDbLine
 10
-0.2499104999999981
 20
156.1999999999999
 30
0.0
 11
-0.249904499999998
 21
155.6999999999999
 31
0.0
  0
LINE
  5
29
330
1E
100
AcDbEntity
  8
0
100
AcDbLine
 10
-0.249910499999999
 20
149.3999999999999
 30
0.0
 11
0.249910500000001
 21
149.3999999999999
 31
0.0
  0
LINE
  5
2A
330
1E
100
AcDbEntity
  8
0
100
AcDbLine
 10
-0.249910499999999
 20
149.3999999999999
 30
0.0
 11
-0.249904499999999
 21
148.9
 31
0.0
  0
LINE
  5
2B
330
1E
100
AcDbEntity
  8
0
100
AcDbLine
 10
-0.249910499999999
 20
149.3999999999999
 30
0.0
 11
0.249910500000001
 21
149.3999999999999
 31
0.0
  0
LINE
  5
2C
330
1E
100
AcDbEntity
  8
0
100
AcDbLine
 10
-0.249910499999999
 20
142.5999999999999
 30
0.0
 11
0.249910500000001
 21
142.5999999999999
 31
0.0
  0
LINE
  5
2D
330
1E
100
AcDbEntity
  8
0
100
AcDbLine
 10
-0.249910499999999
 20
142.5999999999999
 30
0.0
 11
0.249910500000001
 21
142.5999999999999
 31
0.0
  0
LINE
  5
2E
330
1E
100
AcDbEntity
  8
0
100
AcDbLine
 10
-0.249910499999999
 20
142.5999999999999
 30
0.0
 11
-0.249904499999999
 21
142.1
 31
0.0
  0
LINE
  5
2F
330
1E
100
AcDbEntity
  8
0
100
AcDbLine
 10
-0.249910499999999
 20
135.8
 30
0.0
 11
0.2499105
 21
135.8
 31
0.0
  0
LINE
  5
30
330
1E
100
AcDbEntity
  8
0
100
AcDbLine
 10
-0.2499105
 20
135.8
 30
0.0
 11
-0.2499045
 21
135.3
 31
0.0
  0
LINE
  5
31
330
1E
100
AcDbEntity
  8
0
100
AcDbLine
 10
-0.2499105
 20
135.8
 30
0.0
 11
0.2499105
 21
135.8
 31
0.0
  0
LINE
  5
32
330
1E
100
AcDbEntity
  8
0
100
AcDbLine
 10
-0.2499105
 20
129.0
 30
0.0
 11
0.2499105
 21
129.0
 31
0.0
  0
LINE
  5
33
330
1E
100
AcDbEntity
  8
0
100
AcDbLine
 10
-0.2499105
 20
129.0
 30
0.0
 11
-0.2499045
 21
128.4999999999999
 31
0.0
  0
LINE
  5
34
330
1E
100
AcDbEntity
  8
0
100
AcDbLine
 10
-0.2499105
 20
129.0
 30
0.0
 11
0.2499105
 21
129.0
 31
0.0
  0
LINE
  5
35
330
1E
100
AcDbEntity
  8
0
100
AcDbLine
 10
-0.2499105
 20
122.1999999999999
 30
0.0
 11
0.2499105
 21
122.1999999999999
 31
0.0
  0
LINE
  5
36
330
1E
100
AcDbEntity
  8
0
100
AcDbLine
 10
-0.2499105
 20
122.1999999999999
 30
0.0
 11
0.2499105
 21
122.1999999999999
 31
0.0
  0
LINE
  5
37
330
1E
100
AcDbEntity
  8
0
100
AcDbLine
 10
-0.2499105
 20
122.1999999999999
 30
0.0
 11
-0.2499045
 21
121.7
 31
0.0
  0
LINE
  5
38
330
1E
100
AcDbEntity
  8
0
100
AcDbLine
 10
-0.249910500000001
 20
115.4
 30
0.0
 11
0.249910499999999
 21
115.4
 31
0.0
  0
LINE
  5
39
330
1E
100
AcDbEntity
  8
0
100
AcDbLine
 10
-0.249910500000001
 20
115.4
 30
0.0
 11
-0.249904500000001
 21
114.9
 31
0.0
  0
LINE
  5
3A
330
1E
100
AcDbEntity
  8
0
100
AcDbLine
 10
-0.249910500000001
 20
115.4
 30
0.0
 11
0.249910499999999
 21
115.4
 31
0.0
  0
LINE
  5
3B
330
1E
100
AcDbEntity
  8
0
100
AcDbLine
 10
-0.249910500000001
 20
108.6
 30
0.0
 11
0.249910499999999
 21
108.6
 31
0.0
  0
LINE
  5
3C
330
1E
100
AcDbEntity
  8
0
100
AcDbLine
 10
-0.249910500000001
 20
108.6
 30
0.0
 11
0.249910499999999
 21
108.6
 31
0.0
  0
LINE
  5
3D
330
1E
100
AcDbEntity
  8
0
100
AcDbLine
 10
-0.249910500000001
 20
108.6
 30
0.0
 11
-0.249904500000001
 21
108.0999999999999
 31
0.0
  0
LINE
  5
3E
330
1E
100
AcDbEntity
  8
0
100
AcDbLine
 10
-0.249910500000002
 20
101.8
 30
0.0
 11
0.2499104999999981
 21
101.8
 31
0.0
  0
LINE
  5
3F
330
1E
100
AcDbEntity
  8
0
100
AcDbLine
 10
-0.249910500000002
 20
101.8
 30
0.0
 11
0.2499104999999981
 21
101.8
 31
0.0
  0
LINE
  5
40
330
1E
100
AcDbEntity
  8
0
100
AcDbLine
 10
-0.249910500000002
 20
101.8
 30
0.0
 11
-0.249904500000002
 21
101.2999999999999
 31
0.0
  0
LINE
  5
41
330
1E
100
AcDbEntity
  8
0
100
AcDbLine
 10
-0.249910500000002
 20
95.00020000000001
 30
0.0
 11
-0.249904500000002
 21
94.50029999999999
 31
0.0
  0
LINE
  5
42
330
1E
100
AcDbEntity
  8
0
100
AcDbLine
 10
-0.249910500000002
 20
95.00020000000001
 30
0.0
 11
0.2499104999999981
 21
95.00025917156191
 31
0.0
  0
LINE
  5
44
330
1E
100
AcDbEntity
  8
0
100
AcDbLine
 10
-0.249894500000001
 20
107.0999999999999
 30
0.0
 11
-0.249888500000001
 21
106.6
 31
0.0
  0
LINE
  5
48
330
1E
100
AcDbEntity
  8
0
100
AcDbLine
 10
-0.249894500000001
 20
113.9
 30
0.0
 11
-0.249888500000001
 21
113.4
 31
0.0
  0
LINE
  5
4B
330
1E
100
AcDbEntity
  8
0
100
AcDbLine
 10
-0.2498945
 20
127.5
 30
0.0
 11
-0.2498885
 21
127.0
 31
0.0
  0
LINE
  5
4F
330
1E
100
AcDbEntity
  8
0
100
AcDbLine
 10
-0.2498945
 20
134.3
 30
0.0
 11
-0.2498885
 21
133.8
 31
0.0
  0
LINE
  5
52
330
1E
100
AcDbEntity
  8
0
100
AcDbLine
 10
-0.249904499999999
 20
148.9
 30
0.0
 11
-0.249894499999999
 21
147.9
 31
0.0
  0
LINE
  5
56
330
1E
100
AcDbEntity
  8
0
100
AcDbLine
 10
-0.249904499999998
 20
162.5
 30
0.0
 11
-0.249894499999998
 21
161.5
 31
0.0
  0
LINE
  5
58
330
1E
100
AcDbEntity
  8
0
100
AcDbLine
 10
-0.249904499999998
 20
155.6999999999999
 30
0.0
 11
-0.249894499999998
 21
154.6999999999999
 31
0.0
  0
LINE
  5
5B
330
1E
100
AcDbEntity
  8
0
100
AcDbLine
 10
-0.249894499999998
 20
161.5
 30
0.0
 11
-0.249888499999998
 21
161.0
 31
0.0
  0
LINE
  5
5D
330
1E
100
AcDbEntity
  8
0
100
AcDbLine
 10
-0.249894499999998
 20
154.6999999999999
 30
0.0
 11
-0.249888499999998
 21
154.1999999999999
 31
0.0
  0
LINE
  5
60
330
1E
100
AcDbEntity
  8
0
100
AcDbLine
 10
-0.249894499999999
 20
147.9
 30
0.0
 11
-0.249888499999999
 21
147.4
 31
0.0
  0
LINE
  5
64
330
1E
100
AcDbEntity
  8
0
100
AcDbLine
 10
-0.249894499999999
 20
141.1
 30
0.0
 11
-0.249888499999999
 21
140.5999999999999
 31
0.0
  0
LINE
  5
68
330
1E
100
AcDbEntity
  8
0
100
AcDbLine
 10
-0.249904499999999
 20
142.1
 30
0.0
 11
-0.249894499999999
 21
141.1
 31
0.0
  0
LINE
  5
6A
330
1E
100
AcDbEntity
  8
0
100
AcDbLine
 10
-0.2499045
 20
135.3
 30
0.0
 11
-0.2498945
 21
134.3
 31
0.0
  0
LINE
  5
6C
330
1E
100
AcDbEntity
  8
0
100
AcDbLine
 10
-0.2499045
 20
128.4999999999999
 30
0.0
 11
-0.2498945
 21
127.5
 31
0.0
  0
LINE
  5
6F
330
1E
100
AcDbEntity
  8
0
100
AcDbLine
 10
-0.2498945
 20
120.7
 30
0.0
 11
-0.2498885
 21
120.1999999999999
 31
0.0
  0
LINE
  5
73
330
1E
100
AcDbEntity
  8
0
100
AcDbLine
 10
-0.2499045
 20
121.7
 30
0.0
 11
-0.2498945
 21
120.7
 31
0.0
  0
LINE
  5
75
330
1E
100
AcDbEntity
  8
0
100
AcDbLine
 10
-0.249904500000001
 20
114.9
 30
0.0
 11
-0.249894500000001
 21
113.9
 31
0.0
  0
LINE
  5
78
330
1E
100
AcDbEntity
  8
0
100
AcDbLine
 10
-0.249904500000001
 20
108.0999999999999
 30
0.0
 11
-0.249894500000001
 21
107.0999999999999
 31
0.0
  0
LINE
  5
7A
330
1E
100
AcDbEntity
  8
0
100
AcDbLine
 10
-0.2498945000000019
 20
100.2999999999999
 30
0.0
 11
-0.249888500000002
 21
99.80029999999999
 31
0.0
  0
LINE
  5
7E
330
1E
100
AcDbEntity
  8
0
100
AcDbLine
 10
-0.249904500000002
 20
101.2999999999999
 30
0.0
 11
-0.2498945000000019
 21
100.2999999999999
 31
0.0
  0
LINE
  5
80
330
1E
100
AcDbEntity
  8
0
100
AcDbLine
 10
-0.249904500000002
 20
94.50029999999999
 30
0.0
 11
-0.2498945000000019
 21
93.5003
 31
0.0
  0
LINE
  5
82
330
1E
100
AcDbEntity
  8
0
100
AcDbLine
 10
-0.2498945000000019
 20
93.5003
 30
0.0
 11
-0.249888500000002
 21
93.00029999999999
 31
0.0
  0
LINE
  5
84
330
1E
100
AcDbEntity
  8
0
100
AcDbLine
 10
0.249910499999993
 20
11.0
 30
0.0
 11
0.2499104999999981
 21
93.00029999999999
 31
0.0
  0
LINE
  5
85
330
1E
100
AcDbEntity
  8
0
100
AcDbLine
 10
0.249910499999993
 20
11.0
 30
0.0
 11
0.2499104999999981
 21
93.00029999999999
 31
0.0
  0
LINE
  5
86
330
1E
100
AcDbEntity
  8
0
100
AcDbLine
 10
0.249910499999993
 20
11.0
 30
0.0
 11
1.249910499999989
 21
9.999999999999991
 31
0.0
  0
LINE
  5
87
330
1E
100
AcDbEntity
  8
0
100
AcDbLine
 10
0.249910499999993
 20
11.0
 30
0.0
 11
0.6499104999999929
 21
11.0
 31
0.0
  0
LINE
  5
88
330
1E
100
AcDbEntity
  8
0
100
AcDbLine
 10
0.249910499999993
 20
11.0
 30
0.0
 11
1.249910499999989
 21
9.999999999999991
 31
0.0
  0
LINE
  5
89
330
1E
100
AcDbEntity
  8
0
100
AcDbLine
 10
0.249910499999993
 20
11.0
 30
0.0
 11
0.6499104999999929
 21
11.0
 31
0.0
  0
LINE
  5
8A
330
1E
100
AcDbEntity
  8
0
100
AcDbLine
 10
2.64991049999999
 20
-0.0000000000000053
 30
0.0
 11
3.54991049999999
 21
-0.0000000000000054
 31
0.0
  0
LINE
  5
8B
330
1E
100
AcDbEntity
  8
0
100
AcDbLine
 10
0.6499104999999929
 20
11.0
 30
0.0
 11
1.849910499999989
 21
11.0
 31
0.0
  0
LINE
  5
8C
330
1E
100
AcDbEntity
  8
0
100
AcDbLine
 10
2.74991049999999
 20
9.999999999999991
 30
0.0
 11
4.44991049999999
 21
9.999999999999991
 31
0.0
  0
LINE
  5
8D
330
1E
100
AcDbEntity
  8
0
100
AcDbLine
 10
2.64991049999999
 20
9.999999999999991
 30
0.0
 11
3.54991049999999
 21
9.999999999999991
 31
0.0
  0
LINE
  5
8E
330
1E
100
AcDbEntity
  8
0
100
AcDbLine
 10
2.24991049999999
 20
9.999999999999991
 30
0.0
 11
2.64991049999999
 21
9.999999999999991
 31
0.0
  0
LINE
  5
8F
330
1E
100
AcDbEntity
  8
0
100
AcDbLine
 10
2.24991049999999
 20
-0.0000000000000051
 30
0.0
 11
2.24991049999999
 21
9.999999999999991
 31
0.0
  0
LINE
  5
90
330
1E
100
AcDbEntity
  8
0
100
AcDbLine
 10
1.849910499999989
 20
11.0
 30
0.0
 11
3.74991049999999
 21
11.0
 31
0.0
  0
LINE
  5
91
330
1E
100
AcDbEntity
  8
0
100
AcDbLine
 10
1.649910499999989
 20
9.999999999999991
 30
0.0
 11
2.24991049999999
 21
9.999999999999991
 31
0.0
  0
LINE
  5
92
330
1E
100
AcDbEntity
  8
0
100
AcDbLine
 10
1.649910499999989
 20
9.999999999999991
 30
0.0
 11
2.74991049999999
 21
9.999999999999991
 31
0.0
  0
LINE
  5
93
330
1E
100
AcDbEntity
  8
0
100
AcDbLine
 10
1.249910499999989
 20
9.999999999999991
 30
0.0
 11
1.649910499999989
 21
9.999999999999991
 31
0.0
  0
LINE
  5
94
330
1E
100
AcDbEntity
  8
0
100
AcDbLine
 10
2.24991049999999
 20
-0.0000000000000053
 30
0.0
 11
2.64991049999999
 21
-0.0000000000000053
 31
0.0
  0
LINE
  5
95
330
1E
100
AcDbEntity
  8
0
100
AcDbLine
 10
2.24991049999999
 20
-0.0000000000000053
 30
0.0
 11
2.24991049999999
 21
9.999999999999991
 31
0.0
  0
LINE
  5
96
330
1E
100
AcDbEntity
  8
0
100
AcDbLine
 10
22.2499105
 20
-0.0000000000000065
 30
0.0
 11
22.2499105
 21
9.999999999999991
 31
0.0
  0
LINE
  5
97
330
1E
100
AcDbEntity
  8
0
100
AcDbLine
 10
19.3499105
 20
-0.0000000000000063
 30
0.0
 11
20.9499105
 21
-0.0000000000000064
 31
0.0
  0
LINE
  5
98
330
1E
100
AcDbEntity
  8
0
100
AcDbLine
 10
22.2499105
 20
-0.0000000000000064
 30
0.0
 11
22.2499105
 21
9.999999999999991
 31
0.0
  0
LINE
  5
99
330
1E
100
AcDbEntity
  8
0
100
AcDbLine
 10
20.9499105
 20
-0.0000000000000064
 30
0.0
 11
21.8499105
 21
-0.0000000000000065
 31
0.0
  0
LINE
  5
9A
330
1E
100
AcDbEntity
  8
0
100
AcDbLine
 10
21.8499105
 20
-0.0000000000000065
 30
0.0
 11
22.2499105
 21
-0.0000000000000065
 31
0.0
  0
LINE
  5
9B
330
1E
100
AcDbEntity
  8
0
100
AcDbLine
 10
17.2499105
 20
-0.0000000000000062
 30
0.0
 11
19.3499105
 21
-0.0000000000000063
 31
0.0
  0
LINE
  5
9C
330
1E
100
AcDbEntity
  8
0
100
AcDbLine
 10
14.8499105
 20
-0.0000000000000061
 30
0.0
 11
17.2499105
 21
-0.0000000000000062
 31
0.0
  0
LINE
  5
9D
330
1E
100
AcDbEntity
  8
0
100
AcDbLine
 10
12.2499105
 20
-0.0000000000000059
 30
0.0
 11
14.8499105
 21
-0.0000000000000061
 31
0.0
  0
LINE
  5
9E
330
1E
100
AcDbEntity
  8
0
100
AcDbLine
 10
4.44991049999999
 20
9.999999999999991
 30
0.0
 11
6.74991049999999
 21
9.999999999999991
 31
0.0
  0
LINE
  5
9F
330
1E
100
AcDbEntity
  8
0
100
AcDbLine
 10
6.74991049999999
 20
9.999999999999991
 30
0.0
 11
9.44991049999999
 21
9.999999999999991
 31
0.0
  0
LINE
  5
A0
330
1E
100
AcDbEntity
  8
0
100
AcDbLine
 10
5.14991049999999
 20
9.999999999999991
 30
0.0
 11
7.24991049999999
 21
9.999999999999991
 31
0.0
  0
LINE
  5
A1
330
1E
100
AcDbEntity
  8
0
100
AcDbLine
 10
7.24991049999999
 20
9.999999999999991
 30
0.0
 11
9.44991049999999
 21
9.999999999999991
 31
0.0
  0
LINE
  5
A2
330
1E
100
AcDbEntity
  8
0
100
AcDbLine
 10
3.74991049999999
 20
11.0
 30
0.0
 11
6.24991049999999
 21
11.0
 31
0.0
  0
LINE
  5
A3
330
1E
100
AcDbEntity
  8
0
100
AcDbLine
 10
6.24991049999999
 20
11.0
 30
0.0
 11
9.14991049999999
 21
11.0
 31
0.0
  0
LINE
  5
A4
330
1E
100
AcDbEntity
  8
0
100
AcDbLine
 10
3.54991049999999
 20
9.999999999999991
 30
0.0
 11
5.14991049999999
 21
9.999999999999991
 31
0.0
  0
LINE
  5
A5
330
1E
100
AcDbEntity
  8
0
100
AcDbLine
 10
3.54991049999999
 20
-0.0000000000000054
 30
0.0
 11
5.14991049999999
 21
-0.0000000000000055
 31
0.0
  0
LINE
  5
A6
330
1E
100
AcDbEntity
  8
0
100
AcDbLine
 10
5.14991049999999
 20
-0.0000000000000055
 30
0.0
 11
7.24991049999999
 21
-0.0000000000000056
 31
0.0
  0
LINE
  5
A7
330
1E
100
AcDbEntity
  8
0
100
AcDbLine
 10
15.0499105
 20
9.999999999999991
 30
0.0
 11
17.7499105
 21
9.999999999999991
 31
0.0
  0
LINE
  5
A8
330
1E
100
AcDbEntity
  8
0
100
AcDbLine
 10
20.0499105
 20
9.999999999999991
 30
0.0
 11
21.7499105
 21
9.999999999999991
 31
0.0
  0
LINE
  5
A9
330
1E
100
AcDbEntity
  8
0
100
AcDbLine
 10
21.7499105
 20
9.999999999999991
 30
0.0
 11
22.84991049999999
 21
9.999999999999991
 31
0.0
  0
LINE
  5
AA
330
1E
100
AcDbEntity
  8
0
100
AcDbLine
 10
19.3499105
 20
9.999999999999991
 30
0.0
 11
20.9499105
 21
9.999999999999991
 31
0.0
  0
LINE
  5
AB
330
1E
100
AcDbEntity
  8
0
100
AcDbLine
 10
20.9499105
 20
9.999999999999991
 30
0.0
 11
21.8499105
 21
9.999999999999991
 31
0.0
  0
LINE
  5
AC
330
1E
100
AcDbEntity
  8
0
100
AcDbLine
 10
22.2499105
 20
9.999999999999991
 30
0.0
 11
22.84991049999999
 21
9.999999999999991
 31
0.0
  0
LINE
  5
AD
330
1E
100
AcDbEntity
  8
0
100
AcDbLine
 10
23.2499105
 20
9.999999999999991
 30
0.0
 11
24.2499105
 21
11.0
 31
0.0
  0
LINE
  5
AE
330
1E
100
AcDbEntity
  8
0
100
AcDbLine
 10
22.84991049999999
 20
9.999999999999991
 30
0.0
 11
23.2499105
 21
9.999999999999991
 31
0.0
  0
LINE
  5
AF
330
1E
100
AcDbEntity
  8
0
100
AcDbLine
 10
21.8499105
 20
9.999999999999991
 30
0.0
 11
22.2499105
 21
9.999999999999991
 31
0.0
  0
LINE
  5
B0
330
1E
100
AcDbEntity
  8
0
100
AcDbLine
 10
17.7499105
 20
9.999999999999991
 30
0.0
 11
20.0499105
 21
9.999999999999991
 31
0.0
  0
LINE
  5
B1
330
1E
100
AcDbEntity
  8
0
100
AcDbLine
 10
17.2499105
 20
9.999999999999991
 30
0.0
 11
19.3499105
 21
9.999999999999991
 31
0.0
  0
LINE
  5
B2
330
1E
100
AcDbEntity
  8
0
100
AcDbLine
 10
14.8499105
 20
9.999999999999991
 30
0.0
 11
17.2499105
 21
9.999999999999991
 31
0.0
  0
LINE
  5
B3
330
1E
100
AcDbEntity
  8
0
100
AcDbLine
 10
12.2499105
 20
9.999999999999991
 30
0.0
 11
14.8499105
 21
9.999999999999991
 31
0.0
  0
LINE
  5
B4
330
1E
100
AcDbEntity
  8
0
100
AcDbLine
 10
12.2499105
 20
9.999999999999991
 30
0.0
 11
15.0499105
 21
9.999999999999991
 31
0.0
  0
LINE
  5
B5
330
1E
100
AcDbEntity
  8
0
100
AcDbLine
 10
20.7499105
 20
11.0
 30
0.0
 11
22.6499105
 21
11.0
 31
0.0
  0
LINE
  5
B6
330
1E
100
AcDbEntity
  8
0
100
AcDbLine
 10
22.6499105
 20
11.0
 30
0.0
 11
23.8499105
 21
11.0
 31
0.0
  0
LINE
  5
B7
330
1E
100
AcDbEntity
  8
0
100
AcDbLine
 10
24.2499105
 20
11.0
 30
0.0
 11
24.2499105
 21
164.5
 31
0.0
  0
LINE
  5
B8
330
1E
100
AcDbEntity
  8
0
100
AcDbLine
 10
24.2499105
 20
11.0
 30
0.0
 11
24.2499105
 21
164.5
 31
0.0
  0
LINE
  5
B9
330
1E
100
AcDbEntity
  8
0
100
AcDbLine
 10
23.8499105
 20
11.0
 30
0.0
 11
24.2499105
 21
11.0
 31
0.0
  0
LINE
  5
BA
330
1E
100
AcDbEntity
  8
0
100
AcDbLine
 10
18.2499105
 20
11.0
 30
0.0
 11
20.7499105
 21
11.0
 31
0.0
  0
LINE
  5
BB
330
1E
100
AcDbEntity
  8
0
100
AcDbLine
 10
15.3499105
 20
11.0
 30
0.0
 11
18.2499105
 21
11.0
 31
0.0
  0
LINE
  5
BC
330
1E
100
AcDbEntity
  8
0
100
AcDbLine
 10
12.2499105
 20
11.0
 30
0.0
 11
15.3499105
 21
11.0
 31
0.0
  0
LINE
  5
BD
330
1E
100
AcDbEntity
  8
0
100
AcDbLine
 10
9.14991049999999
 20
11.0
 30
0.0
 11
12.2499105
 21
11.0
 31
0.0
  0
LINE
  5
BE
330
1E
100
AcDbEntity
  8
0
100
AcDbLine
 10
9.44991049999999
 20
9.999999999999991
 30
0.0
 11
12.2499105
 21
9.999999999999991
 31
0.0
  0
LINE
  5
BF
330
1E
100
AcDbEntity
  8
0
100
AcDbLine
 10
7.24991049999999
 20
-0.0000000000000056
 30
0.0
 11
9.64991049999999
 21
-0.0000000000000057
 31
0.0
  0
LINE
  5
C0
330
1E
100
AcDbEntity
  8
0
100
AcDbLine
 10
9.64991049999999
 20
-0.0000000000000057
 30
0.0
 11
12.2499105
 21
-0.0000000000000059
 31
0.0
  0
LINE
  5
C1
330
1E
100
AcDbEntity
  8
0
100
AcDbLine
 10
3.4514105
 20
93.00020000000001
 30
0.0
 11
3.741980499999999
 21
93.5002
 31
0.0
  0
LINE
  5
C4
330
1E
100
AcDbEntity
  8
0
100
AcDbLine
 10
2.870080499999999
 20
93.00020000000001
 30
0.0
 11
3.4514105
 21
93.00020000000001
 31
0.0
  0
LINE
  5
C5
330
1E
100
AcDbEntity
  8
0
100
AcDbLine
 10
2.870080499999999
 20
93.00020000000001
 30
0.0
 11
3.4830105
 21
93.00020000000001
 31
0.0
  0
LINE
  5
C7
330
1E
100
AcDbEntity
  8
0
100
AcDbLine
 10
0.8599104999999978
 20
93.00029999999999
 30
0.0
 11
1.0128405
 21
93.5002
 31
0.0
  0
LINE
  5
C9
330
1E
100
AcDbEntity
  8
0
100
AcDbLine
 10
0.554010499999998
 20
93.00020000000001
 30
0.0
 11
0.8599104999999978
 21
93.00029999999999
 31
0.0
  0
LINE
  5
CB
330
1E
100
AcDbEntity
  8
0
100
AcDbLine
 10
0.2499104999999981
 20
95.00025917156191
 30
0.0
 11
0.2499104999999981
 21
99.80029999999999
 31
0.0
  0
LINE
  5
CC
330
1E
100
AcDbEntity
  8
0
100
AcDbLine
 10
0.2499104999999981
 20
101.8
 30
0.0
 11
0.249910499999999
 21
106.6
 31
0.0
  0
LINE
  5
CD
330
1E
100
AcDbEntity
  8
0
100
AcDbLine
 10
-0.249888500000001
 20
106.6
 30
0.0
 11
0.249910499999999
 21
106.6
 31
0.0
  0
LINE
  5
CE
330
1E
100
AcDbEntity
  8
0
100
AcDbLine
 10
0.249910499999999
 20
108.6
 30
0.0
 11
0.249910499999999
 21
113.4
 31
0.0
  0
LINE
  5
CF
330
1E
100
AcDbEntity
  8
0
100
AcDbLine
 10
0.249910499999999
 20
115.4
 30
0.0
 11
0.2499105
 21
120.1999999999999
 31
0.0
  0
LINE
  5
D0
330
1E
100
AcDbEntity
  8
0
100
AcDbLine
 10
0.2499105
 20
122.1999999999999
 30
0.0
 11
0.2499105
 21
127.0
 31
0.0
  0
LINE
  5
D1
330
1E
100
AcDbEntity
  8
0
100
AcDbLine
 10
0.2499105
 20
129.0
 30
0.0
 11
0.2499105
 21
133.8
 31
0.0
  0
LINE
  5
D2
330
1E
100
AcDbEntity
  8
0
100
AcDbLine
 10
0.2499105
 20
135.8
 30
0.0
 11
0.249910500000001
 21
140.5999999999999
 31
0.0
  0
LINE
  5
D3
330
1E
100
AcDbEntity
  8
0
100
AcDbLine
 10
0.249910500000001
 20
142.5999999999999
 30
0.0
 11
0.249910500000001
 21
147.4
 31
0.0
  0
LINE
  5
D4
330
1E
100
AcDbEntity
  8
0
100
AcDbLine
 10
0.249910500000001
 20
149.3999999999999
 30
0.0
 11
0.249910500000002
 21
154.1999999999999
 31
0.0
  0
LINE
  5
D5
330
1E
100
AcDbEntity
  8
0
100
AcDbLine
 10
0.249910500000002
 20
156.1999999999999
 30
0.0
 11
0.249910500000002
 21
161.0
 31
0.0
  0
LINE
  5
D6
330
1E
100
AcDbEntity
  8
0
100
AcDbLine
 10
0.249910500000002
 20
164.5
 30
0.0
 11
1.249910499999999
 21
165.0
 31
0.0
  0
LINE
  5
D7
330
1E
100
AcDbEntity
  8
0
100
AcDbLine
 10
0.249910500000002
 20
164.5
 30
0.0
 11
0.6499105000000021
 21
164.5
 31
0.0
  0
LINE
  5
D8
330
1E
100
AcDbEntity
  8
0
100
AcDbLine
 10
0.249910500000003
 20
184.4999999999999
 30
0.0
 11
0.7499105000000031
 21
185.0
 31
0.0
  0
LINE
  5
D9
330
1E
100
AcDbEntity
  8
0
100
AcDbLine
 10
0.249910500000003
 20
184.4999999999999
 30
0.0
 11
0.649910500000003
 21
184.4999999999999
 31
0.0
  0
LINE
  5
DA
330
1E
100
AcDbEntity
  8
0
100
AcDbLine
 10
0.249910500000002
 20
165.5
 30
0.0
 11
1.249910499999999
 21
165.0
 31
0.0
  0
LINE
  5
DB
330
1E
100
AcDbEntity
  8
0
100
AcDbLine
 10
0.249910500000002
 20
165.5
 30
0.0
 11
0.249910500000003
 21
184.4999999999999
 31
0.0
  0
LINE
  5
DC
330
1E
100
AcDbEntity
  8
0
100
AcDbLine
 10
0.249910500000002
 20
165.5
 30
0.0
 11
0.6499105000000021
 21
165.5
 31
0.0
  0
LINE
  5
DD
330
1E
100
AcDbEntity
  8
0
100
AcDbLine
 10
0.249910500000002
 20
164.5
 30
0.0
 11
1.249910499999999
 21
165.0
 31
0.0
  0
LINE
  5
DE
330
1E
100
AcDbEntity
  8
0
100
AcDbLine
 10
0.249910500000002
 20
164.5
 30
0.0
 11
0.6499105000000021
 21
164.5
 31
0.0
  0
LINE
  5
DF
330
1E
100
AcDbEntity
  8
0
100
AcDbLine
 10
0.249910500000002
 20
163.0
 30
0.0
 11
0.249910500000002
 21
164.5
 31
0.0
  0
LINE
  5
E0
330
1E
100
AcDbEntity
  8
0
100
AcDbLine
 10
-0.249888499999998
 20
161.0
 30
0.0
 11
0.249910500000002
 21
161.0
 31
0.0
  0
LINE
  5
E1
330
1E
100
AcDbEntity
  8
0
100
AcDbLine
 10
-0.249888499999998
 20
161.0
 30
0.0
 11
0.249910500000002
 21
161.0
 31
0.0
  0
LINE
  5
E2
330
1E
100
AcDbEntity
  8
0
100
AcDbLine
 10
-0.249888499999998
 20
154.1999999999999
 30
0.0
 11
0.249910500000002
 21
154.1999999999999
 31
0.0
  0
LINE
  5
E3
330
1E
100
AcDbEntity
  8
0
100
AcDbLine
 10
-0.249888499999998
 20
154.1999999999999
 30
0.0
 11
0.249910500000002
 21
154.1999999999999
 31
0.0
  0
LINE
  5
E4
330
1E
100
AcDbEntity
  8
0
100
AcDbLine
 10
-0.249888499999999
 20
147.4
 30
0.0
 11
0.249910500000001
 21
147.4
 31
0.0
  0
LINE
  5
E5
330
1E
100
AcDbEntity
  8
0
100
AcDbLine
 10
-0.249888499999999
 20
147.4
 30
0.0
 11
0.249910500000001
 21
147.4
 31
0.0
  0
LINE
  5
E6
330
1E
100
AcDbEntity
  8
0
100
AcDbLine
 10
-0.249888499999999
 20
140.5999999999999
 30
0.0
 11
0.249910500000001
 21
140.5999999999999
 31
0.0
  0
LINE
  5
E7
330
1E
100
AcDbEntity
  8
0
100
AcDbLine
 10
-0.249888499999999
 20
140.5999999999999
 30
0.0
 11
0.249910500000001
 21
140.5999999999999
 31
0.0
  0
LINE
  5
E8
330
1E
100
AcDbEntity
  8
0
100
AcDbLine
 10
-0.2498885
 20
133.8
 30
0.0
 11
0.2499105
 21
133.8
 31
0.0
  0
LINE
  5
E9
330
1E
100
AcDbEntity
  8
0
100
AcDbLine
 10
-0.2498885
 20
133.8
 30
0.0
 11
0.2499105
 21
133.8
 31
0.0
  0
LINE
  5
EA
330
1E
100
AcDbEntity
  8
0
100
AcDbLine
 10
-0.2498885
 20
127.0
 30
0.0
 11
0.2499105
 21
127.0
 31
0.0
  0
LINE
  5
EB
330
1E
100
AcDbEntity
  8
0
100
AcDbLine
 10
-0.2498885
 20
127.0
 30
0.0
 11
0.2499105
 21
127.0
 31
0.0
  0
LINE
  5
EC
330
1E
100
AcDbEntity
  8
0
100
AcDbLine
 10
-0.2498885
 20
120.1999999999999
 30
0.0
 11
0.2499105
 21
120.1999999999999
 31
0.0
  0
LINE
  5
ED
330
1E
100
AcDbEntity
  8
0
100
AcDbLine
 10
-0.2498885
 20
120.1999999999999
 30
0.0
 11
0.2499105
 21
120.1999999999999
 31
0.0
  0
LINE
  5
EE
330
1E
100
AcDbEntity
  8
0
100
AcDbLine
 10
-0.249888500000001
 20
113.4
 30
0.0
 11
0.249910499999999
 21
113.4
 31
0.0
  0
LINE
  5
EF
330
1E
100
AcDbEntity
  8
0
100
AcDbLine
 10
-0.249888500000001
 20
113.4
 30
0.0
 11
0.249910499999999
 21
113.4
 31
0.0
  0
LINE
  5
F0
330
1E
100
AcDbEntity
  8
0
100
AcDbLine
 10
-0.249888500000001
 20
106.6
 30
0.0
 11
0.249910499999999
 21
106.6
 31
0.0
  0
LINE
  5
F1
330
1E
100
AcDbEntity
  8
0
100
AcDbLine
 10
0.4010635000000011
 20
148.9
 30
0.0
 11
0.554030500000001
 21
149.3999999999999
 31
0.0
  0
LINE
  5
F2
330
1E
100
AcDbEntity
  8
0
100
AcDbLine
 10
0.4010635000000011
 20
148.9
 30
0.0
 11
0.4010745000000011
 21
147.9
 31
0.0
  0
LINE
  5
F3
330
1E
100
AcDbEntity
  8
0
100
AcDbLine
 10
0.4010635000000021
 20
162.5
 30
0.0
 11
0.5540305000000022
 21
163.0
 31
0.0
  0
LINE
  5
F4
330
1E
100
AcDbEntity
  8
0
100
AcDbLine
 10
0.4010635000000021
 20
162.5
 30
0.0
 11
0.401074500000002
 21
161.5
 31
0.0
  0
LINE
  5
F5
330
1E
100
AcDbEntity
  8
0
100
AcDbLine
 10
0.4010635000000021
 20
155.6999999999999
 30
0.0
 11
0.401074500000002
 21
154.6999999999999
 31
0.0
  0
LINE
  5
F6
330
1E
100
AcDbEntity
  8
0
100
AcDbLine
 10
0.4010635000000021
 20
155.6999999999999
 30
0.0
 11
0.5540305000000022
 21
156.1999999999999
 31
0.0
  0
LINE
  5
F7
330
1E
100
AcDbEntity
  8
0
100
AcDbLine
 10
0.4010635000000011
 20
142.1
 30
0.0
 11
0.554030500000001
 21
142.5999999999999
 31
0.0
  0
LINE
  5
F8
330
1E
100
AcDbEntity
  8
0
100
AcDbLine
 10
0.4010635000000011
 20
142.1
 30
0.0
 11
0.4010745000000011
 21
141.1
 31
0.0
  0
LINE
  5
F9
330
1E
100
AcDbEntity
  8
0
100
AcDbLine
 10
0.4010635000000011
 20
135.3
 30
0.0
 11
0.5540305
 21
135.8
 31
0.0
  0
LINE
  5
FA
330
1E
100
AcDbEntity
  8
0
100
AcDbLine
 10
0.4010635000000011
 20
135.3
 30
0.0
 11
0.4010745
 21
134.3
 31
0.0
  0
LINE
  5
FB
330
1E
100
AcDbEntity
  8
0
100
AcDbLine
 10
0.4010635000000001
 20
128.4999999999999
 30
0.0
 11
0.5540305
 21
129.0
 31
0.0
  0
LINE
  5
FC
330
1E
100
AcDbEntity
  8
0
100
AcDbLine
 10
0.4010635000000001
 20
128.4999999999999
 30
0.0
 11
0.4010745
 21
127.5
 31
0.0
  0
LINE
  5
FD
330
1E
100
AcDbEntity
  8
0
100
AcDbLine
 10
0.4010635000000001
 20
121.7
 30
0.0
 11
0.5540305
 21
122.1999999999999
 31
0.0
  0
LINE
  5
FE
330
1E
100
AcDbEntity
  8
0
100
AcDbLine
 10
0.4010635000000001
 20
121.7
 30
0.0
 11
0.4010745
 21
120.7
 31
0.0
  0
LINE
  5
FF
330
1E
100
AcDbEntity
  8
0
100
AcDbLine
 10
0.401063499999999
 20
114.9
 30
0.0
 11
0.554030499999999
 21
115.4
 31
0.0
  0
LINE
  5
100
330
1E
100
AcDbEntity
  8
0
100
AcDbLine
 10
0.401063499999999
 20
114.9
 30
0.0
 11
0.401074499999999
 21
113.9
 31
0.0
  0
LINE
  5
101
330
1E
100
AcDbEntity
  8
0
100
AcDbLine
 10
0.401063499999999
 20
108.0999999999999
 30
0.0
 11
0.554030499999999
 21
108.6
 31
0.0
  0
LINE
  5
102
330
1E
100
AcDbEntity
  8
0
100
AcDbLine
 10
0.401063499999999
 20
108.0999999999999
 30
0.0
 11
0.401074499999999
 21
107.0999999999999
 31
0.0
  0
LINE
  5
103
330
1E
100
AcDbEntity
  8
0
100
AcDbLine
 10
0.401063499999998
 20
101.2999999999999
 30
0.0
 11
0.5540304999999979
 21
101.8
 31
0.0
  0
LINE
  5
104
330
1E
100
AcDbEntity
  8
0
100
AcDbLine
 10
0.401063499999998
 20
101.2999999999999
 30
0.0
 11
0.4010744999999981
 21
100.2999999999999
 31
0.0
  0
LINE
  5
105
330
1E
100
AcDbEntity
  8
0
100
AcDbLine
 10
-0.249888500000002
 20
99.80029999999999
 30
0.0
 11
0.2499104999999981
 21
99.80029999999999
 31
0.0
  0
LINE
  5
106
330
1E
100
AcDbEntity
  8
0
100
AcDbLine
 10
-0.249888500000002
 20
99.80029999999999
 30
0.0
 11
0.2499104999999981
 21
99.80029999999999
 31
0.0
  0
LINE
  5
107
330
1E
100
AcDbEntity
  8
0
100
AcDbLine
 10
0.401063499999998
 20
94.5002
 30
0.0
 11
0.5540304999999979
 21
95.0003
 31
0.0
  0
LINE
  5
108
330
1E
100
AcDbEntity
  8
0
100
AcDbLine
 10
0.401063499999998
 20
94.5002
 30
0.0
 11
0.4010744999999981
 21
93.5003
 31
0.0
  0
LINE
  5
109
330
1E
100
AcDbEntity
  8
0
100
AcDbLine
 10
3.741980499999999
 20
93.5002
 30
0.0
 11
3.7420105
 21
94.50029999999999
 31
0.0
  0
LINE
  5
10B
330
1E
100
AcDbEntity
  8
0
100
AcDbLine
 10
2.579500499999999
 20
93.5002
 30
0.0
 11
2.870080499999999
 21
93.00020000000001
 31
0.0
  0
LINE
  5
10C
330
1E
100
AcDbEntity
  8
0
100
AcDbLine
 10
2.579500499999999
 20
93.5002
 30
0.0
 11
2.5795305
 21
94.50029999999999
 31
0.0
  0
LINE
  5
114
330
1E
100
AcDbEntity
  8
0
100
AcDbLine
 10
0.554010500000001
 20
147.4
 30
0.0
 11
0.859910500000001
 21
147.4
 31
0.0
  0
LINE
  5
115
330
1E
100
AcDbEntity
  8
0
100
AcDbLine
 10
0.401074500000002
 20
161.5
 30
0.0
 11
0.5540105000000021
 21
161.0
 31
0.0
  0
LINE
  5
117
330
1E
100
AcDbEntity
  8
0
100
AcDbLine
 10
0.5540105000000021
 20
161.0
 30
0.0
 11
0.8599105000000021
 21
161.0
 31
0.0
  0
LINE
  5
119
330
1E
100
AcDbEntity
  8
0
100
AcDbLine
 10
0.5540105000000021
 20
154.1999999999999
 30
0.0
 11
0.8599105000000021
 21
154.1999999999999
 31
0.0
  0
LINE
  5
11B
330
1E
100
AcDbEntity
  8
0
100
AcDbLine
 10
0.401074500000002
 20
154.6999999999999
 30
0.0
 11
0.5540105000000021
 21
154.1999999999999
 31
0.0
  0
LINE
  5
11C
330
1E
100
AcDbEntity
  8
0
100
AcDbLine
 10
0.4010745000000011
 20
147.9
 30
0.0
 11
0.554010500000001
 21
147.4
 31
0.0
  0
LINE
  5
11D
330
1E
100
AcDbEntity
  8
0
100
AcDbLine
 10
0.4010745000000011
 20
141.1
 30
0.0
 11
0.554010500000001
 21
140.5999999999999
 31
0.0
  0
LINE
  5
11E
330
1E
100
AcDbEntity
  8
0
100
AcDbLine
 10
0.554010500000001
 20
140.5999999999999
 30
0.0
 11
0.859910500000001
 21
140.5999999999999
 31
0.0
  0
LINE
  5
120
330
1E
100
AcDbEntity
  8
0
100
AcDbLine
 10
0.4010745
 20
134.3
 30
0.0
 11
0.5540105
 21
133.8
 31
0.0
  0
LINE
  5
121
330
1E
100
AcDbEntity
  8
0
100
AcDbLine
 10
0.5540105
 20
133.8
 30
0.0
 11
0.8599104999999999
 21
133.8
 31
0.0
  0
LINE
  5
123
330
1E
100
AcDbEntity
  8
0
100
AcDbLine
 10
0.4010745
 20
127.5
 30
0.0
 11
0.5540105
 21
127.0
 31
0.0
  0
LINE
  5
124
330
1E
100
AcDbEntity
  8
0
100
AcDbLine
 10
0.5540105
 20
127.0
 30
0.0
 11
0.8599104999999999
 21
127.0
 31
0.0
  0
LINE
  5
126
330
1E
100
AcDbEntity
  8
0
100
AcDbLine
 10
0.4010745
 20
120.7
 30
0.0
 11
0.5540105
 21
120.1999999999999
 31
0.0
  0
LINE
  5
127
330
1E
100
AcDbEntity
  8
0
100
AcDbLine
 10
0.5540105
 20
120.1999999999999
 30
0.0
 11
0.8599104999999999
 21
120.1999999999999
 31
0.0
  0
LINE
  5
129
330
1E
100
AcDbEntity
  8
0
100
AcDbLine
 10
0.401074499999999
 20
113.9
 30
0.0
 11
0.5540104999999991
 21
113.4
 31
0.0
  0
LINE
  5
12A
330
1E
100
AcDbEntity
  8
0
100
AcDbLine
 10
0.5540104999999991
 20
113.4
 30
0.0
 11
0.8599104999999989
 21
113.4
 31
0.0
  0
LINE
  5
12C
330
1E
100
AcDbEntity
  8
0
100
AcDbLine
 10
0.401074499999999
 20
107.0999999999999
 30
0.0
 11
0.5540104999999991
 21
106.6
 31
0.0
  0
LINE
  5
12D
330
1E
100
AcDbEntity
  8
0
100
AcDbLine
 10
0.5540104999999991
 20
106.6
 30
0.0
 11
0.8599104999999989
 21
106.6
 31
0.0
  0
LINE
  5
12F
330
1E
100
AcDbEntity
  8
0
100
AcDbLine
 10
0.4010744999999981
 20
100.2999999999999
 30
0.0
 11
0.554010499999998
 21
99.80020000000001
 31
0.0
  0
LINE
  5
130
330
1E
100
AcDbEntity
  8
0
100
AcDbLine
 10
0.554010499999998
 20
99.80020000000001
 30
0.0
 11
0.8599104999999978
 21
99.80029999999999
 31
0.0
  0
LINE
  5
132
330
1E
100
AcDbEntity
  8
0
100
AcDbLine
 10
0.6499105000000021
 20
165.5
 30
0.0
 11
1.8499105
 21
165.5
 31
0.0
  0
LINE
  5
133
330
1E
100
AcDbEntity
  8
0
100
AcDbLine
 10
0.649910500000003
 20
184.4999999999999
 30
0.0
 11
1.8499105
 21
184.4999999999999
 31
0.0
  0
LINE
  5
134
330
1E
100
AcDbEntity
  8
0
100
AcDbLine
 10
0.7499105000000031
 20
185.0
 30
0.0
 11
1.1499105
 21
185.0
 31
0.0
  0
LINE
  5
135
330
1E
100
AcDbEntity
  8
0
100
AcDbLine
 10
0.6499105000000041
 20
184.4999999999999
 30
0.0
 11
1.8499105
 21
184.4999999999999
 31
0.0
  0
LINE
  5
136
330
1E
100
AcDbEntity
  8
0
100
AcDbLine
 10
0.6499105000000021
 20
165.5
 30
0.0
 11
1.8499105
 21
165.5
 31
0.0
  0
LINE
  5
137
330
1E
100
AcDbEntity
  8
0
100
AcDbLine
 10
0.6499105000000021
 20
164.5
 30
0.0
 11
1.8499105
 21
164.5
 31
0.0
  0
LINE
  5
138
330
1E
100
AcDbEntity
  8
0
100
AcDbLine
 10
0.6499105000000021
 20
164.5
 30
0.0
 11
1.8499105
 21
164.5
 31
0.0
  0
LINE
  5
139
330
1E
100
AcDbEntity
  8
0
100
AcDbLine
 10
0.5540305000000022
 20
163.0
 30
0.0
 11
0.8598905000000021
 21
163.0
 31
0.0
  0
LINE
  5
13A
330
1E
100
AcDbEntity
  8
0
100
AcDbLine
 10
0.5540305000000022
 20
156.1999999999999
 30
0.0
 11
0.8598905000000021
 21
156.1999999999999
 31
0.0
  0
LINE
  5
13B
330
1E
100
AcDbEntity
  8
0
100
AcDbLine
 10
0.554030500000001
 20
149.3999999999999
 30
0.0
 11
0.8598905000000009
 21
149.3999999999999
 31
0.0
  0
LINE
  5
13C
330
1E
100
AcDbEntity
  8
0
100
AcDbLine
 10
0.554030500000001
 20
142.5999999999999
 30
0.0
 11
0.8598905000000009
 21
142.5999999999999
 31
0.0
  0
LINE
  5
13D
330
1E
100
AcDbEntity
  8
0
100
AcDbLine
 10
0.5540305
 20
135.8
 30
0.0
 11
0.8598905000000002
 21
135.8
 31
0.0
  0
LINE
  5
13E
330
1E
100
AcDbEntity
  8
0
100
AcDbLine
 10
0.5540305
 20
129.0
 30
0.0
 11
0.8598905000000002
 21
129.0
 31
0.0
  0
LINE
  5
13F
330
1E
100
AcDbEntity
  8
0
100
AcDbLine
 10
0.5540305
 20
122.1999999999999
 30
0.0
 11
0.8598905000000002
 21
122.1999999999999
 31
0.0
  0
LINE
  5
140
330
1E
100
AcDbEntity
  8
0
100
AcDbLine
 10
0.554030499999999
 20
115.4
 30
0.0
 11
0.8598904999999989
 21
115.4
 31
0.0
  0
LINE
  5
141
330
1E
100
AcDbEntity
  8
0
100
AcDbLine
 10
0.554030499999999
 20
108.6
 30
0.0
 11
0.8598904999999989
 21
108.6
 31
0.0
  0
LINE
  5
142
330
1E
100
AcDbEntity
  8
0
100
AcDbLine
 10
0.5540304999999979
 20
101.8
 30
0.0
 11
0.8598904999999978
 21
101.8
 31
0.0
  0
LINE
  5
143
330
1E
100
AcDbEntity
  8
0
100
AcDbLine
 10
0.5540304999999979
 20
95.0003
 30
0.0
 11
0.8598904999999978
 21
95.00020000000001
 31
0.0
  0
LINE
  5
146
330
1E
100
AcDbEntity
  8
0
100
AcDbLine
 10
2.5795305
 20
94.50029999999999
 30
0.0
 11
2.870100499999999
 21
95.0003
 31
0.0
  0
LINE
  5
148
330
1E
100
AcDbEntity
  8
0
100
AcDbLine
 10
0.8599104999999978
 20
99.80029999999999
 30
0.0
 11
1.0128405
 21
100.2999999999999
 31
0.0
  0
LINE
  5
14B
330
1E
100
AcDbEntity
  8
0
100
AcDbLine
 10
1.012830499999999
 20
101.2999999999999
 30
0.0
 11
1.0128405
 21
100.2999999999999
 31
0.0
  0
LINE
  5
14C
330
1E
100
AcDbEntity
  8
0
100
AcDbLine
 10
2.579500499999999
 20
100.2999999999999
 30
0.0
 11
2.870080499999999
 21
99.80020000000001
 31
0.0
  0
LINE
  5
14D
330
1E
100
AcDbEntity
  8
0
100
AcDbLine
 10
2.579500499999999
 20
100.2999999999999
 30
0.0
 11
2.5795305
 21
101.2999999999999
 31
0.0
  0
LINE
  5
14E
330
1E
100
AcDbEntity
  8
0
100
AcDbLine
 10
2.870080499999999
 20
99.80020000000001
 30
0.0
 11
3.4514105
 21
99.80020000000001
 31
0.0
  0
LINE
  5
14F
330
1E
100
AcDbEntity
  8
0
100
AcDbLine
 10
2.870080499999999
 20
99.80020000000001
 30
0.0
 11
3.4830105
 21
99.80020000000001
 31
0.0
  0
LINE
  5
151
330
1E
100
AcDbEntity
  8
0
100
AcDbLine
 10
0.8599104999999989
 20
106.6
 30
0.0
 11
1.0128405
 21
107.0999999999999
 31
0.0
  0
LINE
  5
154
330
1E
100
AcDbEntity
  8
0
100
AcDbLine
 10
1.012830499999999
 20
108.0999999999999
 30
0.0
 11
1.0128405
 21
107.0999999999999
 31
0.0
  0
LINE
  5
155
330
1E
100
AcDbEntity
  8
0
100
AcDbLine
 10
2.579500499999999
 20
107.0999999999999
 30
0.0
 11
2.870080499999999
 21
106.6
 31
0.0
  0
LINE
  5
156
330
1E
100
AcDbEntity
  8
0
100
AcDbLine
 10
2.579500499999999
 20
107.0999999999999
 30
0.0
 11
2.5795305
 21
108.0999999999999
 31
0.0
  0
LINE
  5
157
330
1E
100
AcDbEntity
  8
0
100
AcDbLine
 10
2.870080499999999
 20
106.6
 30
0.0
 11
3.4514105
 21
106.6
 31
0.0
  0
LINE
  5
158
330
1E
100
AcDbEntity
  8
0
100
AcDbLine
 10
2.870080499999999
 20
106.6
 30
0.0
 11
3.4830105
 21
106.6
 31
0.0
  0
LINE
  5
159
330
1E
100
AcDbEntity
  8
0
100
AcDbLine
 10
0.8599104999999989
 20
113.4
 30
0.0
 11
1.0128405
 21
113.9
 31
0.0
  0
LINE
  5
15C
330
1E
100
AcDbEntity
  8
0
100
AcDbLine
 10
0.8599104999999999
 20
120.1999999999999
 30
0.0
 11
1.0128405
 21
120.7
 31
0.0
  0
LINE
  5
160
330
1E
100
AcDbEntity
  8
0
100
AcDbLine
 10
1.012830499999999
 20
121.7
 30
0.0
 11
1.0128405
 21
120.7
 31
0.0
  0
LINE
  5
161
330
1E
100
AcDbEntity
  8
0
100
AcDbLine
 10
0.8599104999999999
 20
127.0
 30
0.0
 11
1.0128405
 21
127.5
 31
0.0
  0
LINE
  5
163
330
1E
100
AcDbEntity
  8
0
100
AcDbLine
 10
0.8598905000000021
 20
163.0
 30
0.0
 11
1.012830499999999
 21
162.5
 31
0.0
  0
LINE
  5
166
330
1E
100
AcDbEntity
  8
0
100
AcDbLine
 10
0.8598905000000021
 20
156.1999999999999
 30
0.0
 11
1.012830499999999
 21
155.6999999999999
 31
0.0
  0
LINE
  5
167
330
1E
100
AcDbEntity
  8
0
100
AcDbLine
 10
0.8598905000000009
 20
149.3999999999999
 30
0.0
 11
1.012830499999999
 21
148.9
 31
0.0
  0
LINE
  5
169
330
1E
100
AcDbEntity
  8
0
100
AcDbLine
 10
0.8599105000000021
 20
161.0
 30
0.0
 11
1.0128405
 21
161.5
 31
0.0
  0
LINE
  5
16B
330
1E
100
AcDbEntity
  8
0
100
AcDbLine
 10
0.8599105000000021
 20
154.1999999999999
 30
0.0
 11
1.0128405
 21
154.6999999999999
 31
0.0
  0
LINE
  5
16D
330
1E
100
AcDbEntity
  8
0
100
AcDbLine
 10
0.859910500000001
 20
147.4
 30
0.0
 11
1.0128405
 21
147.9
 31
0.0
  0
LINE
  5
16F
330
1E
100
AcDbEntity
  8
0
100
AcDbLine
 10
0.859910500000001
 20
140.5999999999999
 30
0.0
 11
1.0128405
 21
141.1
 31
0.0
  0
LINE
  5
172
330
1E
100
AcDbEntity
  8
0
100
AcDbLine
 10
0.8598905000000009
 20
142.5999999999999
 30
0.0
 11
1.012830499999999
 21
142.1
 31
0.0
  0
LINE
  5
173
330
1E
100
AcDbEntity
  8
0
100
AcDbLine
 10
0.8599104999999999
 20
133.8
 30
0.0
 11
1.0128405
 21
134.3
 31
0.0
  0
LINE
  5
175
330
1E
100
AcDbEntity
  8
0
100
AcDbLine
 10
0.8598905000000002
 20
135.8
 30
0.0
 11
1.012830499999999
 21
135.3
 31
0.0
  0
LINE
  5
177
330
1E
100
AcDbEntity
  8
0
100
AcDbLine
 10
0.8598905000000002
 20
129.0
 30
0.0
 11
1.012830499999999
 21
128.4999999999999
 31
0.0
  0
LINE
  5
17A
330
1E
100
AcDbEntity
  8
0
100
AcDbLine
 10
1.012830499999999
 20
148.9
 30
0.0
 11
1.0128405
 21
147.9
 31
0.0
  0
LINE
  5
17C
330
1E
100
AcDbEntity
  8
0
100
AcDbLine
 10
1.012830499999999
 20
162.5
 30
0.0
 11
1.0128405
 21
161.5
 31
0.0
  0
LINE
  5
17E
330
1E
100
AcDbEntity
  8
0
100
AcDbLine
 10
1.012830499999999
 20
155.6999999999999
 30
0.0
 11
1.0128405
 21
154.6999999999999
 31
0.0
  0
LINE
  5
180
330
1E
100
AcDbEntity
  8
0
100
AcDbLine
 10
1.1499105
 20
185.0
 30
0.0
 11
2.249910499999999
 21
185.0
 31
0.0
  0
LINE
  5
181
330
1E
100
AcDbEntity
  8
0
100
AcDbLine
 10
2.249910499999999
 20
185.0
 30
0.0
 11
4.1499105
 21
185.0
 31
0.0
  0
LINE
  5
182
330
1E
100
AcDbEntity
  8
0
100
AcDbLine
 10
1.8499105
 20
184.4999999999999
 30
0.0
 11
3.7499105
 21
184.4999999999999
 31
0.0
  0
LINE
  5
183
330
1E
100
AcDbEntity
  8
0
100
AcDbLine
 10
1.8499105
 20
165.5
 30
0.0
 11
3.7499105
 21
165.5
 31
0.0
  0
LINE
  5
184
330
1E
100
AcDbEntity
  8
0
100
AcDbLine
 10
1.6499105
 20
165.0
 30
0.0
 11
2.749910499999999
 21
165.0
 31
0.0
  0
LINE
  5
185
330
1E
100
AcDbEntity
  8
0
100
AcDbLine
 10
1.249910499999999
 20
165.0
 30
0.0
 11
1.6499105
 21
165.0
 31
0.0
  0
LINE
  5
186
330
1E
100
AcDbEntity
  8
0
100
AcDbLine
 10
1.8499105
 20
164.5
 30
0.0
 11
3.7499105
 21
164.5
 31
0.0
  0
LINE
  5
18C
330
1E
100
AcDbEntity
  8
0
100
AcDbLine
 10
1.012830499999999
 20
142.1
 30
0.0
 11
1.0128405
 21
141.1
 31
0.0
  0
LINE
  5
18E
330
1E
100
AcDbEntity
  8
0
100
AcDbLine
 10
1.012830499999999
 20
135.3
 30
0.0
 11
1.0128405
 21
134.3
 31
0.0
  0
LINE
  5
191
330
1E
100
AcDbEntity
  8
0
100
AcDbLine
 10
1.012830499999999
 20
128.4999999999999
 30
0.0
 11
1.0128405
 21
127.5
 31
0.0
  0
LINE
  5
194
330
1E
100
AcDbEntity
  8
0
100
AcDbLine
 10
0.8598905000000002
 20
122.1999999999999
 30
0.0
 11
1.012830499999999
 21
121.7
 31
0.0
  0
LINE
  5
195
330
1E
100
AcDbEntity
  8
0
100
AcDbLine
 10
0.8598904999999989
 20
115.4
 30
0.0
 11
1.012830499999999
 21
114.9
 31
0.0
  0
LINE
  5
197
330
1E
100
AcDbEntity
  8
0
100
AcDbLine
 10
1.012830499999999
 20
114.9
 30
0.0
 11
1.0128405
 21
113.9
 31
0.0
  0
LINE
  5
19A
330
1E
100
AcDbEntity
  8
0
100
AcDbLine
 10
2.579500499999999
 20
161.5
 30
0.0
 11
2.5795305
 21
162.5
 31
0.0
  0
LINE
  5
19B
330
1E
100
AcDbEntity
  8
0
100
AcDbLine
 10
2.579500499999999
 20
161.5
 30
0.0
 11
2.870080499999999
 21
161.0
 31
0.0
  0
LINE
  5
19C
330
1E
100
AcDbEntity
  8
0
100
AcDbLine
 10
2.579500499999999
 20
154.6999999999999
 30
0.0
 11
2.870080499999999
 21
154.1999999999999
 31
0.0
  0
LINE
  5
19D
330
1E
100
AcDbEntity
  8
0
100
AcDbLine
 10
2.579500499999999
 20
154.6999999999999
 30
0.0
 11
2.5795305
 21
155.6999999999999
 31
0.0
  0
LINE
  5
19E
330
1E
100
AcDbEntity
  8
0
100
AcDbLine
 10
2.579500499999999
 20
147.9
 30
0.0
 11
2.870080499999999
 21
147.4
 31
0.0
  0
LINE
  5
19F
330
1E
100
AcDbEntity
  8
0
100
AcDbLine
 10
2.579500499999999
 20
147.9
 30
0.0
 11
2.5795305
 21
148.9
 31
0.0
  0
LINE
  5
1A0
330
1E
100
AcDbEntity
  8
0
100
AcDbLine
 10
2.579500499999999
 20
141.1
 30
0.0
 11
2.870080499999999
 21
140.5999999999999
 31
0.0
  0
LINE
  5
1A1
330
1E
100
AcDbEntity
  8
0
100
AcDbLine
 10
2.579500499999999
 20
141.1
 30
0.0
 11
2.5795305
 21
142.1
 31
0.0
  0
LINE
  5
1A2
330
1E
100
AcDbEntity
  8
0
100
AcDbLine
 10
2.579500499999999
 20
134.3
 30
0.0
 11
2.870080499999999
 21
133.8
 31
0.0
  0
LINE
  5
1A3
330
1E
100
AcDbEntity
  8
0
100
AcDbLine
 10
2.579500499999999
 20
134.3
 30
0.0
 11
2.5795305
 21
135.3
 31
0.0
  0
LINE
  5
1A4
330
1E
100
AcDbEntity
  8
0
100
AcDbLine
 10
2.579500499999999
 20
127.5
 30
0.0
 11
2.870080499999999
 21
127.0
 31
0.0
  0
LINE
  5
1A5
330
1E
100
AcDbEntity
  8
0
100
AcDbLine
 10
2.579500499999999
 20
127.5
 30
0.0
 11
2.5795305
 21
128.4999999999999
 31
0.0
  0
LINE
  5
1A6
330
1E
100
AcDbEntity
  8
0
100
AcDbLine
 10
2.579500499999999
 20
120.7
 30
0.0
 11
2.870080499999999
 21
120.1999999999999
 31
0.0
  0
LINE
  5
1A7
330
1E
100
AcDbEntity
  8
0
100
AcDbLine
 10
2.579500499999999
 20
120.7
 30
0.0
 11
2.5795305
 21
121.7
 31
0.0
  0
LINE
  5
1A8
330
1E
100
AcDbEntity
  8
0
100
AcDbLine
 10
2.749910499999999
 20
165.0
 30
0.0
 11
4.4499105
 21
165.0
 31
0.0
  0
LINE
  5
1A9
330
1E
100
AcDbEntity
  8
0
100
AcDbLine
 10
2.5795305
 20
162.5
 30
0.0
 11
2.870100499999999
 21
163.0
 31
0.0
  0
LINE
  5
1AA
330
1E
100
AcDbEntity
  8
0
100
AcDbLine
 10
2.5795305
 20
155.6999999999999
 30
0.0
 11
2.870100499999999
 21
156.1999999999999
 31
0.0
  0
LINE
  5
1AB
330
1E
100
AcDbEntity
  8
0
100
AcDbLine
 10
2.5795305
 20
148.9
 30
0.0
 11
2.870100499999999
 21
149.3999999999999
 31
0.0
  0
LINE
  5
1AC
330
1E
100
AcDbEntity
  8
0
100
AcDbLine
 10
2.5795305
 20
142.1
 30
0.0
 11
2.870100499999999
 21
142.5999999999999
 31
0.0
  0
LINE
  5
1AD
330
1E
100
AcDbEntity
  8
0
100
AcDbLine
 10
2.5795305
 20
135.3
 30
0.0
 11
2.870100499999999
 21
135.8
 31
0.0
  0
LINE
  5
1AE
330
1E
100
AcDbEntity
  8
0
100
AcDbLine
 10
2.5795305
 20
128.4999999999999
 30
0.0
 11
2.870100499999999
 21
129.0
 31
0.0
  0
LINE
  5
1AF
330
1E
100
AcDbEntity
  8
0
100
AcDbLine
 10
2.870080499999999
 20
161.0
 30
0.0
 11
3.4514105
 21
161.0
 31
0.0
  0
LINE
  5
1B0
330
1E
100
AcDbEntity
  8
0
100
AcDbLine
 10
2.870080499999999
 20
161.0
 30
0.0
 11
3.4830105
 21
161.0
 31
0.0
  0
LINE
  5
1B1
330
1E
100
AcDbEntity
  8
0
100
AcDbLine
 10
2.870080499999999
 20
154.1999999999999
 30
0.0
 11
3.4514105
 21
154.1999999999999
 31
0.0
  0
LINE
  5
1B2
330
1E
100
AcDbEntity
  8
0
100
AcDbLine
 10
2.870080499999999
 20
154.1999999999999
 30
0.0
 11
3.4830105
 21
154.1999999999999
 31
0.0
  0
LINE
  5
1B3
330
1E
100
AcDbEntity
  8
0
100
AcDbLine
 10
2.870080499999999
 20
147.4
 30
0.0
 11
3.4514105
 21
147.4
 31
0.0
  0
LINE
  5
1B4
330
1E
100
AcDbEntity
  8
0
100
AcDbLine
 10
2.870080499999999
 20
147.4
 30
0.0
 11
3.4830105
 21
147.4
 31
0.0
  0
LINE
  5
1B5
330
1E
100
AcDbEntity
  8
0
100
AcDbLine
 10
2.870080499999999
 20
140.5999999999999
 30
0.0
 11
3.4514105
 21
140.5999999999999
 31
0.0
  0
LINE
  5
1B6
330
1E
100
AcDbEntity
  8
0
100
AcDbLine
 10
2.870080499999999
 20
140.5999999999999
 30
0.0
 11
3.45407988110749
 21
140.5999999999999
 31
0.0
  0
LINE
  5
1B7
330
1E
100
AcDbEntity
  8
0
100
AcDbLine
 10
2.870080499999999
 20
133.8
 30
0.0
 11
3.4514105
 21
133.8
 31
0.0
  0
LINE
  5
1B8
330
1E
100
AcDbEntity
  8
0
100
AcDbLine
 10
2.870080499999999
 20
133.8
 30
0.0
 11
3.3699105
 21
133.8
 31
0.0
  0
LINE
  5
1B9
330
1E
100
AcDbEntity
  8
0
100
AcDbLine
 10
2.870080499999999
 20
127.0
 30
0.0
 11
3.4514105
 21
127.0
 31
0.0
  0
LINE
  5
1BA
330
1E
100
AcDbEntity
  8
0
100
AcDbLine
 10
2.870080499999999
 20
127.0
 30
0.0
 11
3.285741118892509
 21
127.0
 31
0.0
  0
LINE
  5
1BB
330
1E
100
AcDbEntity
  8
0
100
AcDbLine
 10
2.870080499999999
 20
120.1999999999999
 30
0.0
 11
3.4514105
 21
120.1999999999999
 31
0.0
  0
LINE
  5
1BC
330
1E
100
AcDbEntity
  8
0
100
AcDbLine
 10
2.870080499999999
 20
120.1999999999999
 30
0.0
 11
3.201571737785019
 21
120.1999999999999
 31
0.0
  0
LINE
  5
1BD
330
1E
100
AcDbEntity
  8
0
100
AcDbLine
 10
2.5795305
 20
121.7
 30
0.0
 11
2.870100499999999
 21
122.1999999999999
 31
0.0
  0
LINE
  5
1BE
330
1E
100
AcDbEntity
  8
0
100
AcDbLine
 10
2.5795305
 20
114.9
 30
0.0
 11
2.870100499999999
 21
115.4
 31
0.0
  0
LINE
  5
1BF
330
1E
100
AcDbEntity
  8
0
100
AcDbLine
 10
2.579500499999999
 20
113.9
 30
0.0
 11
2.870080499999999
 21
113.4
 31
0.0
  0
LINE
  5
1C0
330
1E
100
AcDbEntity
  8
0
100
AcDbLine
 10
2.579500499999999
 20
113.9
 30
0.0
 11
2.5795305
 21
114.9
 31
0.0
  0
LINE
  5
1C1
330
1E
100
AcDbEntity
  8
0
100
AcDbLine
 10
2.870080499999999
 20
113.4
 30
0.0
 11
3.4514105
 21
113.4
 31
0.0
  0
LINE
  5
1C2
330
1E
100
AcDbEntity
  8
0
100
AcDbLine
 10
2.870080499999999
 20
113.4
 30
0.0
 11
3.11740235667752
 21
113.4
 31
0.0
  0
LINE
  5
1C4
330
1E
100
AcDbEntity
  8
0
100
AcDbLine
 10
0.8598904999999989
 20
108.6
 30
0.0
 11
1.012830499999999
 21
108.0999999999999
 31
0.0
  0
LINE
  5
1C5
330
1E
100
AcDbEntity
  8
0
100
AcDbLine
 10
2.5795305
 20
108.0999999999999
 30
0.0
 11
2.870100499999999
 21
108.6
 31
0.0
  0
LINE
  5
1C7
330
1E
100
AcDbEntity
  8
0
100
AcDbLine
 10
0.8598904999999978
 20
101.8
 30
0.0
 11
1.012830499999999
 21
101.2999999999999
 31
0.0
  0
LINE
  5
1C9
330
1E
100
AcDbEntity
  8
0
100
AcDbLine
 10
2.5795305
 20
101.2999999999999
 30
0.0
 11
2.870100499999999
 21
101.8
 31
0.0
  0
LINE
  5
1CB
330
1E
100
AcDbEntity
  8
0
100
AcDbLine
 10
3.741980499999999
 20
100.2999999999999
 30
0.0
 11
3.7420105
 21
101.2999999999999
 31
0.0
  0
LINE
  5
1CE
330
1E
100
AcDbEntity
  8
0
100
AcDbLine
 10
3.4514105
 20
99.80020000000001
 30
0.0
 11
3.741980499999999
 21
100.2999999999999
 31
0.0
  0
LINE
  5
1CF
330
1E
100
AcDbEntity
  8
0
100
AcDbLine
 10
2.870100499999999
 20
101.8
 30
0.0
 11
3.4513905
 21
101.8
 31
0.0
  0
LINE
  5
1D0
330
1E
100
AcDbEntity
  8
0
100
AcDbLine
 10
2.870100499999999
 20
163.0
 30
0.0
 11
3.4513905
 21
163.0
 31
0.0
  0
LINE
  5
1D1
330
1E
100
AcDbEntity
  8
0
100
AcDbLine
 10
2.870100499999999
 20
156.1999999999999
 30
0.0
 11
3.4513905
 21
156.1999999999999
 31
0.0
  0
LINE
  5
1D2
330
1E
100
AcDbEntity
  8
0
100
AcDbLine
 10
2.870100499999999
 20
149.3999999999999
 30
0.0
 11
3.4513905
 21
149.3999999999999
 31
0.0
  0
LINE
  5
1D3
330
1E
100
AcDbEntity
  8
0
100
AcDbLine
 10
2.870100499999999
 20
142.5999999999999
 30
0.0
 11
3.4513905
 21
142.5999999999999
 31
0.0
  0
LINE
  5
1D4
330
1E
100
AcDbEntity
  8
0
100
AcDbLine
 10
2.870100499999999
 20
135.8
 30
0.0
 11
3.4513905
 21
135.8
 31
0.0
  0
LINE
  5
1D5
330
1E
100
AcDbEntity
  8
0
100
AcDbLine
 10
2.870100499999999
 20
129.0
 30
0.0
 11
3.4513905
 21
129.0
 31
0.0
  0
LINE
  5
1D6
330
1E
100
AcDbEntity
  8
0
100
AcDbLine
 10
2.870100499999999
 20
122.1999999999999
 30
0.0
 11
3.4513905
 21
122.1999999999999
 31
0.0
  0
LINE
  5
1D7
330
1E
100
AcDbEntity
  8
0
100
AcDbLine
 10
2.870100499999999
 20
115.4
 30
0.0
 11
3.4513905
 21
115.4
 31
0.0
  0
LINE
  5
1D8
330
1E
100
AcDbEntity
  8
0
100
AcDbLine
 10
3.4513905
 20
115.4
 30
0.0
 11
3.7420105
 21
114.9
 31
0.0
  0
LINE
  5
1DA
330
1E
100
AcDbEntity
  8
0
100
AcDbLine
 10
2.870100499999999
 20
108.6
 30
0.0
 11
3.4513905
 21
108.6
 31
0.0
  0
LINE
  5
1DC
330
1E
100
AcDbEntity
  8
0
100
AcDbLine
 10
3.4514105
 20
120.1999999999999
 30
0.0
 11
3.741980499999999
 21
120.7
 31
0.0
  0
LINE
  5
1DD
330
1E
100
AcDbEntity
  8
0
100
AcDbLine
 10
3.4513905
 20
163.0
 30
0.0
 11
3.7420105
 21
162.5
 31
0.0
  0
LINE
  5
1E0
330
1E
100
AcDbEntity
  8
0
100
AcDbLine
 10
3.4513905
 20
156.1999999999999
 30
0.0
 11
3.7420105
 21
155.6999999999999
 31
0.0
  0
LINE
  5
1E1
330
1E
100
AcDbEntity
  8
0
100
AcDbLine
 10
3.4513905
 20
149.3999999999999
 30
0.0
 11
3.7420105
 21
148.9
 31
0.0
  0
LINE
  5
1E4
330
1E
100
AcDbEntity
  8
0
100
AcDbLine
 10
3.4513905
 20
142.5999999999999
 30
0.0
 11
3.7420105
 21
142.1
 31
0.0
  0
LINE
  5
1E5
330
1E
100
AcDbEntity
  8
0
100
AcDbLine
 10
3.4513905
 20
135.8
 30
0.0
 11
3.7420105
 21
135.3
 31
0.0
  0
LINE
  5
1E7
330
1E
100
AcDbEntity
  8
0
100
AcDbLine
 10
3.4513905
 20
129.0
 30
0.0
 11
3.7420105
 21
128.4999999999999
 31
0.0
  0
LINE
  5
1E9
330
1E
100
AcDbEntity
  8
0
100
AcDbLine
 10
3.4514105
 20
147.4
 30
0.0
 11
3.741980499999999
 21
147.9
 31
0.0
  0
LINE
  5
1EB
330
1E
100
AcDbEntity
  8
0
100
AcDbLine
 10
3.4514105
 20
161.0
 30
0.0
 11
3.741980499999999
 21
161.5
 31
0.0
  0
LINE
  5
1ED
330
1E
100
AcDbEntity
  8
0
100
AcDbLine
 10
3.4514105
 20
154.1999999999999
 30
0.0
 11
3.741980499999999
 21
154.6999999999999
 31
0.0
  0
LINE
  5
1F0
330
1E
100
AcDbEntity
  8
0
100
AcDbLine
 10
3.4514105
 20
140.5999999999999
 30
0.0
 11
3.741980499999999
 21
141.1
 31
0.0
  0
LINE
  5
1F1
330
1E
100
AcDbEntity
  8
0
100
AcDbLine
 10
3.4514105
 20
133.8
 30
0.0
 11
3.741980499999999
 21
134.3
 31
0.0
  0
LINE
  5
1F3
330
1E
100
AcDbEntity
  8
0
100
AcDbLine
 10
3.4514105
 20
127.0
 30
0.0
 11
3.741980499999999
 21
127.5
 31
0.0
  0
LINE
  5
1F6
330
1E
100
AcDbEntity
  8
0
100
AcDbLine
 10
3.4513905
 20
122.1999999999999
 30
0.0
 11
3.7420105
 21
121.7
 31
0.0
  0
LINE
  5
1F7
330
1E
100
AcDbEntity
  8
0
100
AcDbLine
 10
3.741980499999999
 20
113.9
 30
0.0
 11
3.7420105
 21
114.9
 31
0.0
  0
LINE
  5
1F9
330
1E
100
AcDbEntity
  8
0
100
AcDbLine
 10
3.4514105
 20
113.4
 30
0.0
 11
3.741980499999999
 21
113.9
 31
0.0
  0
LINE
  5
1FC
330
1E
100
AcDbEntity
  8
0
100
AcDbLine
 10
3.741980499999999
 20
154.6999999999999
 30
0.0
 11
3.7420105
 21
155.6999999999999
 31
0.0
  0
LINE
  5
1FE
330
1E
100
AcDbEntity
  8
0
100
AcDbLine
 10
3.741980499999999
 20
161.5
 30
0.0
 11
3.7420105
 21
162.5
 31
0.0
  0
LINE
  5
200
330
1E
100
AcDbEntity
  8
0
100
AcDbLine
 10
3.741980499999999
 20
147.9
 30
0.0
 11
3.7420105
 21
148.9
 31
0.0
  0
LINE
  5
201
330
1E
100
AcDbEntity
  8
0
100
AcDbLine
 10
3.741980499999999
 20
141.1
 30
0.0
 11
3.7420105
 21
142.1
 31
0.0
  0
LINE
  5
203
330
1E
100
AcDbEntity
  8
0
100
AcDbLine
 10
3.741980499999999
 20
134.3
 30
0.0
 11
3.7420105
 21
135.3
 31
0.0
  0
LINE
  5
205
330
1E
100
AcDbEntity
  8
0
100
AcDbLine
 10
3.741980499999999
 20
127.5
 30
0.0
 11
3.7420105
 21
128.4999999999999
 31
0.0
  0
LINE
  5
208
330
1E
100
AcDbEntity
  8
0
100
AcDbLine
 10
3.741980499999999
 20
120.7
 30
0.0
 11
3.7420105
 21
121.7
 31
0.0
  0
LINE
  5
20B
330
1E
100
AcDbEntity
  8
0
100
AcDbLine
 10
3.7499105
 20
164.5
 30
0.0
 11
6.2499105
 21
164.5
 31
0.0
  0
LINE
  5
20C
330
1E
100
AcDbEntity
  8
0
100
AcDbLine
 10
4.1499105
 20
185.0
 30
0.0
 11
6.5499105
 21
185.0
 31
0.0
  0
LINE
  5
20D
330
1E
100
AcDbEntity
  8
0
100
AcDbLine
 10
3.7499105
 20
184.4999999999999
 30
0.0
 11
6.2499105
 21
184.4999999999999
 31
0.0
  0
LINE
  5
20E
330
1E
100
AcDbEntity
  8
0
100
AcDbLine
 10
6.2499105
 20
184.4999999999999
 30
0.0
 11
9.149910499999998
 21
184.4999999999999
 31
0.0
  0
LINE
  5
20F
330
1E
100
AcDbEntity
  8
0
100
AcDbLine
 10
3.7499105
 20
165.5
 30
0.0
 11
6.2499105
 21
165.5
 31
0.0
  0
LINE
  5
210
330
1E
100
AcDbEntity
  8
0
100
AcDbLine
 10
6.5499105
 20
185.0
 30
0.0
 11
9.2499105
 21
185.0
 31
0.0
  0
LINE
  5
211
330
1E
100
AcDbEntity
  8
0
100
AcDbLine
 10
6.2499105
 20
165.5
 30
0.0
 11
9.149910499999998
 21
165.5
 31
0.0
  0
LINE
  5
212
330
1E
100
AcDbEntity
  8
0
100
AcDbLine
 10
4.4499105
 20
165.0
 30
0.0
 11
6.749910499999999
 21
165.0
 31
0.0
  0
LINE
  5
213
330
1E
100
AcDbEntity
  8
0
100
AcDbLine
 10
9.149910499999998
 20
165.5
 30
0.0
 11
12.2499105
 21
165.5
 31
0.0
  0
LINE
  5
214
330
1E
100
AcDbEntity
  8
0
100
AcDbLine
 10
6.749910499999999
 20
165.0
 30
0.0
 11
9.449910499999999
 21
165.0
 31
0.0
  0
LINE
  5
215
330
1E
100
AcDbEntity
  8
0
100
AcDbLine
 10
6.2499105
 20
164.5
 30
0.0
 11
9.149910499999998
 21
164.5
 31
0.0
  0
LINE
  5
216
330
1E
100
AcDbEntity
  8
0
100
AcDbLine
 10
12.2499105
 20
165.0
 30
0.0
 11
15.0499105
 21
165.0
 31
0.0
  0
LINE
  5
217
330
1E
100
AcDbEntity
  8
0
100
AcDbLine
 10
20.7499105
 20
164.5
 30
0.0
 11
22.6499105
 21
164.5
 31
0.0
  0
LINE
  5
218
330
1E
100
AcDbEntity
  8
0
100
AcDbLine
 10
22.6499105
 20
164.5
 30
0.0
 11
23.8499105
 21
164.5
 31
0.0
  0
LINE
  5
219
330
1E
100
AcDbEntity
  8
0
100
AcDbLine
 10
23.8499105
 20
164.5
 30
0.0
 11
24.2499105
 21
164.5
 31
0.0
  0
LINE
  5
21A
330
1E
100
AcDbEntity
  8
0
100
AcDbLine
 10
18.2499105
 20
164.5
 30
0.0
 11
20.7499105
 21
164.5
 31
0.0
  0
LINE
  5
21B
330
1E
100
AcDbEntity
  8
0
100
AcDbLine
 10
20.0499105
 20
165.0
 30
0.0
 11
21.7499105
 21
165.0
 31
0.0
  0
LINE
  5
21C
330
1E
100
AcDbEntity
  8
0
100
AcDbLine
 10
21.7499105
 20
165.0
 30
0.0
 11
22.84991049999999
 21
165.0
 31
0.0
  0
LINE
  5
21D
330
1E
100
AcDbEntity
  8
0
100
AcDbLine
 10
23.2499105
 20
165.0
 30
0.0
 11
24.2499105
 21
164.5
 31
0.0
  0
LINE
  5
21E
330
1E
100
AcDbEntity
  8
0
100
AcDbLine
 10
23.2499105
 20
165.0
 30
0.0
 11
24.2499105
 21
165.5
 31
0.0
  0
LINE
  5
21F
330
1E
100
AcDbEntity
  8
0
100
AcDbLine
 10
22.84991049999999
 20
165.0
 30
0.0
 11
23.2499105
 21
165.0
 31
0.0
  0
LINE
  5
220
330
1E
100
AcDbEntity
  8
0
100
AcDbLine
 10
17.7499105
 20
165.0
 30
0.0
 11
20.0499105
 21
165.0
 31
0.0
  0
LINE
  5
221
330
1E
100
AcDbEntity
  8
0
100
AcDbLine
 10
15.0499105
 20
165.0
 30
0.0
 11
17.7499105
 21
165.0
 31
0.0
  0
LINE
  5
222
330
1E
100
AcDbEntity
  8
0
100
AcDbLine
 10
15.3499105
 20
164.5
 30
0.0
 11
18.2499105
 21
164.5
 31
0.0
  0
LINE
  5
223
330
1E
100
AcDbEntity
  8
0
100
AcDbLine
 10
12.2499105
 20
164.5
 30
0.0
 11
15.3499105
 21
164.5
 31
0.0
  0
LINE
  5
224
330
1E
100
AcDbEntity
  8
0
100
AcDbLine
 10
20.7499105
 20
165.5
 30
0.0
 11
22.6499105
 21
165.5
 31
0.0
  0
LINE
  5
225
330
1E
100
AcDbEntity
  8
0
100
AcDbLine
 10
24.2499105
 20
165.5
 30
0.0
 11
24.2499105
 21
184.4999999999999
 31
0.0
  0
LINE
  5
226
330
1E
100
AcDbEntity
  8
0
100
AcDbLine
 10
22.6499105
 20
165.5
 30
0.0
 11
23.8499105
 21
165.5
 31
0.0
  0
LINE
  5
227
330
1E
100
AcDbEntity
  8
0
100
AcDbLine
 10
23.8499105
 20
165.5
 30
0.0
 11
24.2499105
 21
165.5
 31
0.0
  0
LINE
  5
228
330
1E
100
AcDbEntity
  8
0
100
AcDbLine
 10
18.2499105
 20
165.5
 30
0.0
 11
20.7499105
 21
165.5
 31
0.0
  0
LINE
  5
229
330
1E
100
AcDbEntity
  8
0
100
AcDbLine
 10
12.2499105
 20
185.0
 30
0.0
 11
15.2499105
 21
185.0
 31
0.0
  0
LINE
  5
22A
330
1E
100
AcDbEntity
  8
0
100
AcDbLine
 10
20.7499105
 20
184.4999999999999
 30
0.0
 11
22.6499105
 21
184.4999999999999
 31
0.0
  0
LINE
  5
22B
330
1E
100
AcDbEntity
  8
0
100
AcDbLine
 10
22.6499105
 20
184.4999999999999
 30
0.0
 11
23.8499105
 21
184.4999999999999
 31
0.0
  0
LINE
  5
22C
330
1E
100
AcDbEntity
  8
0
100
AcDbLine
 10
23.8499105
 20
184.4999999999999
 30
0.0
 11
24.2499105
 21
184.4999999999999
 31
0.0
  0
LINE
  5
22D
330
1E
100
AcDbEntity
  8
0
100
AcDbLine
 10
18.2499105
 20
184.4999999999999
 30
0.0
 11
20.7499105
 21
184.4999999999999
 31
0.0
  0
LINE
  5
22E
330
1E
100
AcDbEntity
  8
0
100
AcDbLine
 10
20.34991049999999
 20
185.0
 30
0.0
 11
22.2499105
 21
185.0
 31
0.0
  0
LINE
  5
22F
330
1E
100
AcDbEntity
  8
0
100
AcDbLine
 10
22.2499105
 20
185.0
 30
0.0
 11
23.3499105
 21
185.0
 31
0.0
  0
LINE
  5
230
330
1E
100
AcDbEntity
  8
0
100
AcDbLine
 10
23.7499105
 20
185.0
 30
0.0
 11
24.2499105
 21
184.4999999999999
 31
0.0
  0
LINE
  5
231
330
1E
100
AcDbEntity
  8
0
100
AcDbLine
 10
23.3499105
 20
185.0
 30
0.0
 11
23.7499105
 21
185.0
 31
0.0
  0
LINE
  5
232
330
1E
100
AcDbEntity
  8
0
100
AcDbLine
 10
17.9499105
 20
185.0
 30
0.0
 11
20.34991049999999
 21
185.0
 31
0.0
  0
LINE
  5
233
330
1E
100
AcDbEntity
  8
0
100
AcDbLine
 10
15.2499105
 20
185.0
 30
0.0
 11
17.9499105
 21
185.0
 31
0.0
  0
LINE
  5
234
330
1E
100
AcDbEntity
  8
0
100
AcDbLine
 10
15.3499105
 20
184.4999999999999
 30
0.0
 11
18.2499105
 21
184.4999999999999
 31
0.0
  0
LINE
  5
235
330
1E
100
AcDbEntity
  8
0
100
AcDbLine
 10
12.2499105
 20
184.4999999999999
 30
0.0
 11
15.3499105
 21
184.4999999999999
 31
0.0
  0
LINE
  5
236
330
1E
100
AcDbEntity
  8
0
100
AcDbLine
 10
15.3499105
 20
165.5
 30
0.0
 11
18.2499105
 21
165.5
 31
0.0
  0
LINE
  5
237
330
1E
100
AcDbEntity
  8
0
100
AcDbLine
 10
12.2499105
 20
165.5
 30
0.0
 11
15.3499105
 21
165.5
 31
0.0
  0
LINE
  5
238
330
1E
100
AcDbEntity
  8
0
100
AcDbLine
 10
9.2499105
 20
185.0
 30
0.0
 11
12.2499105
 21
185.0
 31
0.0
  0
LINE
  5
239
330
1E
100
AcDbEntity
  8
0
100
AcDbLine
 10
9.149910499999998
 20
184.4999999999999
 30
0.0
 11
12.2499105
 21
184.4999999999999
 31
0.0
  0
LINE
  5
23A
330
1E
100
AcDbEntity
  8
0
100
AcDbLine
 10
9.449910499999999
 20
165.0
 30
0.0
 11
12.2499105
 21
165.0
 31
0.0
  0
LINE
  5
23B
330
1E
100
AcDbEntity
  8
0
100
AcDbLine
 10
9.149910499999998
 20
164.5
 30
0.0
 11
12.2499105
 21
164.5
 31
0.0
  0
LINE
  5
243
330
1E
100
AcDbEntity
  8
0
100
AcDbLine
 10
3.741980499999999
 20
107.0999999999999
 30
0.0
 11
3.7420105
 21
108.0999999999999
 31
0.0
  0
LINE
  5
246
330
1E
100
AcDbEntity
  8
0
100
AcDbLine
 10
3.4514105
 20
106.6
 30
0.0
 11
3.741980499999999
 21
107.0999999999999
 31
0.0
  0
LINE
  5
248
330
1E
100
AcDbEntity
  8
0
100
AcDbLine
 10
3.4513905
 20
108.6
 30
0.0
 11
3.7420105
 21
108.0999999999999
 31
0.0
  0
LINE
  5
24A
330
1E
100
AcDbEntity
  8
0
100
AcDbLine
 10
3.4513905
 20
101.8
 30
0.0
 11
3.7420105
 21
101.2999999999999
 31
0.0
  0
LINE
  5
24B
330
1E
100
AcDbEntity
  8
0
100
AcDbLine
 10
2.870100499999999
 20
95.0003
 30
0.0
 11
3.4513905
 21
95.00020000000001
 31
0.0
  0
LINE
  5
24C
330
1E
100
AcDbEntity
  8
0
100
AcDbLine
 10
2.870100499999999
 20
95.0003
 30
0.0
 11
3.483030499999999
 21
95.0003
 31
0.0
  0
LINE
  5
24D
330
1E
100
AcDbEntity
  8
0
100
AcDbLine
 10
3.4513905
 20
95.00020000000001
 30
0.0
 11
3.7420105
 21
94.50029999999999
 31
0.0
  0
LINE
  5
24F
330
1E
100
AcDbEntity
  8
0
100
AcDbLine
 10
0.8598904999999978
 20
95.00020000000001
 30
0.0
 11
1.012830499999999
 21
94.5002
 31
0.0
  0
LINE
  5
251
330
1E
100
AcDbEntity
  8
0
100
AcDbLine
 10
1.012830499999999
 20
94.5002
 30
0.0
 11
1.0128405
 21
93.5002
 31
0.0
  0
LINE
  5
253
330
1E
100
AcDbEntity
  8
0
100
AcDbLine
 10
0.4010744999999981
 20
93.5003
 30
0.0
 11
0.554010499999998
 21
93.00020000000001
 31
0.0
  0
LINE
  5
254
330
1E
100
AcDbEntity
  8
0
100
AcDbLine
 10
-0.249888500000002
 20
93.00029999999999
 30
0.0
 11
0.2499104999999981
 21
93.00029999999999
 31
0.0
  0
LINE
  5
255
330
1E
100
AcDbEntity
  8
0
100
AcDbLine
 10
-0.249888500000002
 20
93.00029999999999
 30
0.0
 11
0.2499104999999981
 21
93.00029999999999
 31
0.0
  0
ENDSEC
  0
SECTION
  2
OBJECTS
  0
DICTIONARY
  5
C
330
0
100
AcDbDictionary
281
     1
  3
ACAD_GROUP
350
D
  3
ACAD_LAYOUT
350
19
  3
ACAD_MLINESTYLE
350
16
  3
ACAD_PLOTSETTINGS
350
18
  3
ACAD_PLOTSTYLENAME
350
E
  3
AcDbVariableDictionary
350
25A
  0
DICTIONARY
  5
D
102
{ACAD_REACTORS
330
C
102
}
330
C
100
AcDbDictionary
281
     1
  0
DICTIONARY
  5
19
102
{ACAD_REACTORS
330
C
102
}
330
C
100
AcDbDictionary
281
     1
  3
Layout1
350
1D
  3
Model
350
21
  0
DICTIONARY
  5
16
102
{ACAD_REACTORS
330
C
102
}
330
C
100
AcDbDictionary
281
     1
  3
Standard
350
17
  0
DICTIONARY
  5
18
102
{ACAD_REACTORS
330
C
102
}
330
C
100
AcDbDictionary
281
     1
  0
ACDBDICTIONARYWDFLT
  5
E
102
{ACAD_REACTORS
330
C
102
}
330
C
100
AcDbDictionary
281
     1
  3
Normal
350
F
100
AcDbDictionaryWithDefault
340
F
  0
DICTIONARY
  5
25A
102
{ACAD_REACTORS
330
C
102
}
330
C
100
AcDbDictionary
281
     1
  3
DIMASSOC
350
25B
  0
LAYOUT
  5
1D
102
{ACAD_REACTORS
330
19
102
}
330
19
100
AcDbPlotSettings
  1

  2
hp deskjet 980c series
  4

  6

 40
0.0
 41
0.0
 42
0.0
 43
0.0
 44
0.0
 45
0.0
 46
0.0
 47
0.0
 48
0.0
 49
0.0
140
0.0
141
0.0
142
1.0
143
1.0
 70
   688
 72
     0
 73
     0
 74
     5
  7

 75
    16
147
1.0
148
0.0
149
0.0
100
AcDbLayout
  1
Layout1
 70
     1
 71
     1
 10
0.0
 20
0.0
 11
12.0
 21
9.0
 12
0.0
 22
0.0
 32
0.0
 14
1.000000000000000E+20
 24
1.000000000000000E+20
 34
1.000000000000000E+20
 15
-1.000000000000000E+20
 25
-1.000000000000000E+20
 35
-1.000000000000000E+20
146
0.0
 13
0.0
 23
0.0
 33
0.0
 16
1.0
 26
0.0
 36
0.0
 17
0.0
 27
1.0
 37
0.0
 76
     0
330
1A
  0
LAYOUT
  5
21
102
{ACAD_REACTORS
330
19
102
}
330
19
100
AcDbPlotSettings
  1

  2
hp deskjet 980c series
  4

  6

 40
0.0
 41
0.0
 42
0.0
 43
0.0
 44
0.0
 45
0.0
 46
0.0
 47
0.0
 48
0.0
 49
0.0
140
0.0
141
0.0
142
1.0
143
1.0
 70
  1712
 72
     0
 73
     0
 74
     0
  7

 75
     0
147
1.0
148
0.0
149
0.0
100
AcDbLayout
  1
Model
 70
     1
 71
     0
 10
0.0
 20
0.0
 11
12.0
 21
9.0
 12
0.0
 22
0.0
 32
0.0
 14
0.0
 24
0.0
 34
0.0
 15
0.0
 25
0.0
 35
0.0
146
0.0
 13
0.0
 23
0.0
 33
0.0
 16
1.0
 26
0.0
 36
0.0
 17
0.0
 27
1.0
 37
0.0
 76
     0
330
1E
  0
MLINESTYLE
  5
17
102
{ACAD_REACTORS
330
16
102
}
330
16
100
AcDbMlineStyle
  2
STANDARD
 70
     0
  3

 62
   256
 51
90.0
 52
90.0
 71
     2
 49
0.5
 62
   256
  6
BYLAYER
 49
-0.5
 62
   256
  6
BYLAYER
  0
ACDBPLACEHOLDER
  5
F
102
{ACAD_REACTORS
330
E
102
}
330
E
  0
DICTIONARYVAR
  5
25B
102
{ACAD_REACTORS
330
25A
102
}
330
25A
100
DictionaryVariables
280
     0
  1
1
  0
ENDSEC
  0
EOF
