  0
SECTION
  2
HEADER
  9
$ACADVER
  1
AC1015
  9
$ACADMAINTVER
 70
    13
  9
$DWGCODEPAGE
  3
ANSI_1252
  9
$INSBASE
 10
0.0
 20
0.0
 30
0.0
  9
$EXTMIN
 10
0.0000000000000007
 20
-0.0000000000000065
 30
0.0
  9
$EXTMAX
 10
24.0
 20
185.0
 30
0.0
  9
$LIMMIN
 10
0.0
 20
0.0
  9
$LIMMAX
 10
12.0
 20
9.0
  9
$ORTHOMODE
 70
     0
  9
$REGENMODE
 70
     1
  9
$FILLMODE
 70
     1
  9
$QTEXTMODE
 70
     0
  9
$MIRRTEXT
 70
     1
  9
$LTSCALE
 40
1.0
  9
$ATTMODE
 70
     1
  9
$TEXTSIZE
 40
0.2
  9
$TRACEWID
 40
0.05
  9
$TEXTSTYLE
  7
Standard
  9
$CLAYER
  8
0
  9
$CELTYPE
  6
Continuous
  9
$CECOLOR
 62
   256
  9
$CELTSCALE
 40
1.0
  9
$DISPSILH
 70
     0
  9
$DIMSCALE
 40
1.0
  9
$DIMASZ
 40
0.18
  9
$DIMEXO
 40
0.0625
  9
$DIMDLI
 40
0.38
  9
$DIMRND
 40
0.0
  9
$DIMDLE
 40
0.0
  9
$DIMEXE
 40
0.18
  9
$DIMTP
 40
0.0
  9
$DIMTM
 40
0.0
  9
$DIMTXT
 40
0.18
  9
$DIMCEN
 40
0.09
  9
$DIMTSZ
 40
0.0
  9
$DIMTOL
 70
     0
  9
$DIMLIM
 70
     0
  9
$DIMTIH
 70
     1
  9
$DIMTOH
 70
     1
  9
$DIMSE1
 70
     0
  9
$DIMSE2
 70
     0
  9
$DIMTAD
 70
     0
  9
$DIMZIN
 70
     0
  9
$DIMBLK
  1

  9
$DIMASO
 70
     1
  9
$DIMSHO
 70
     1
  9
$DIMPOST
  1

  9
$DIMAPOST
  1

  9
$DIMALT
 70
     0
  9
$DIMALTD
 70
     2
  9
$DIMALTF
 40
25.4
  9
$DIMLFAC
 40
1.0
  9
$DIMTOFL
 70
     0
  9
$DIMTVP
 40
0.0
  9
$DIMTIX
 70
     0
  9
$DIMSOXD
 70
     0
  9
$DIMSAH
 70
     0
  9
$DIMBLK1
  1

  9
$DIMBLK2
  1

  9
$DIMSTYLE
  2
Standard
  9
$DIMCLRD
 70
     0
  9
$DIMCLRE
 70
     0
  9
$DIMCLRT
 70
     0
  9
$DIMTFAC
 40
1.0
  9
$DIMGAP
 40
0.09
  9
$DIMJUST
 70
     0
  9
$DIMSD1
 70
     0
  9
$DIMSD2
 70
     0
  9
$DIMTOLJ
 70
     1
  9
$DIMTZIN
 70
     0
  9
$DIMALTZ
 70
     0
  9
$DIMALTTZ
 70
     0
  9
$DIMUPT
 70
     0
  9
$DIMDEC
 70
     4
  9
$DIMTDEC
 70
     4
  9
$DIMALTU
 70
     2
  9
$DIMALTTD
 70
     2
  9
$DIMTXSTY
  7
Standard
  9
$DIMAUNIT
 70
     0
  9
$DIMADEC
 70
     0
  9
$DIMALTRND
 40
0.0
  9
$DIMAZIN
 70
     0
  9
$DIMDSEP
 70
    46
  9
$DIMATFIT
 70
     3
  9
$DIMFRAC
 70
     0
  9
$DIMLDRBLK
  1

  9
$DIMLUNIT
 70
     2
  9
$DIMLWD
 70
    -2
  9
$DIMLWE
 70
    -2
  9
$DIMTMOVE
 70
     0
  9
$LUNITS
 70
     2
  9
$LUPREC
 70
     4
  9
$SKETCHINC
 40
0.1
  9
$FILLETRAD
 40
0.0
  9
$AUNITS
 70
     0
  9
$AUPREC
 70
     0
  9
$MENU
  1
.
  9
$ELEVATION
 40
0.0
  9
$PELEVATION
 40
0.0
  9
$THICKNESS
 40
0.0
  9
$LIMCHECK
 70
     0
  9
$CHAMFERA
 40
0.0
  9
$CHAMFERB
 40
0.0
  9
$CHAMFERC
 40
0.0
  9
$CHAMFERD
 40
0.0
  9
$SKPOLY
 70
     0
  9
$TDCREATE
 40
2454745.702426574
  9
$TDUCREATE
 40
2454745.619093241
  9
$TDUPDATE
 40
2454745.706912615
  9
$TDUUPDATE
 40
2454745.623579282
  9
$TDINDWG
 40
0.0044860417
  9
$TDUSRTIMER
 40
0.0044860417
  9
$USRTIMER
 70
     1
  9
$ANGBASE
 50
0.0
  9
$ANGDIR
 70
     0
  9
$PDMODE
 70
     0
  9
$PDSIZE
 40
0.0
  9
$PLINEWID
 40
0.0
  9
$SPLFRAME
 70
     0
  9
$SPLINETYPE
 70
     6
  9
$SPLINESEGS
 70
     8
  9
$HANDSEED
  5
579
  9
$SURFTAB1
 70
     6
  9
$SURFTAB2
 70
     6
  9
$SURFTYPE
 70
     6
  9
$SURFU
 70
     6
  9
$SURFV
 70
     6
  9
$UCSBASE
  2

  9
$UCSNAME
  2

  9
$UCSORG
 10
0.0
 20
0.0
 30
0.0
  9
$UCSXDIR
 10
1.0
 20
0.0
 30
0.0
  9
$UCSYDIR
 10
0.0
 20
1.0
 30
0.0
  9
$UCSORTHOREF
  2

  9
$UCSORTHOVIEW
 70
     1
  9
$UCSORGTOP
 10
0.0
 20
0.0
 30
0.0
  9
$UCSORGBOTTOM
 10
0.0
 20
0.0
 30
0.0
  9
$UCSORGLEFT
 10
0.0
 20
0.0
 30
0.0
  9
$UCSORGRIGHT
 10
0.0
 20
0.0
 30
0.0
  9
$UCSORGFRONT
 10
0.0
 20
0.0
 30
0.0
  9
$UCSORGBACK
 10
0.0
 20
0.0
 30
0.0
  9
$PUCSBASE
  2

  9
$PUCSNAME
  2

  9
$PUCSORG
 10
0.0
 20
0.0
 30
0.0
  9
$PUCSXDIR
 10
1.0
 20
0.0
 30
0.0
  9
$PUCSYDIR
 10
0.0
 20
1.0
 30
0.0
  9
$PUCSORTHOREF
  2

  9
$PUCSORTHOVIEW
 70
     0
  9
$PUCSORGTOP
 10
0.0
 20
0.0
 30
0.0
  9
$PUCSORGBOTTOM
 10
0.0
 20
0.0
 30
0.0
  9
$PUCSORGLEFT
 10
0.0
 20
0.0
 30
0.0
  9
$PUCSORGRIGHT
 10
0.0
 20
0.0
 30
0.0
  9
$PUCSORGFRONT
 10
0.0
 20
0.0
 30
0.0
  9
$PUCSORGBACK
 10
0.0
 20
0.0
 30
0.0
  9
$USERI1
 70
     0
  9
$USERI2
 70
     0
  9
$USERI3
 70
     0
  9
$USERI4
 70
     0
  9
$USERI5
 70
     0
  9
$USERR1
 40
0.0
  9
$USERR2
 40
0.0
  9
$USERR3
 40
0.0
  9
$USERR4
 40
0.0
  9
$USERR5
 40
0.0
  9
$WORLDVIEW
 70
     1
  9
$SHADEDGE
 70
     3
  9
$SHADEDIF
 70
    70
  9
$TILEMODE
 70
     1
  9
$MAXACTVP
 70
    64
  9
$PINSBASE
 10
0.0
 20
0.0
 30
0.0
  9
$PLIMCHECK
 70
     0
  9
$PEXTMIN
 10
1.000000000000000E+20
 20
1.000000000000000E+20
 30
1.000000000000000E+20
  9
$PEXTMAX
 10
-1.000000000000000E+20
 20
-1.000000000000000E+20
 30
-1.000000000000000E+20
  9
$PLIMMIN
 10
0.0
 20
0.0
  9
$PLIMMAX
 10
12.0
 20
9.0
  9
$UNITMODE
 70
     0
  9
$VISRETAIN
 70
     1
  9
$PLINEGEN
 70
     0
  9
$PSLTSCALE
 70
     1
  9
$TREEDEPTH
 70
  3020
  9
$CMLSTYLE
  2
Standard
  9
$CMLJUST
 70
     0
  9
$CMLSCALE
 40
1.0
  9
$PROXYGRAPHICS
 70
     1
  9
$MEASUREMENT
 70
     0
  9
$CELWEIGHT
370
    -1
  9
$ENDCAPS
280
     0
  9
$JOINSTYLE
280
     0
  9
$LWDISPLAY
290
     0
  9
$INSUNITS
 70
     0
  9
$HYPERLINKBASE
  1

  9
$STYLESHEET
  1

  9
$XEDIT
290
     1
  9
$CEPSNTYPE
380
     0
  9
$PSTYLEMODE
290
     1
  9
$FINGERPRINTGUID
  2
{7DC0B395-BDCD-438F-B2F1-40D27E9BDF71}
  9
$VERSIONGUID
  2
{CDFD6D2E-678A-4FF0-B5D8-C2459F245005}
  9
$EXTNAMES
290
     1
  9
$PSVPSCALE
 40
0.0
  9
$OLESTARTUP
290
     0
  0
ENDSEC
  0
SECTION
  2
CLASSES
  0
CLASS
  1
ACDBDICTIONARYWDFLT
  2
AcDbDictionaryWithDefault
  3
AutoCAD 2000
 90
        0
280
     0
281
     0
  0
CLASS
  1
ACDBPLACEHOLDER
  2
AcDbPlaceHolder
  3
AutoCAD 2000
 90
        0
280
     0
281
     0
  0
CLASS
  1
LAYOUT
  2
AcDbLayout
  3
AutoCAD 2000
 90
        0
280
     0
281
     0
  0
CLASS
  1
DICTIONARYVAR
  2
AcDbDictionaryVar
  3
AutoCAD 2000
 90
        0
280
     0
281
     0
  0
ENDSEC
  0
SECTION
  2
TABLES
  0
TABLE
  2
VPORT
  5
8
330
0
100
AcDbSymbolTable
 70
     2
  0
VPORT
  5
578
330
8
100
AcDbSymbolTableRecord
100
AcDbViewportTableRecord
  2
*Active
 70
     0
 10
0.0
 20
0.0
 11
1.0
 21
1.0
 12
12.0
 22
92.5
 13
0.0
 23
0.0
 14
1.0
 24
1.0
 15
0.0
 25
0.0
 16
0.0
 26
0.0
 36
1.0
 17
0.0
 27
0.0
 37
0.0
 40
186.4194373401534
 41
2.078104993597951
 42
50.0
 43
0.0
 44
0.0
 50
0.0
 51
0.0
 71
     0
 72
   100
 73
     1
 74
     3
 75
     0
 76
     0
 77
     0
 78
     0
281
     0
 65
     1
110
0.0
120
0.0
130
0.0
111
1.0
121
0.0
131
0.0
112
0.0
122
1.0
132
0.0
 79
     1
146
0.0
  0
ENDTAB
  0
TABLE
  2
LTYPE
  5
5
330
0
100
AcDbSymbolTable
 70
     1
  0
LTYPE
  5
13
330
5
100
AcDbSymbolTableRecord
100
AcDbLinetypeTableRecord
  2
ByBlock
 70
     0
  3

 72
    65
 73
     0
 40
0.0
  0
LTYPE
  5
14
330
5
100
AcDbSymbolTableRecord
100
AcDbLinetypeTableRecord
  2
ByLayer
 70
     0
  3

 72
    65
 73
     0
 40
0.0
  0
LTYPE
  5
15
330
5
100
AcDbSymbolTableRecord
100
AcDbLinetypeTableRecord
  2
Continuous
 70
     0
  3
Solid line
 72
    65
 73
     0
 40
0.0
  0
ENDTAB
  0
TABLE
  2
LAYER
  5
2
330
0
100
AcDbSymbolTable
 70
     1
  0
LAYER
  5
10
330
2
100
AcDbSymbolTableRecord
100
AcDbLayerTableRecord
  2
0
 70
     0
 62
     7
  6
Continuous
370
    -3
390
F
  0
ENDTAB
  0
TABLE
  2
STYLE
  5
3
330
0
100
AcDbSymbolTable
 70
     1
  0
STYLE
  5
11
330
3
100
AcDbSymbolTableRecord
100
AcDbTextStyleTableRecord
  2
Standard
 70
     0
 40
0.0
 41
1.0
 50
0.0
 71
     0
 42
0.2
  3
txt
  4

  0
ENDTAB
  0
TABLE
  2
VIEW
  5
6
330
0
100
AcDbSymbolTable
 70
     0
  0
ENDTAB
  0
TABLE
  2
UCS
  5
7
330
0
100
AcDbSymbolTable
 70
     0
  0
ENDTAB
  0
TABLE
  2
APPID
  5
9
330
0
100
AcDbSymbolTable
 70
     1
  0
APPID
  5
12
330
9
100
AcDbSymbolTableRecord
100
AcDbRegAppTableRecord
  2
ACAD
 70
     0
  0
ENDTAB
  0
TABLE
  2
DIMSTYLE
  5
A
330
0
100
AcDbSymbolTable
 70
     1
100
AcDbDimStyleTable
 71
     0
  0
DIMSTYLE
105
3BA
330
A
100
AcDbSymbolTableRecord
100
AcDbDimStyleTableRecord
  2
Standard
 70
     0
340
11
  0
ENDTAB
  0
TABLE
  2
BLOCK_RECORD
  5
1
330
0
100
AcDbSymbolTable
 70
     0
  0
BLOCK_RECORD
  5
1E
330
1
100
AcDbSymbolTableRecord
100
AcDbBlockTableRecord
  2
*Model_Space
340
21
  0
BLOCK_RECORD
  5
1A
330
1
100
AcDbSymbolTableRecord
100
AcDbBlockTableRecord
  2
*Paper_Space
340
1D
  0
ENDTAB
  0
ENDSEC
  0
SECTION
  2
BLOCKS
  0
BLOCK
  5
1F
330
1E
100
AcDbEntity
  8
0
100
AcDbBlockBegin
  2
*Model_Space
 70
     0
 10
0.0
 20
0.0
 30
0.0
  3
*Model_Space
  1

  0
ENDBLK
  5
20
330
1E
100
AcDbEntity
  8
0
100
AcDbBlockEnd
  0
BLOCK
  5
1B
330
1A
100
AcDbEntity
 67
     1
  8
0
100
AcDbBlockBegin
  2
*Paper_Space
 70
     0
 10
0.0
 20
0.0
 30
0.0
  3
*Paper_Space
  1

  0
ENDBLK
  5
1C
330
1A
100
AcDbEntity
 67
     1
  8
0
100
AcDbBlockEnd
  0
ENDSEC
  0
SECTION
  2
ENTITIES
  0
LINE
  5
22
330
1E
100
AcDbEntity
  8
0
100
AcDbLine
 10
1.399999999999999
 20
9.999999999999991
 30
0.0
 11
2.0
 21
9.999999999999991
 31
0.0
  0
LINE
  5
23
330
1E
100
AcDbEntity
  8
0
100
AcDbLine
 10
1.0
 20
9.999999999999991
 30
0.0
 11
1.399999999999999
 21
9.999999999999991
 31
0.0
  0
LINE
  5
24
330
1E
100
AcDbEntity
  8
0
100
AcDbLine
 10
1.0
 20
9.999999999999991
 30
0.0
 11
1.399999999999999
 21
9.999999999999991
 31
0.0
  0
LINE
  5
25
330
1E
100
AcDbEntity
  8
0
100
AcDbLine
 10
0.4000000000000011
 20
11.0
 30
0.0
 11
1.6
 21
11.0
 31
0.0
  0
LINE
  5
26
330
1E
100
AcDbEntity
  8
0
100
AcDbLine
 10
0.4000000000000011
 20
11.0
 30
0.0
 11
1.6
 21
11.0
 31
0.0
  0
LINE
  5
27
330
1E
100
AcDbEntity
  8
0
100
AcDbLine
 10
0.0000000000000007
 20
11.0
 30
0.0
 11
0.4000000000000011
 21
11.0
 31
0.0
  0
LINE
  5
28
330
1E
100
AcDbEntity
  8
0
100
AcDbLine
 10
0.0000000000000007
 20
11.0
 30
0.0
 11
1.0
 21
9.999999999999991
 31
0.0
  0
LINE
  5
29
330
1E
100
AcDbEntity
  8
0
100
AcDbLine
 10
0.0000000000000007
 20
11.0
 30
0.0
 11
0.0000000000000007
 21
164.5
 31
0.0
  0
LINE
  5
2A
330
1E
100
AcDbEntity
  8
0
100
AcDbLine
 10
1.6
 20
11.0
 30
0.0
 11
3.5
 21
11.0
 31
0.0
  0
LINE
  5
2B
330
1E
100
AcDbEntity
  8
0
100
AcDbLine
 10
1.399999999999999
 20
9.999999999999991
 30
0.0
 11
2.5
 21
9.999999999999991
 31
0.0
  0
LINE
  5
2C
330
1E
100
AcDbEntity
  8
0
100
AcDbLine
 10
2.0
 20
9.999999999999991
 30
0.0
 11
2.0
 21
-0.0000000000000064
 31
0.0
  0
LINE
  5
2D
330
1E
100
AcDbEntity
  8
0
100
AcDbLine
 10
2.0
 20
9.999999999999991
 30
0.0
 11
2.399999999999999
 21
9.999999999999991
 31
0.0
  0
LINE
  5
2E
330
1E
100
AcDbEntity
  8
0
100
AcDbLine
 10
3.299999999999999
 20
-0.0000000000000062
 30
0.0
 11
4.9
 21
-0.0000000000000063
 31
0.0
  0
LINE
  5
2F
330
1E
100
AcDbEntity
  8
0
100
AcDbLine
 10
2.399999999999999
 20
-0.0000000000000061
 30
0.0
 11
3.299999999999999
 21
-0.0000000000000062
 31
0.0
  0
LINE
  5
30
330
1E
100
AcDbEntity
  8
0
100
AcDbLine
 10
2.5
 20
9.999999999999991
 30
0.0
 11
4.2
 21
9.999999999999991
 31
0.0
  0
LINE
  5
31
330
1E
100
AcDbEntity
  8
0
100
AcDbLine
 10
3.299999999999999
 20
9.999999999999991
 30
0.0
 11
4.9
 21
9.999999999999991
 31
0.0
  0
LINE
  5
32
330
1E
100
AcDbEntity
  8
0
100
AcDbLine
 10
2.399999999999999
 20
9.999999999999991
 30
0.0
 11
3.299999999999999
 21
9.999999999999991
 31
0.0
  0
LINE
  5
33
330
1E
100
AcDbEntity
  8
0
100
AcDbLine
 10
3.5
 20
11.0
 30
0.0
 11
6.0
 21
11.0
 31
0.0
  0
LINE
  5
34
330
1E
100
AcDbEntity
  8
0
100
AcDbLine
 10
3.299999999999999
 20
-0.0000000000000056
 30
0.0
 11
4.9
 21
-0.0000000000000055
 31
0.0
  0
LINE
  5
35
330
1E
100
AcDbEntity
  8
0
100
AcDbLine
 10
2.399999999999999
 20
-0.0000000000000057
 30
0.0
 11
3.299999999999999
 21
-0.0000000000000056
 31
0.0
  0
LINE
  5
36
330
1E
100
AcDbEntity
  8
0
100
AcDbLine
 10
2.0
 20
-0.0000000000000059
 30
0.0
 11
2.399999999999999
 21
-0.0000000000000057
 31
0.0
  0
LINE
  5
37
330
1E
100
AcDbEntity
  8
0
100
AcDbLine
 10
2.0
 20
-0.0000000000000059
 30
0.0
 11
2.399999999999999
 21
-0.0000000000000061
 31
0.0
  0
LINE
  5
38
330
1E
100
AcDbEntity
  8
0
100
AcDbLine
 10
2.0
 20
-0.0000000000000059
 30
0.0
 11
2.0
 21
9.999999999999991
 31
0.0
  0
LINE
  5
3B
330
1E
100
AcDbEntity
  8
0
100
AcDbLine
 10
4.9
 20
-0.0000000000000063
 30
0.0
 11
7.0
 21
-0.0000000000000064
 31
0.0
  0
LINE
  5
3C
330
1E
100
AcDbEntity
  8
0
100
AcDbLine
 10
7.0
 20
-0.0000000000000064
 30
0.0
 11
9.4
 21
-0.0000000000000065
 31
0.0
  0
LINE
  5
3D
330
1E
100
AcDbEntity
  8
0
100
AcDbLine
 10
4.9
 20
-0.0000000000000055
 30
0.0
 11
7.0
 21
-0.0000000000000054
 31
0.0
  0
LINE
  5
3E
330
1E
100
AcDbEntity
  8
0
100
AcDbLine
 10
4.2
 20
9.999999999999991
 30
0.0
 11
6.5
 21
9.999999999999991
 31
0.0
  0
LINE
  5
3F
330
1E
100
AcDbEntity
  8
0
100
AcDbLine
 10
6.5
 20
9.999999999999991
 30
0.0
 11
9.199999999999999
 21
9.999999999999991
 31
0.0
  0
LINE
  5
40
330
1E
100
AcDbEntity
  8
0
100
AcDbLine
 10
6.0
 20
11.0
 30
0.0
 11
8.9
 21
11.0
 31
0.0
  0
LINE
  5
41
330
1E
100
AcDbEntity
  8
0
100
AcDbLine
 10
4.9
 20
9.999999999999991
 30
0.0
 11
7.0
 21
9.999999999999991
 31
0.0
  0
LINE
  5
42
330
1E
100
AcDbEntity
  8
0
100
AcDbLine
 10
7.0
 20
9.999999999999991
 30
0.0
 11
9.4
 21
9.999999999999991
 31
0.0
  0
LINE
  5
43
330
1E
100
AcDbEntity
  8
0
100
AcDbLine
 10
7.0
 20
-0.0000000000000054
 30
0.0
 11
9.4
 21
-0.0000000000000053
 31
0.0
  0
LINE
  5
54
330
1E
100
AcDbEntity
  8
0
100
AcDbLine
 10
9.4
 20
-0.0000000000000065
 30
0.0
 11
12.0
 21
-0.0000000000000065
 31
0.0
  0
LINE
  5
55
330
1E
100
AcDbEntity
  8
0
100
AcDbLine
 10
9.199999999999999
 20
9.999999999999991
 30
0.0
 11
12.0
 21
9.999999999999991
 31
0.0
  0
LINE
  5
56
330
1E
100
AcDbEntity
  8
0
100
AcDbLine
 10
8.9
 20
11.0
 30
0.0
 11
12.0
 21
11.0
 31
0.0
  0
LINE
  5
57
330
1E
100
AcDbEntity
  8
0
100
AcDbLine
 10
9.4
 20
9.999999999999991
 30
0.0
 11
12.0
 21
9.999999999999991
 31
0.0
  0
LINE
  5
58
330
1E
100
AcDbEntity
  8
0
100
AcDbLine
 10
9.4
 20
-0.0000000000000053
 30
0.0
 11
12.0
 21
-0.0000000000000053
 31
0.0
  0
LINE
  5
76
330
1E
100
AcDbEntity
  8
0
100
AcDbLine
 10
0.0000000000000007
 20
184.4999999999999
 30
0.0
 11
0.0000000000000007
 21
165.5
 31
0.0
  0
LINE
  5
77
330
1E
100
AcDbEntity
  8
0
100
AcDbLine
 10
0.0000000000000007
 20
184.4999999999999
 30
0.0
 11
0.4000000000000011
 21
184.4999999999999
 31
0.0
  0
LINE
  5
78
330
1E
100
AcDbEntity
  8
0
100
AcDbLine
 10
0.0000000000000007
 20
184.4999999999999
 30
0.0
 11
0.500000000000001
 21
185.0
 31
0.0
  0
LINE
  5
79
330
1E
100
AcDbEntity
  8
0
100
AcDbLine
 10
0.0000000000000007
 20
165.5
 30
0.0
 11
0.4000000000000011
 21
165.5
 31
0.0
  0
LINE
  5
7A
330
1E
100
AcDbEntity
  8
0
100
AcDbLine
 10
0.0000000000000007
 20
165.5
 30
0.0
 11
1.0
 21
165.0
 31
0.0
  0
LINE
  5
7B
330
1E
100
AcDbEntity
  8
0
100
AcDbLine
 10
0.0000000000000007
 20
165.5
 30
0.0
 11
0.0000000000000007
 21
184.4999999999999
 31
0.0
  0
LINE
  5
7C
330
1E
100
AcDbEntity
  8
0
100
AcDbLine
 10
0.4000000000000011
 20
164.5
 30
0.0
 11
1.6
 21
164.5
 31
0.0
  0
LINE
  5
7D
330
1E
100
AcDbEntity
  8
0
100
AcDbLine
 10
1.6
 20
164.5
 30
0.0
 11
3.5
 21
164.5
 31
0.0
  0
LINE
  5
7E
330
1E
100
AcDbEntity
  8
0
100
AcDbLine
 10
0.4000000000000011
 20
165.5
 30
0.0
 11
1.6
 21
165.5
 31
0.0
  0
LINE
  5
7F
330
1E
100
AcDbEntity
  8
0
100
AcDbLine
 10
0.900000000000001
 20
185.0
 30
0.0
 11
2.0
 21
185.0
 31
0.0
  0
LINE
  5
80
330
1E
100
AcDbEntity
  8
0
100
AcDbLine
 10
0.4000000000000011
 20
184.4999999999999
 30
0.0
 11
1.6
 21
184.4999999999999
 31
0.0
  0
LINE
  5
81
330
1E
100
AcDbEntity
  8
0
100
AcDbLine
 10
0.500000000000001
 20
185.0
 30
0.0
 11
0.900000000000001
 21
185.0
 31
0.0
  0
LINE
  5
82
330
1E
100
AcDbEntity
  8
0
100
AcDbLine
 10
0.4000000000000011
 20
184.4999999999999
 30
0.0
 11
1.6
 21
184.4999999999999
 31
0.0
  0
LINE
  5
83
330
1E
100
AcDbEntity
  8
0
100
AcDbLine
 10
0.4000000000000011
 20
165.5
 30
0.0
 11
1.6
 21
165.5
 31
0.0
  0
LINE
  5
84
330
1E
100
AcDbEntity
  8
0
100
AcDbLine
 10
2.5
 20
165.0
 30
0.0
 11
4.2
 21
165.0
 31
0.0
  0
LINE
  5
85
330
1E
100
AcDbEntity
  8
0
100
AcDbLine
 10
1.6
 20
184.4999999999999
 30
0.0
 11
3.5
 21
184.4999999999999
 31
0.0
  0
LINE
  5
86
330
1E
100
AcDbEntity
  8
0
100
AcDbLine
 10
2.0
 20
185.0
 30
0.0
 11
3.9
 21
185.0
 31
0.0
  0
LINE
  5
87
330
1E
100
AcDbEntity
  8
0
100
AcDbLine
 10
1.6
 20
165.5
 30
0.0
 11
3.5
 21
165.5
 31
0.0
  0
LINE
  5
88
330
1E
100
AcDbEntity
  8
0
100
AcDbLine
 10
1.399999999999999
 20
165.0
 30
0.0
 11
2.5
 21
165.0
 31
0.0
  0
LINE
  5
89
330
1E
100
AcDbEntity
  8
0
100
AcDbLine
 10
1.0
 20
165.0
 30
0.0
 11
1.399999999999999
 21
165.0
 31
0.0
  0
LINE
  5
8A
330
1E
100
AcDbEntity
  8
0
100
AcDbLine
 10
0.4000000000000011
 20
164.5
 30
0.0
 11
1.6
 21
164.5
 31
0.0
  0
LINE
  5
8B
330
1E
100
AcDbEntity
  8
0
100
AcDbLine
 10
0.0000000000000007
 20
164.5
 30
0.0
 11
0.0000000000000007
 21
11.0
 31
0.0
  0
LINE
  5
8C
330
1E
100
AcDbEntity
  8
0
100
AcDbLine
 10
0.0000000000000007
 20
164.5
 30
0.0
 11
0.4000000000000011
 21
164.5
 31
0.0
  0
LINE
  5
8D
330
1E
100
AcDbEntity
  8
0
100
AcDbLine
 10
0.0000000000000007
 20
164.5
 30
0.0
 11
1.0
 21
165.0
 31
0.0
  0
LINE
  5
C4
330
1E
100
AcDbEntity
  8
0
100
AcDbLine
 10
3.5
 20
184.4999999999999
 30
0.0
 11
6.0
 21
184.4999999999999
 31
0.0
  0
LINE
  5
C5
330
1E
100
AcDbEntity
  8
0
100
AcDbLine
 10
3.5
 20
165.5
 30
0.0
 11
6.0
 21
165.5
 31
0.0
  0
LINE
  5
C6
330
1E
100
AcDbEntity
  8
0
100
AcDbLine
 10
3.5
 20
164.5
 30
0.0
 11
6.0
 21
164.5
 31
0.0
  0
LINE
  5
102
330
1E
100
AcDbEntity
  8
0
100
AcDbLine
 10
3.9
 20
185.0
 30
0.0
 11
6.299999999999999
 21
185.0
 31
0.0
  0
LINE
  5
121
330
1E
100
AcDbEntity
  8
0
100
AcDbLine
 10
6.299999999999999
 20
185.0
 30
0.0
 11
9.0
 21
185.0
 31
0.0
  0
LINE
  5
122
330
1E
100
AcDbEntity
  8
0
100
AcDbLine
 10
6.0
 20
184.4999999999999
 30
0.0
 11
8.9
 21
184.4999999999999
 31
0.0
  0
LINE
  5
123
330
1E
100
AcDbEntity
  8
0
100
AcDbLine
 10
6.0
 20
165.5
 30
0.0
 11
8.9
 21
165.5
 31
0.0
  0
LINE
  5
124
330
1E
100
AcDbEntity
  8
0
100
AcDbLine
 10
4.2
 20
165.0
 30
0.0
 11
6.5
 21
165.0
 31
0.0
  0
LINE
  5
125
330
1E
100
AcDbEntity
  8
0
100
AcDbLine
 10
6.0
 20
164.5
 30
0.0
 11
8.9
 21
164.5
 31
0.0
  0
LINE
  5
13F
330
1E
100
AcDbEntity
  8
0
100
AcDbLine
 10
6.5
 20
165.0
 30
0.0
 11
9.199999999999999
 21
165.0
 31
0.0
  0
LINE
  5
187
330
1E
100
AcDbEntity
  8
0
100
AcDbLine
 10
11.1429
 20
100.2999999999999
 30
0.0
 11
11.5714
 21
99.80029999999999
 31
0.0
  0
LINE
  5
188
330
1E
100
AcDbEntity
  8
0
100
AcDbLine
 10
11.1429
 20
100.2999999999999
 30
0.0
 11
11.1429
 21
101.2999999999999
 31
0.0
  0
LINE
  5
189
330
1E
100
AcDbEntity
  8
0
100
AcDbLine
 10
11.1429
 20
101.2999999999999
 30
0.0
 11
11.5714
 21
101.8
 31
0.0
  0
LINE
  5
18A
330
1E
100
AcDbEntity
  8
0
100
AcDbLine
 10
11.1429
 20
101.2999999999999
 30
0.0
 11
11.1429
 21
100.2999999999999
 31
0.0
  0
LINE
  5
1AF
330
1E
100
AcDbEntity
  8
0
100
AcDbLine
 10
11.1429
 20
107.0999999999999
 30
0.0
 11
11.5714
 21
106.6
 31
0.0
  0
LINE
  5
1B0
330
1E
100
AcDbEntity
  8
0
100
AcDbLine
 10
11.1429
 20
107.0999999999999
 30
0.0
 11
11.1429
 21
108.0999999999999
 31
0.0
  0
LINE
  5
1B1
330
1E
100
AcDbEntity
  8
0
100
AcDbLine
 10
11.1429
 20
134.3
 30
0.0
 11
11.1429
 21
135.3
 31
0.0
  0
LINE
  5
1B2
330
1E
100
AcDbEntity
  8
0
100
AcDbLine
 10
11.1429
 20
134.3
 30
0.0
 11
11.5714
 21
133.8
 31
0.0
  0
LINE
  5
1B3
330
1E
100
AcDbEntity
  8
0
100
AcDbLine
 10
11.1429
 20
148.9
 30
0.0
 11
11.5714
 21
149.3999999999999
 31
0.0
  0
LINE
  5
1B4
330
1E
100
AcDbEntity
  8
0
100
AcDbLine
 10
11.1429
 20
148.9
 30
0.0
 11
11.1429
 21
147.9
 31
0.0
  0
LINE
  5
1B5
330
1E
100
AcDbEntity
  8
0
100
AcDbLine
 10
11.1429
 20
161.5
 30
0.0
 11
11.1429
 21
162.5
 31
0.0
  0
LINE
  5
1B6
330
1E
100
AcDbEntity
  8
0
100
AcDbLine
 10
11.1429
 20
161.5
 30
0.0
 11
11.5714
 21
161.0
 31
0.0
  0
LINE
  5
1B7
330
1E
100
AcDbEntity
  8
0
100
AcDbLine
 10
8.9
 20
184.4999999999999
 30
0.0
 11
12.0
 21
184.4999999999999
 31
0.0
  0
LINE
  5
1B8
330
1E
100
AcDbEntity
  8
0
100
AcDbLine
 10
8.9
 20
165.5
 30
0.0
 11
12.0
 21
165.5
 31
0.0
  0
LINE
  5
1B9
330
1E
100
AcDbEntity
  8
0
100
AcDbLine
 10
9.0
 20
185.0
 30
0.0
 11
12.0
 21
185.0
 31
0.0
  0
LINE
  5
1BA
330
1E
100
AcDbEntity
  8
0
100
AcDbLine
 10
9.199999999999999
 20
165.0
 30
0.0
 11
12.0
 21
165.0
 31
0.0
  0
LINE
  5
1BB
330
1E
100
AcDbEntity
  8
0
100
AcDbLine
 10
8.9
 20
164.5
 30
0.0
 11
12.0
 21
164.5
 31
0.0
  0
LINE
  5
1BC
330
1E
100
AcDbEntity
  8
0
100
AcDbLine
 10
11.1429
 20
162.5
 30
0.0
 11
11.5714
 21
163.0
 31
0.0
  0
LINE
  5
1BD
330
1E
100
AcDbEntity
  8
0
100
AcDbLine
 10
11.1429
 20
162.5
 30
0.0
 11
11.1429
 21
161.5
 31
0.0
  0
LINE
  5
1BE
330
1E
100
AcDbEntity
  8
0
100
AcDbLine
 10
11.1429
 20
155.6999999999999
 30
0.0
 11
11.1429
 21
154.6999999999999
 31
0.0
  0
LINE
  5
1BF
330
1E
100
AcDbEntity
  8
0
100
AcDbLine
 10
11.1429
 20
155.6999999999999
 30
0.0
 11
11.5714
 21
156.1999999999999
 31
0.0
  0
LINE
  5
1C0
330
1E
100
AcDbEntity
  8
0
100
AcDbLine
 10
11.1429
 20
154.6999999999999
 30
0.0
 11
11.5714
 21
154.1999999999999
 31
0.0
  0
LINE
  5
1C1
330
1E
100
AcDbEntity
  8
0
100
AcDbLine
 10
11.1429
 20
154.6999999999999
 30
0.0
 11
11.1429
 21
155.6999999999999
 31
0.0
  0
LINE
  5
1C2
330
1E
100
AcDbEntity
  8
0
100
AcDbLine
 10
11.1429
 20
147.9
 30
0.0
 11
11.5714
 21
147.4
 31
0.0
  0
LINE
  5
1C3
330
1E
100
AcDbEntity
  8
0
100
AcDbLine
 10
11.1429
 20
147.9
 30
0.0
 11
11.1429
 21
148.9
 31
0.0
  0
LINE
  5
1C4
330
1E
100
AcDbEntity
  8
0
100
AcDbLine
 10
11.1429
 20
141.1
 30
0.0
 11
11.5714
 21
140.5999999999999
 31
0.0
  0
LINE
  5
1C5
330
1E
100
AcDbEntity
  8
0
100
AcDbLine
 10
11.1429
 20
141.1
 30
0.0
 11
11.1429
 21
142.1
 31
0.0
  0
LINE
  5
1C6
330
1E
100
AcDbEntity
  8
0
100
AcDbLine
 10
11.1429
 20
142.1
 30
0.0
 11
11.5714
 21
142.5999999999999
 31
0.0
  0
LINE
  5
1C7
330
1E
100
AcDbEntity
  8
0
100
AcDbLine
 10
11.1429
 20
142.1
 30
0.0
 11
11.1429
 21
141.1
 31
0.0
  0
LINE
  5
1C8
330
1E
100
AcDbEntity
  8
0
100
AcDbLine
 10
11.1429
 20
135.3
 30
0.0
 11
11.5714
 21
135.8
 31
0.0
  0
LINE
  5
1C9
330
1E
100
AcDbEntity
  8
0
100
AcDbLine
 10
11.1429
 20
135.3
 30
0.0
 11
11.1429
 21
134.3
 31
0.0
  0
LINE
  5
1CA
330
1E
100
AcDbEntity
  8
0
100
AcDbLine
 10
11.1429
 20
127.5
 30
0.0
 11
11.1429
 21
128.4999999999999
 31
0.0
  0
LINE
  5
1CB
330
1E
100
AcDbEntity
  8
0
100
AcDbLine
 10
11.1429
 20
127.5
 30
0.0
 11
11.5714
 21
127.0
 31
0.0
  0
LINE
  5
1CC
330
1E
100
AcDbEntity
  8
0
100
AcDbLine
 10
11.1429
 20
128.4999999999999
 30
0.0
 11
11.5714
 21
129.0
 31
0.0
  0
LINE
  5
1CD
330
1E
100
AcDbEntity
  8
0
100
AcDbLine
 10
11.1429
 20
128.4999999999999
 30
0.0
 11
11.1429
 21
127.5
 31
0.0
  0
LINE
  5
1CE
330
1E
100
AcDbEntity
  8
0
100
AcDbLine
 10
11.1429
 20
120.7
 30
0.0
 11
11.5714
 21
120.1999999999999
 31
0.0
  0
LINE
  5
1CF
330
1E
100
AcDbEntity
  8
0
100
AcDbLine
 10
11.1429
 20
120.7
 30
0.0
 11
11.1429
 21
121.7
 31
0.0
  0
LINE
  5
1D0
330
1E
100
AcDbEntity
  8
0
100
AcDbLine
 10
11.1429
 20
121.7
 30
0.0
 11
11.5714
 21
122.1999999999999
 31
0.0
  0
LINE
  5
1D1
330
1E
100
AcDbEntity
  8
0
100
AcDbLine
 10
11.1429
 20
121.7
 30
0.0
 11
11.1429
 21
120.7
 31
0.0
  0
LINE
  5
1D2
330
1E
100
AcDbEntity
  8
0
100
AcDbLine
 10
11.1429
 20
113.9
 30
0.0
 11
11.1429
 21
114.9
 31
0.0
  0
LINE
  5
1D3
330
1E
100
AcDbEntity
  8
0
100
AcDbLine
 10
11.1429
 20
113.9
 30
0.0
 11
11.5714
 21
113.4
 31
0.0
  0
LINE
  5
1D4
330
1E
100
AcDbEntity
  8
0
100
AcDbLine
 10
11.1429
 20
114.9
 30
0.0
 11
11.5714
 21
115.4
 31
0.0
  0
LINE
  5
1D5
330
1E
100
AcDbEntity
  8
0
100
AcDbLine
 10
11.1429
 20
114.9
 30
0.0
 11
11.1429
 21
113.9
 31
0.0
  0
LINE
  5
1D6
330
1E
100
AcDbEntity
  8
0
100
AcDbLine
 10
11.1429
 20
108.0999999999999
 30
0.0
 11
11.5714
 21
108.6
 31
0.0
  0
LINE
  5
1D7
330
1E
100
AcDbEntity
  8
0
100
AcDbLine
 10
11.1429
 20
108.0999999999999
 30
0.0
 11
11.1429
 21
107.0999999999999
 31
0.0
  0
LINE
  5
1E1
330
1E
100
AcDbEntity
  8
0
100
AcDbLine
 10
11.1429
 20
94.50029999999999
 30
0.0
 11
11.5714
 21
95.00020000000001
 31
0.0
  0
LINE
  5
1E2
330
1E
100
AcDbEntity
  8
0
100
AcDbLine
 10
11.1429
 20
94.50029999999999
 30
0.0
 11
11.1429
 21
93.5003
 31
0.0
  0
LINE
  5
1E3
330
1E
100
AcDbEntity
  8
0
100
AcDbLine
 10
12.0
 20
-0.0000000000000065
 30
0.0
 11
14.59999999999999
 21
-0.0000000000000065
 31
0.0
  0
LINE
  5
1E4
330
1E
100
AcDbEntity
  8
0
100
AcDbLine
 10
12.0
 20
11.0
 30
0.0
 11
15.09999999999999
 21
11.0
 31
0.0
  0
LINE
  5
1E5
330
1E
100
AcDbEntity
  8
0
100
AcDbLine
 10
12.0
 20
9.999999999999991
 30
0.0
 11
14.59999999999999
 21
9.999999999999991
 31
0.0
  0
LINE
  5
1E6
330
1E
100
AcDbEntity
  8
0
100
AcDbLine
 10
12.0
 20
9.999999999999991
 30
0.0
 11
14.8
 21
9.999999999999991
 31
0.0
  0
LINE
  5
1E7
330
1E
100
AcDbEntity
  8
0
100
AcDbLine
 10
12.0
 20
-0.0000000000000053
 30
0.0
 11
14.59999999999999
 21
-0.0000000000000053
 31
0.0
  0
LINE
  5
1E8
330
1E
100
AcDbEntity
  8
0
100
AcDbLine
 10
14.59999999999999
 20
-0.0000000000000065
 30
0.0
 11
17.0
 21
-0.0000000000000064
 31
0.0
  0
LINE
  5
1E9
330
1E
100
AcDbEntity
  8
0
100
AcDbLine
 10
15.09999999999999
 20
11.0
 30
0.0
 11
18.0
 21
11.0
 31
0.0
  0
LINE
  5
1EA
330
1E
100
AcDbEntity
  8
0
100
AcDbLine
 10
14.8
 20
9.999999999999991
 30
0.0
 11
17.5
 21
9.999999999999991
 31
0.0
  0
LINE
  5
1EB
330
1E
100
AcDbEntity
  8
0
100
AcDbLine
 10
14.59999999999999
 20
9.999999999999991
 30
0.0
 11
17.0
 21
9.999999999999991
 31
0.0
  0
LINE
  5
1EC
330
1E
100
AcDbEntity
  8
0
100
AcDbLine
 10
14.59999999999999
 20
-0.0000000000000053
 30
0.0
 11
17.0
 21
-0.0000000000000054
 31
0.0
  0
LINE
  5
1ED
330
1E
100
AcDbEntity
  8
0
100
AcDbLine
 10
17.0
 20
-0.0000000000000064
 30
0.0
 11
19.1
 21
-0.0000000000000063
 31
0.0
  0
LINE
  5
1EE
330
1E
100
AcDbEntity
  8
0
100
AcDbLine
 10
17.0
 20
9.999999999999991
 30
0.0
 11
19.1
 21
9.999999999999991
 31
0.0
  0
LINE
  5
1EF
330
1E
100
AcDbEntity
  8
0
100
AcDbLine
 10
19.1
 20
-0.0000000000000063
 30
0.0
 11
20.69999999999999
 21
-0.0000000000000062
 31
0.0
  0
LINE
  5
1F0
330
1E
100
AcDbEntity
  8
0
100
AcDbLine
 10
19.1
 20
9.999999999999991
 30
0.0
 11
20.69999999999999
 21
9.999999999999991
 31
0.0
  0
LINE
  5
1F1
330
1E
100
AcDbEntity
  8
0
100
AcDbLine
 10
19.8
 20
9.999999999999991
 30
0.0
 11
21.49999999999999
 21
9.999999999999991
 31
0.0
  0
LINE
  5
1F2
330
1E
100
AcDbEntity
  8
0
100
AcDbLine
 10
19.1
 20
-0.0000000000000055
 30
0.0
 11
20.69999999999999
 21
-0.0000000000000056
 31
0.0
  0
LINE
  5
1F3
330
1E
100
AcDbEntity
  8
0
100
AcDbLine
 10
18.0
 20
11.0
 30
0.0
 11
20.5
 21
11.0
 31
0.0
  0
LINE
  5
1F4
330
1E
100
AcDbEntity
  8
0
100
AcDbLine
 10
17.5
 20
9.999999999999991
 30
0.0
 11
19.8
 21
9.999999999999991
 31
0.0
  0
LINE
  5
1F5
330
1E
100
AcDbEntity
  8
0
100
AcDbLine
 10
17.0
 20
-0.0000000000000054
 30
0.0
 11
19.1
 21
-0.0000000000000055
 31
0.0
  0
LINE
  5
1F7
330
1E
100
AcDbEntity
  8
0
100
AcDbLine
 10
20.5
 20
11.0
 30
0.0
 11
22.39999999999999
 21
11.0
 31
0.0
  0
LINE
  5
1F8
330
1E
100
AcDbEntity
  8
0
100
AcDbLine
 10
20.69999999999999
 20
-0.0000000000000062
 30
0.0
 11
21.6
 21
-0.0000000000000061
 31
0.0
  0
LINE
  5
1F9
330
1E
100
AcDbEntity
  8
0
100
AcDbLine
 10
21.6
 20
-0.0000000000000061
 30
0.0
 11
22.0
 21
-0.0000000000000059
 31
0.0
  0
LINE
  5
1FA
330
1E
100
AcDbEntity
  8
0
100
AcDbLine
 10
22.0
 20
-0.0000000000000059
 30
0.0
 11
22.0
 21
9.999999999999991
 31
0.0
  0
LINE
  5
1FB
330
1E
100
AcDbEntity
  8
0
100
AcDbLine
 10
20.69999999999999
 20
9.999999999999991
 30
0.0
 11
21.6
 21
9.999999999999991
 31
0.0
  0
LINE
  5
1FC
330
1E
100
AcDbEntity
  8
0
100
AcDbLine
 10
22.6
 20
9.999999999999991
 30
0.0
 11
23.0
 21
9.999999999999991
 31
0.0
  0
LINE
  5
1FD
330
1E
100
AcDbEntity
  8
0
100
AcDbLine
 10
22.0
 20
9.999999999999991
 30
0.0
 11
22.0
 21
-0.0000000000000064
 31
0.0
  0
LINE
  5
1FE
330
1E
100
AcDbEntity
  8
0
100
AcDbLine
 10
22.0
 20
9.999999999999991
 30
0.0
 11
22.6
 21
9.999999999999991
 31
0.0
  0
LINE
  5
1FF
330
1E
100
AcDbEntity
  8
0
100
AcDbLine
 10
21.49999999999999
 20
9.999999999999991
 30
0.0
 11
22.6
 21
9.999999999999991
 31
0.0
  0
LINE
  5
200
330
1E
100
AcDbEntity
  8
0
100
AcDbLine
 10
23.0
 20
9.999999999999991
 30
0.0
 11
24.0
 21
11.0
 31
0.0
  0
LINE
  5
201
330
1E
100
AcDbEntity
  8
0
100
AcDbLine
 10
22.6
 20
9.999999999999991
 30
0.0
 11
23.0
 21
9.999999999999991
 31
0.0
  0
LINE
  5
202
330
1E
100
AcDbEntity
  8
0
100
AcDbLine
 10
22.39999999999999
 20
11.0
 30
0.0
 11
23.6
 21
11.0
 31
0.0
  0
LINE
  5
203
330
1E
100
AcDbEntity
  8
0
100
AcDbLine
 10
24.0
 20
11.0
 30
0.0
 11
24.0
 21
164.5
 31
0.0
  0
LINE
  5
204
330
1E
100
AcDbEntity
  8
0
100
AcDbLine
 10
23.6
 20
11.0
 30
0.0
 11
24.0
 21
11.0
 31
0.0
  0
LINE
  5
205
330
1E
100
AcDbEntity
  8
0
100
AcDbLine
 10
21.6
 20
9.999999999999991
 30
0.0
 11
22.0
 21
9.999999999999991
 31
0.0
  0
LINE
  5
206
330
1E
100
AcDbEntity
  8
0
100
AcDbLine
 10
20.69999999999999
 20
-0.0000000000000056
 30
0.0
 11
21.6
 21
-0.0000000000000057
 31
0.0
  0
LINE
  5
207
330
1E
100
AcDbEntity
  8
0
100
AcDbLine
 10
21.6
 20
-0.0000000000000057
 30
0.0
 11
22.0
 21
-0.0000000000000059
 31
0.0
  0
LINE
  5
20F
330
1E
100
AcDbEntity
  8
0
100
AcDbLine
 10
12.4286
 20
93.00029999999999
 30
0.0
 11
12.8571
 21
93.5003
 31
0.0
  0
LINE
  5
210
330
1E
100
AcDbEntity
  8
0
100
AcDbLine
 10
12.8571
 20
93.5003
 30
0.0
 11
12.8571
 21
94.50029999999999
 31
0.0
  0
LINE
  5
211
330
1E
100
AcDbEntity
  8
0
100
AcDbLine
 10
11.5714
 20
95.00020000000001
 30
0.0
 11
12.4286
 21
95.00020000000001
 31
0.0
  0
LINE
  5
212
330
1E
100
AcDbEntity
  8
0
100
AcDbLine
 10
11.5714
 20
149.3999999999999
 30
0.0
 11
12.4286
 21
149.3999999999999
 31
0.0
  0
LINE
  5
213
330
1E
100
AcDbEntity
  8
0
100
AcDbLine
 10
11.5714
 20
161.0
 30
0.0
 11
12.4286
 21
161.0
 31
0.0
  0
LINE
  5
214
330
1E
100
AcDbEntity
  8
0
100
AcDbLine
 10
11.5714
 20
163.0
 30
0.0
 11
12.4286
 21
163.0
 31
0.0
  0
LINE
  5
215
330
1E
100
AcDbEntity
  8
0
100
AcDbLine
 10
11.5714
 20
156.1999999999999
 30
0.0
 11
12.4286
 21
156.1999999999999
 31
0.0
  0
LINE
  5
216
330
1E
100
AcDbEntity
  8
0
100
AcDbLine
 10
11.5714
 20
154.1999999999999
 30
0.0
 11
12.4286
 21
154.1999999999999
 31
0.0
  0
LINE
  5
217
330
1E
100
AcDbEntity
  8
0
100
AcDbLine
 10
11.5714
 20
147.4
 30
0.0
 11
12.4286
 21
147.4
 31
0.0
  0
LINE
  5
218
330
1E
100
AcDbEntity
  8
0
100
AcDbLine
 10
11.5714
 20
140.5999999999999
 30
0.0
 11
12.4286
 21
140.5999999999999
 31
0.0
  0
LINE
  5
219
330
1E
100
AcDbEntity
  8
0
100
AcDbLine
 10
11.5714
 20
142.5999999999999
 30
0.0
 11
12.4286
 21
142.5999999999999
 31
0.0
  0
LINE
  5
21A
330
1E
100
AcDbEntity
  8
0
100
AcDbLine
 10
11.5714
 20
133.8
 30
0.0
 11
12.4286
 21
133.8
 31
0.0
  0
LINE
  5
21B
330
1E
100
AcDbEntity
  8
0
100
AcDbLine
 10
11.5714
 20
135.8
 30
0.0
 11
12.4286
 21
135.8
 31
0.0
  0
LINE
  5
21C
330
1E
100
AcDbEntity
  8
0
100
AcDbLine
 10
11.5714
 20
127.0
 30
0.0
 11
12.4286
 21
127.0
 31
0.0
  0
LINE
  5
21D
330
1E
100
AcDbEntity
  8
0
100
AcDbLine
 10
11.5714
 20
129.0
 30
0.0
 11
12.4286
 21
129.0
 31
0.0
  0
LINE
  5
21E
330
1E
100
AcDbEntity
  8
0
100
AcDbLine
 10
11.5714
 20
120.1999999999999
 30
0.0
 11
12.4286
 21
120.1999999999999
 31
0.0
  0
LINE
  5
21F
330
1E
100
AcDbEntity
  8
0
100
AcDbLine
 10
11.5714
 20
122.1999999999999
 30
0.0
 11
12.4286
 21
122.1999999999999
 31
0.0
  0
LINE
  5
220
330
1E
100
AcDbEntity
  8
0
100
AcDbLine
 10
11.5714
 20
113.4
 30
0.0
 11
12.4286
 21
113.4
 31
0.0
  0
LINE
  5
221
330
1E
100
AcDbEntity
  8
0
100
AcDbLine
 10
11.5714
 20
115.4
 30
0.0
 11
12.4286
 21
115.4
 31
0.0
  0
LINE
  5
222
330
1E
100
AcDbEntity
  8
0
100
AcDbLine
 10
11.5714
 20
106.6
 30
0.0
 11
12.4286
 21
106.6
 31
0.0
  0
LINE
  5
223
330
1E
100
AcDbEntity
  8
0
100
AcDbLine
 10
11.5714
 20
108.6
 30
0.0
 11
12.4286
 21
108.6
 31
0.0
  0
LINE
  5
224
330
1E
100
AcDbEntity
  8
0
100
AcDbLine
 10
11.5714
 20
99.80029999999999
 30
0.0
 11
12.4286
 21
99.80029999999999
 31
0.0
  0
LINE
  5
225
330
1E
100
AcDbEntity
  8
0
100
AcDbLine
 10
12.4286
 20
99.80029999999999
 30
0.0
 11
12.8571
 21
100.2999999999999
 31
0.0
  0
LINE
  5
226
330
1E
100
AcDbEntity
  8
0
100
AcDbLine
 10
12.4286
 20
149.3999999999999
 30
0.0
 11
12.8571
 21
148.9
 31
0.0
  0
LINE
  5
227
330
1E
100
AcDbEntity
  8
0
100
AcDbLine
 10
12.4286
 20
161.0
 30
0.0
 11
12.8571
 21
161.5
 31
0.0
  0
LINE
  5
228
330
1E
100
AcDbEntity
  8
0
100
AcDbLine
 10
12.0
 20
185.0
 30
0.0
 11
15.0
 21
185.0
 31
0.0
  0
LINE
  5
229
330
1E
100
AcDbEntity
  8
0
100
AcDbLine
 10
12.0
 20
184.4999999999999
 30
0.0
 11
15.09999999999999
 21
184.4999999999999
 31
0.0
  0
LINE
  5
22A
330
1E
100
AcDbEntity
  8
0
100
AcDbLine
 10
12.0
 20
165.5
 30
0.0
 11
15.09999999999999
 21
165.5
 31
0.0
  0
LINE
  5
22B
330
1E
100
AcDbEntity
  8
0
100
AcDbLine
 10
12.0
 20
165.0
 30
0.0
 11
14.8
 21
165.0
 31
0.0
  0
LINE
  5
22C
330
1E
100
AcDbEntity
  8
0
100
AcDbLine
 10
12.0
 20
164.5
 30
0.0
 11
15.09999999999999
 21
164.5
 31
0.0
  0
LINE
  5
22D
330
1E
100
AcDbEntity
  8
0
100
AcDbLine
 10
12.4286
 20
163.0
 30
0.0
 11
12.8571
 21
162.5
 31
0.0
  0
LINE
  5
22E
330
1E
100
AcDbEntity
  8
0
100
AcDbLine
 10
12.4286
 20
156.1999999999999
 30
0.0
 11
12.8571
 21
155.6999999999999
 31
0.0
  0
LINE
  5
22F
330
1E
100
AcDbEntity
  8
0
100
AcDbLine
 10
12.4286
 20
154.1999999999999
 30
0.0
 11
12.8571
 21
154.6999999999999
 31
0.0
  0
LINE
  5
230
330
1E
100
AcDbEntity
  8
0
100
AcDbLine
 10
12.4286
 20
147.4
 30
0.0
 11
12.8571
 21
147.9
 31
0.0
  0
LINE
  5
231
330
1E
100
AcDbEntity
  8
0
100
AcDbLine
 10
12.4286
 20
140.5999999999999
 30
0.0
 11
12.8571
 21
141.1
 31
0.0
  0
LINE
  5
232
330
1E
100
AcDbEntity
  8
0
100
AcDbLine
 10
12.4286
 20
142.5999999999999
 30
0.0
 11
12.8571
 21
142.1
 31
0.0
  0
LINE
  5
233
330
1E
100
AcDbEntity
  8
0
100
AcDbLine
 10
12.4286
 20
133.8
 30
0.0
 11
12.8571
 21
134.3
 31
0.0
  0
LINE
  5
234
330
1E
100
AcDbEntity
  8
0
100
AcDbLine
 10
12.4286
 20
135.8
 30
0.0
 11
12.8571
 21
135.3
 31
0.0
  0
LINE
  5
235
330
1E
100
AcDbEntity
  8
0
100
AcDbLine
 10
12.4286
 20
127.0
 30
0.0
 11
12.8571
 21
127.5
 31
0.0
  0
LINE
  5
236
330
1E
100
AcDbEntity
  8
0
100
AcDbLine
 10
12.4286
 20
129.0
 30
0.0
 11
12.8571
 21
128.4999999999999
 31
0.0
  0
LINE
  5
237
330
1E
100
AcDbEntity
  8
0
100
AcDbLine
 10
12.4286
 20
120.1999999999999
 30
0.0
 11
12.8571
 21
120.7
 31
0.0
  0
LINE
  5
238
330
1E
100
AcDbEntity
  8
0
100
AcDbLine
 10
12.4286
 20
122.1999999999999
 30
0.0
 11
12.8571
 21
121.7
 31
0.0
  0
LINE
  5
239
330
1E
100
AcDbEntity
  8
0
100
AcDbLine
 10
12.4286
 20
113.4
 30
0.0
 11
12.8571
 21
113.9
 31
0.0
  0
LINE
  5
23A
330
1E
100
AcDbEntity
  8
0
100
AcDbLine
 10
12.4286
 20
115.4
 30
0.0
 11
12.8571
 21
114.9
 31
0.0
  0
LINE
  5
23B
330
1E
100
AcDbEntity
  8
0
100
AcDbLine
 10
12.4286
 20
106.6
 30
0.0
 11
12.8571
 21
107.0999999999999
 31
0.0
  0
LINE
  5
23C
330
1E
100
AcDbEntity
  8
0
100
AcDbLine
 10
12.4286
 20
108.6
 30
0.0
 11
12.8571
 21
108.0999999999999
 31
0.0
  0
LINE
  5
23D
330
1E
100
AcDbEntity
  8
0
100
AcDbLine
 10
12.4286
 20
101.8
 30
0.0
 11
12.8571
 21
101.2999999999999
 31
0.0
  0
LINE
  5
23E
330
1E
100
AcDbEntity
  8
0
100
AcDbLine
 10
11.5714
 20
101.8
 30
0.0
 11
12.4286
 21
101.8
 31
0.0
  0
LINE
  5
23F
330
1E
100
AcDbEntity
  8
0
100
AcDbLine
 10
12.8571
 20
100.2999999999999
 30
0.0
 11
12.8571
 21
101.2999999999999
 31
0.0
  0
LINE
  5
240
330
1E
100
AcDbEntity
  8
0
100
AcDbLine
 10
12.8571
 20
147.9
 30
0.0
 11
12.8571
 21
148.9
 31
0.0
  0
LINE
  5
241
330
1E
100
AcDbEntity
  8
0
100
AcDbLine
 10
12.8571
 20
148.9
 30
0.0
 11
12.8571
 21
147.9
 31
0.0
  0
LINE
  5
242
330
1E
100
AcDbEntity
  8
0
100
AcDbLine
 10
12.8571
 20
162.5
 30
0.0
 11
12.8571
 21
161.5
 31
0.0
  0
LINE
  5
243
330
1E
100
AcDbEntity
  8
0
100
AcDbLine
 10
12.8571
 20
161.5
 30
0.0
 11
12.8571
 21
162.5
 31
0.0
  0
LINE
  5
244
330
1E
100
AcDbEntity
  8
0
100
AcDbLine
 10
12.8571
 20
154.6999999999999
 30
0.0
 11
12.8571
 21
155.6999999999999
 31
0.0
  0
LINE
  5
245
330
1E
100
AcDbEntity
  8
0
100
AcDbLine
 10
12.8571
 20
155.6999999999999
 30
0.0
 11
12.8571
 21
154.6999999999999
 31
0.0
  0
LINE
  5
246
330
1E
100
AcDbEntity
  8
0
100
AcDbLine
 10
12.8571
 20
141.1
 30
0.0
 11
12.8571
 21
142.1
 31
0.0
  0
LINE
  5
247
330
1E
100
AcDbEntity
  8
0
100
AcDbLine
 10
12.8571
 20
142.1
 30
0.0
 11
12.8571
 21
141.1
 31
0.0
  0
LINE
  5
248
330
1E
100
AcDbEntity
  8
0
100
AcDbLine
 10
12.8571
 20
135.3
 30
0.0
 11
12.8571
 21
134.3
 31
0.0
  0
LINE
  5
249
330
1E
100
AcDbEntity
  8
0
100
AcDbLine
 10
12.8571
 20
134.3
 30
0.0
 11
12.8571
 21
135.3
 31
0.0
  0
LINE
  5
24A
330
1E
100
AcDbEntity
  8
0
100
AcDbLine
 10
12.8571
 20
128.4999999999999
 30
0.0
 11
12.8571
 21
127.5
 31
0.0
  0
LINE
  5
24B
330
1E
100
AcDbEntity
  8
0
100
AcDbLine
 10
12.8571
 20
127.5
 30
0.0
 11
12.8571
 21
128.4999999999999
 31
0.0
  0
LINE
  5
24C
330
1E
100
AcDbEntity
  8
0
100
AcDbLine
 10
12.8571
 20
120.7
 30
0.0
 11
12.8571
 21
121.7
 31
0.0
  0
LINE
  5
24D
330
1E
100
AcDbEntity
  8
0
100
AcDbLine
 10
12.8571
 20
121.7
 30
0.0
 11
12.8571
 21
120.7
 31
0.0
  0
LINE
  5
24E
330
1E
100
AcDbEntity
  8
0
100
AcDbLine
 10
12.8571
 20
114.9
 30
0.0
 11
12.8571
 21
113.9
 31
0.0
  0
LINE
  5
24F
330
1E
100
AcDbEntity
  8
0
100
AcDbLine
 10
12.8571
 20
113.9
 30
0.0
 11
12.8571
 21
114.9
 31
0.0
  0
LINE
  5
250
330
1E
100
AcDbEntity
  8
0
100
AcDbLine
 10
12.8571
 20
107.0999999999999
 30
0.0
 11
12.8571
 21
108.0999999999999
 31
0.0
  0
LINE
  5
251
330
1E
100
AcDbEntity
  8
0
100
AcDbLine
 10
12.8571
 20
108.0999999999999
 30
0.0
 11
12.8571
 21
107.0999999999999
 31
0.0
  0
LINE
  5
252
330
1E
100
AcDbEntity
  8
0
100
AcDbLine
 10
12.8571
 20
101.2999999999999
 30
0.0
 11
12.8571
 21
100.2999999999999
 31
0.0
  0
LINE
  5
253
330
1E
100
AcDbEntity
  8
0
100
AcDbLine
 10
12.4286
 20
95.00020000000001
 30
0.0
 11
12.8571
 21
94.50029999999999
 31
0.0
  0
LINE
  5
27A
330
1E
100
AcDbEntity
  8
0
100
AcDbLine
 10
15.0
 20
185.0
 30
0.0
 11
17.7
 21
185.0
 31
0.0
  0
LINE
  5
27B
330
1E
100
AcDbEntity
  8
0
100
AcDbLine
 10
15.09999999999999
 20
184.4999999999999
 30
0.0
 11
18.0
 21
184.4999999999999
 31
0.0
  0
LINE
  5
27C
330
1E
100
AcDbEntity
  8
0
100
AcDbLine
 10
15.09999999999999
 20
165.5
 30
0.0
 11
18.0
 21
165.5
 31
0.0
  0
LINE
  5
27D
330
1E
100
AcDbEntity
  8
0
100
AcDbLine
 10
14.8
 20
165.0
 30
0.0
 11
17.5
 21
165.0
 31
0.0
  0
LINE
  5
27E
330
1E
100
AcDbEntity
  8
0
100
AcDbLine
 10
15.09999999999999
 20
164.5
 30
0.0
 11
18.0
 21
164.5
 31
0.0
  0
LINE
  5
2E8
330
1E
100
AcDbEntity
  8
0
100
AcDbLine
 10
17.5
 20
165.0
 30
0.0
 11
19.8
 21
165.0
 31
0.0
  0
LINE
  5
309
330
1E
100
AcDbEntity
  8
0
100
AcDbLine
 10
17.7
 20
185.0
 30
0.0
 11
20.1
 21
185.0
 31
0.0
  0
LINE
  5
30A
330
1E
100
AcDbEntity
  8
0
100
AcDbLine
 10
18.0
 20
184.4999999999999
 30
0.0
 11
20.5
 21
184.4999999999999
 31
0.0
  0
LINE
  5
30B
330
1E
100
AcDbEntity
  8
0
100
AcDbLine
 10
18.0
 20
165.5
 30
0.0
 11
20.5
 21
165.5
 31
0.0
  0
LINE
  5
30C
330
1E
100
AcDbEntity
  8
0
100
AcDbLine
 10
18.0
 20
164.5
 30
0.0
 11
20.5
 21
164.5
 31
0.0
  0
LINE
  5
333
330
1E
100
AcDbEntity
  8
0
100
AcDbLine
 10
19.8
 20
165.0
 30
0.0
 11
21.49999999999999
 21
165.0
 31
0.0
  0
LINE
  5
35A
330
1E
100
AcDbEntity
  8
0
100
AcDbLine
 10
20.1
 20
185.0
 30
0.0
 11
22.0
 21
185.0
 31
0.0
  0
LINE
  5
374
330
1E
100
AcDbEntity
  8
0
100
AcDbLine
 10
20.5
 20
184.4999999999999
 30
0.0
 11
22.39999999999999
 21
184.4999999999999
 31
0.0
  0
LINE
  5
375
330
1E
100
AcDbEntity
  8
0
100
AcDbLine
 10
20.5
 20
165.5
 30
0.0
 11
22.39999999999999
 21
165.5
 31
0.0
  0
LINE
  5
376
330
1E
100
AcDbEntity
  8
0
100
AcDbLine
 10
20.5
 20
164.5
 30
0.0
 11
22.39999999999999
 21
164.5
 31
0.0
  0
LINE
  5
39F
330
1E
100
AcDbEntity
  8
0
100
AcDbLine
 10
24.0
 20
164.5
 30
0.0
 11
24.0
 21
11.0
 31
0.0
  0
LINE
  5
3A0
330
1E
100
AcDbEntity
  8
0
100
AcDbLine
 10
22.39999999999999
 20
164.5
 30
0.0
 11
23.6
 21
164.5
 31
0.0
  0
LINE
  5
3A1
330
1E
100
AcDbEntity
  8
0
100
AcDbLine
 10
22.0
 20
185.0
 30
0.0
 11
23.1
 21
185.0
 31
0.0
  0
LINE
  5
3A2
330
1E
100
AcDbEntity
  8
0
100
AcDbLine
 10
22.39999999999999
 20
184.4999999999999
 30
0.0
 11
23.6
 21
184.4999999999999
 31
0.0
  0
LINE
  5
3A3
330
1E
100
AcDbEntity
  8
0
100
AcDbLine
 10
22.39999999999999
 20
165.5
 30
0.0
 11
23.6
 21
165.5
 31
0.0
  0
LINE
  5
3A4
330
1E
100
AcDbEntity
  8
0
100
AcDbLine
 10
21.49999999999999
 20
165.0
 30
0.0
 11
22.6
 21
165.0
 31
0.0
  0
LINE
  5
3A5
330
1E
100
AcDbEntity
  8
0
100
AcDbLine
 10
23.5
 20
185.0
 30
0.0
 11
24.0
 21
184.4999999999999
 31
0.0
  0
LINE
  5
3A6
330
1E
100
AcDbEntity
  8
0
100
AcDbLine
 10
23.1
 20
185.0
 30
0.0
 11
23.5
 21
185.0
 31
0.0
  0
LINE
  5
3A7
330
1E
100
AcDbEntity
  8
0
100
AcDbLine
 10
23.6
 20
184.4999999999999
 30
0.0
 11
24.0
 21
184.4999999999999
 31
0.0
  0
LINE
  5
3A8
330
1E
100
AcDbEntity
  8
0
100
AcDbLine
 10
24.0
 20
184.4999999999999
 30
0.0
 11
24.0
 21
165.5
 31
0.0
  0
LINE
  5
3A9
330
1E
100
AcDbEntity
  8
0
100
AcDbLine
 10
24.0
 20
165.5
 30
0.0
 11
24.0
 21
184.4999999999999
 31
0.0
  0
LINE
  5
3AA
330
1E
100
AcDbEntity
  8
0
100
AcDbLine
 10
23.6
 20
165.5
 30
0.0
 11
24.0
 21
165.5
 31
0.0
  0
LINE
  5
3AB
330
1E
100
AcDbEntity
  8
0
100
AcDbLine
 10
23.0
 20
165.0
 30
0.0
 11
24.0
 21
164.5
 31
0.0
  0
LINE
  5
3AC
330
1E
100
AcDbEntity
  8
0
100
AcDbLine
 10
23.0
 20
165.0
 30
0.0
 11
24.0
 21
165.5
 31
0.0
  0
LINE
  5
3AD
330
1E
100
AcDbEntity
  8
0
100
AcDbLine
 10
22.6
 20
165.0
 30
0.0
 11
23.0
 21
165.0
 31
0.0
  0
LINE
  5
3AE
330
1E
100
AcDbEntity
  8
0
100
AcDbLine
 10
23.6
 20
164.5
 30
0.0
 11
24.0
 21
164.5
 31
0.0
  0
LINE
  5
3B6
330
1E
100
AcDbEntity
  8
0
100
AcDbLine
 10
12.8571
 20
94.50029999999999
 30
0.0
 11
12.8571
 21
93.5003
 31
0.0
  0
LINE
  5
3B7
330
1E
100
AcDbEntity
  8
0
100
AcDbLine
 10
11.5714
 20
93.00029999999999
 30
0.0
 11
12.4286
 21
93.00029999999999
 31
0.0
  0
LINE
  5
3B8
330
1E
100
AcDbEntity
  8
0
100
AcDbLine
 10
11.1429
 20
93.5003
 30
0.0
 11
11.5714
 21
93.00029999999999
 31
0.0
  0
LINE
  5
3B9
330
1E
100
AcDbEntity
  8
0
100
AcDbLine
 10
11.1429
 20
93.5003
 30
0.0
 11
11.1429
 21
94.50029999999999
 31
0.0
  0
LINE
  5
3BE
330
1E
100
AcDbEntity
  8
0
100
AcDbLine
 10
16.0714
 20
93.00029999999999
 30
0.0
 11
16.9286
 21
93.00029999999999
 31
0.0
  0
LINE
  5
3BF
330
1E
100
AcDbEntity
  8
0
100
AcDbLine
 10
16.0714
 20
101.8
 30
0.0
 11
16.9286
 21
101.8
 31
0.0
  0
LINE
  5
3C0
330
1E
100
AcDbEntity
  8
0
100
AcDbLine
 10
16.0714
 20
99.80029999999999
 30
0.0
 11
16.9286
 21
99.80029999999999
 31
0.0
  0
LINE
  5
3C1
330
1E
100
AcDbEntity
  8
0
100
AcDbLine
 10
16.0714
 20
108.6
 30
0.0
 11
16.9286
 21
108.6
 31
0.0
  0
LINE
  5
3C2
330
1E
100
AcDbEntity
  8
0
100
AcDbLine
 10
16.0714
 20
106.6
 30
0.0
 11
16.9286
 21
106.6
 31
0.0
  0
LINE
  5
3C3
330
1E
100
AcDbEntity
  8
0
100
AcDbLine
 10
16.0714
 20
115.4
 30
0.0
 11
16.9286
 21
115.4
 31
0.0
  0
LINE
  5
3C4
330
1E
100
AcDbEntity
  8
0
100
AcDbLine
 10
16.0714
 20
113.4
 30
0.0
 11
16.9286
 21
113.4
 31
0.0
  0
LINE
  5
3C5
330
1E
100
AcDbEntity
  8
0
100
AcDbLine
 10
16.0714
 20
122.1999999999999
 30
0.0
 11
16.9286
 21
122.1999999999999
 31
0.0
  0
LINE
  5
3C6
330
1E
100
AcDbEntity
  8
0
100
AcDbLine
 10
16.0714
 20
120.1999999999999
 30
0.0
 11
16.9286
 21
120.1999999999999
 31
0.0
  0
LINE
  5
3C7
330
1E
100
AcDbEntity
  8
0
100
AcDbLine
 10
16.0714
 20
129.0
 30
0.0
 11
16.9286
 21
129.0
 31
0.0
  0
LINE
  5
3C8
330
1E
100
AcDbEntity
  8
0
100
AcDbLine
 10
16.0714
 20
127.0
 30
0.0
 11
16.9286
 21
127.0
 31
0.0
  0
LINE
  5
3C9
330
1E
100
AcDbEntity
  8
0
100
AcDbLine
 10
16.0714
 20
135.8
 30
0.0
 11
16.9286
 21
135.8
 31
0.0
  0
LINE
  5
3CA
330
1E
100
AcDbEntity
  8
0
100
AcDbLine
 10
16.0714
 20
133.8
 30
0.0
 11
16.9286
 21
133.8
 31
0.0
  0
LINE
  5
3CB
330
1E
100
AcDbEntity
  8
0
100
AcDbLine
 10
16.0714
 20
142.5999999999999
 30
0.0
 11
16.9286
 21
142.5999999999999
 31
0.0
  0
LINE
  5
3CC
330
1E
100
AcDbEntity
  8
0
100
AcDbLine
 10
16.0714
 20
140.5999999999999
 30
0.0
 11
16.9286
 21
140.5999999999999
 31
0.0
  0
LINE
  5
3CD
330
1E
100
AcDbEntity
  8
0
100
AcDbLine
 10
16.0714
 20
147.4
 30
0.0
 11
16.9286
 21
147.4
 31
0.0
  0
LINE
  5
3CE
330
1E
100
AcDbEntity
  8
0
100
AcDbLine
 10
16.0714
 20
154.1999999999999
 30
0.0
 11
16.9286
 21
154.1999999999999
 31
0.0
  0
LINE
  5
3CF
330
1E
100
AcDbEntity
  8
0
100
AcDbLine
 10
16.0714
 20
156.1999999999999
 30
0.0
 11
16.9286
 21
156.1999999999999
 31
0.0
  0
LINE
  5
3D0
330
1E
100
AcDbEntity
  8
0
100
AcDbLine
 10
16.0714
 20
163.0
 30
0.0
 11
16.9286
 21
163.0
 31
0.0
  0
LINE
  5
3D1
330
1E
100
AcDbEntity
  8
0
100
AcDbLine
 10
16.0714
 20
161.0
 30
0.0
 11
16.9286
 21
161.0
 31
0.0
  0
LINE
  5
3D2
330
1E
100
AcDbEntity
  8
0
100
AcDbLine
 10
16.0714
 20
149.3999999999999
 30
0.0
 11
16.9286
 21
149.3999999999999
 31
0.0
  0
LINE
  5
3D3
330
1E
100
AcDbEntity
  8
0
100
AcDbLine
 10
16.0714
 20
95.00020000000001
 30
0.0
 11
16.9286
 21
95.00020000000001
 31
0.0
  0
LINE
  5
3D4
330
1E
100
AcDbEntity
  8
0
100
AcDbLine
 10
15.64289999999999
 20
121.7
 30
0.0
 11
15.64289999999999
 21
120.7
 31
0.0
  0
LINE
  5
3D5
330
1E
100
AcDbEntity
  8
0
100
AcDbLine
 10
15.64289999999999
 20
120.7
 30
0.0
 11
15.64289999999999
 21
121.7
 31
0.0
  0
LINE
  5
3D6
330
1E
100
AcDbEntity
  8
0
100
AcDbLine
 10
15.64289999999999
 20
107.0999999999999
 30
0.0
 11
16.0714
 21
106.6
 31
0.0
  0
LINE
  5
3D7
330
1E
100
AcDbEntity
  8
0
100
AcDbLine
 10
15.64289999999999
 20
93.5003
 30
0.0
 11
16.0714
 21
93.00029999999999
 31
0.0
  0
LINE
  5
3D8
330
1E
100
AcDbEntity
  8
0
100
AcDbLine
 10
15.64289999999999
 20
94.50029999999999
 30
0.0
 11
16.0714
 21
95.00020000000001
 31
0.0
  0
LINE
  5
3D9
330
1E
100
AcDbEntity
  8
0
100
AcDbLine
 10
15.64289999999999
 20
93.5003
 30
0.0
 11
15.64289999999999
 21
94.50029999999999
 31
0.0
  0
LINE
  5
3DA
330
1E
100
AcDbEntity
  8
0
100
AcDbLine
 10
15.64289999999999
 20
94.50029999999999
 30
0.0
 11
15.64289999999999
 21
93.5003
 31
0.0
  0
LINE
  5
3DB
330
1E
100
AcDbEntity
  8
0
100
AcDbLine
 10
15.64289999999999
 20
101.2999999999999
 30
0.0
 11
16.0714
 21
101.8
 31
0.0
  0
LINE
  5
3DC
330
1E
100
AcDbEntity
  8
0
100
AcDbLine
 10
15.64289999999999
 20
100.2999999999999
 30
0.0
 11
16.0714
 21
99.80029999999999
 31
0.0
  0
LINE
  5
3DD
330
1E
100
AcDbEntity
  8
0
100
AcDbLine
 10
15.64289999999999
 20
101.2999999999999
 30
0.0
 11
15.64289999999999
 21
100.2999999999999
 31
0.0
  0
LINE
  5
3DE
330
1E
100
AcDbEntity
  8
0
100
AcDbLine
 10
15.64289999999999
 20
100.2999999999999
 30
0.0
 11
15.64289999999999
 21
101.2999999999999
 31
0.0
  0
LINE
  5
3DF
330
1E
100
AcDbEntity
  8
0
100
AcDbLine
 10
15.64289999999999
 20
114.9
 30
0.0
 11
15.64289999999999
 21
113.9
 31
0.0
  0
LINE
  5
3E0
330
1E
100
AcDbEntity
  8
0
100
AcDbLine
 10
15.64289999999999
 20
113.9
 30
0.0
 11
15.64289999999999
 21
114.9
 31
0.0
  0
LINE
  5
3E1
330
1E
100
AcDbEntity
  8
0
100
AcDbLine
 10
15.64289999999999
 20
108.0999999999999
 30
0.0
 11
16.0714
 21
108.6
 31
0.0
  0
LINE
  5
3E2
330
1E
100
AcDbEntity
  8
0
100
AcDbLine
 10
15.64289999999999
 20
113.9
 30
0.0
 11
16.0714
 21
113.4
 31
0.0
  0
LINE
  5
3E3
330
1E
100
AcDbEntity
  8
0
100
AcDbLine
 10
15.64289999999999
 20
108.0999999999999
 30
0.0
 11
15.64289999999999
 21
107.0999999999999
 31
0.0
  0
LINE
  5
3E4
330
1E
100
AcDbEntity
  8
0
100
AcDbLine
 10
15.64289999999999
 20
107.0999999999999
 30
0.0
 11
15.64289999999999
 21
108.0999999999999
 31
0.0
  0
LINE
  5
3E5
330
1E
100
AcDbEntity
  8
0
100
AcDbLine
 10
15.64289999999999
 20
114.9
 30
0.0
 11
16.0714
 21
115.4
 31
0.0
  0
LINE
  5
3E6
330
1E
100
AcDbEntity
  8
0
100
AcDbLine
 10
15.64289999999999
 20
120.7
 30
0.0
 11
16.0714
 21
120.1999999999999
 31
0.0
  0
LINE
  5
3E7
330
1E
100
AcDbEntity
  8
0
100
AcDbLine
 10
15.64289999999999
 20
128.4999999999999
 30
0.0
 11
16.0714
 21
129.0
 31
0.0
  0
LINE
  5
3E8
330
1E
100
AcDbEntity
  8
0
100
AcDbLine
 10
15.64289999999999
 20
121.7
 30
0.0
 11
16.0714
 21
122.1999999999999
 31
0.0
  0
LINE
  5
3E9
330
1E
100
AcDbEntity
  8
0
100
AcDbLine
 10
15.64289999999999
 20
127.5
 30
0.0
 11
16.0714
 21
127.0
 31
0.0
  0
LINE
  5
3EA
330
1E
100
AcDbEntity
  8
0
100
AcDbLine
 10
15.64289999999999
 20
128.4999999999999
 30
0.0
 11
15.64289999999999
 21
127.5
 31
0.0
  0
LINE
  5
3EB
330
1E
100
AcDbEntity
  8
0
100
AcDbLine
 10
15.64289999999999
 20
127.5
 30
0.0
 11
15.64289999999999
 21
128.4999999999999
 31
0.0
  0
LINE
  5
3EC
330
1E
100
AcDbEntity
  8
0
100
AcDbLine
 10
15.64289999999999
 20
135.3
 30
0.0
 11
16.0714
 21
135.8
 31
0.0
  0
LINE
  5
3ED
330
1E
100
AcDbEntity
  8
0
100
AcDbLine
 10
15.64289999999999
 20
134.3
 30
0.0
 11
16.0714
 21
133.8
 31
0.0
  0
LINE
  5
3EE
330
1E
100
AcDbEntity
  8
0
100
AcDbLine
 10
15.64289999999999
 20
135.3
 30
0.0
 11
15.64289999999999
 21
134.3
 31
0.0
  0
LINE
  5
3EF
330
1E
100
AcDbEntity
  8
0
100
AcDbLine
 10
15.64289999999999
 20
134.3
 30
0.0
 11
15.64289999999999
 21
135.3
 31
0.0
  0
LINE
  5
3F0
330
1E
100
AcDbEntity
  8
0
100
AcDbLine
 10
15.64289999999999
 20
142.1
 30
0.0
 11
16.0714
 21
142.5999999999999
 31
0.0
  0
LINE
  5
3F1
330
1E
100
AcDbEntity
  8
0
100
AcDbLine
 10
15.64289999999999
 20
141.1
 30
0.0
 11
16.0714
 21
140.5999999999999
 31
0.0
  0
LINE
  5
3F2
330
1E
100
AcDbEntity
  8
0
100
AcDbLine
 10
15.64289999999999
 20
142.1
 30
0.0
 11
15.64289999999999
 21
141.1
 31
0.0
  0
LINE
  5
3F3
330
1E
100
AcDbEntity
  8
0
100
AcDbLine
 10
15.64289999999999
 20
141.1
 30
0.0
 11
15.64289999999999
 21
142.1
 31
0.0
  0
LINE
  5
3F4
330
1E
100
AcDbEntity
  8
0
100
AcDbLine
 10
15.64289999999999
 20
147.9
 30
0.0
 11
16.0714
 21
147.4
 31
0.0
  0
LINE
  5
3F5
330
1E
100
AcDbEntity
  8
0
100
AcDbLine
 10
15.64289999999999
 20
148.9
 30
0.0
 11
16.0714
 21
149.3999999999999
 31
0.0
  0
LINE
  5
3F6
330
1E
100
AcDbEntity
  8
0
100
AcDbLine
 10
15.64289999999999
 20
147.9
 30
0.0
 11
15.64289999999999
 21
148.9
 31
0.0
  0
LINE
  5
3F7
330
1E
100
AcDbEntity
  8
0
100
AcDbLine
 10
15.64289999999999
 20
148.9
 30
0.0
 11
15.64289999999999
 21
147.9
 31
0.0
  0
LINE
  5
3F8
330
1E
100
AcDbEntity
  8
0
100
AcDbLine
 10
15.64289999999999
 20
154.6999999999999
 30
0.0
 11
16.0714
 21
154.1999999999999
 31
0.0
  0
LINE
  5
3F9
330
1E
100
AcDbEntity
  8
0
100
AcDbLine
 10
15.64289999999999
 20
155.6999999999999
 30
0.0
 11
16.0714
 21
156.1999999999999
 31
0.0
  0
LINE
  5
3FA
330
1E
100
AcDbEntity
  8
0
100
AcDbLine
 10
15.64289999999999
 20
154.6999999999999
 30
0.0
 11
15.64289999999999
 21
155.6999999999999
 31
0.0
  0
LINE
  5
3FB
330
1E
100
AcDbEntity
  8
0
100
AcDbLine
 10
15.64289999999999
 20
155.6999999999999
 30
0.0
 11
15.64289999999999
 21
154.6999999999999
 31
0.0
  0
LINE
  5
3FC
330
1E
100
AcDbEntity
  8
0
100
AcDbLine
 10
15.64289999999999
 20
162.5
 30
0.0
 11
16.0714
 21
163.0
 31
0.0
  0
LINE
  5
3FD
330
1E
100
AcDbEntity
  8
0
100
AcDbLine
 10
15.64289999999999
 20
161.5
 30
0.0
 11
16.0714
 21
161.0
 31
0.0
  0
LINE
  5
3FE
330
1E
100
AcDbEntity
  8
0
100
AcDbLine
 10
15.64289999999999
 20
162.5
 30
0.0
 11
15.64289999999999
 21
161.5
 31
0.0
  0
LINE
  5
3FF
330
1E
100
AcDbEntity
  8
0
100
AcDbLine
 10
15.64289999999999
 20
161.5
 30
0.0
 11
15.64289999999999
 21
162.5
 31
0.0
  0
LINE
  5
400
330
1E
100
AcDbEntity
  8
0
100
AcDbLine
 10
17.3571
 20
121.7
 30
0.0
 11
17.3571
 21
120.7
 31
0.0
  0
LINE
  5
401
330
1E
100
AcDbEntity
  8
0
100
AcDbLine
 10
17.3571
 20
120.7
 30
0.0
 11
17.3571
 21
121.7
 31
0.0
  0
LINE
  5
402
330
1E
100
AcDbEntity
  8
0
100
AcDbLine
 10
16.9286
 20
106.6
 30
0.0
 11
17.3571
 21
107.0999999999999
 31
0.0
  0
LINE
  5
403
330
1E
100
AcDbEntity
  8
0
100
AcDbLine
 10
16.9286
 20
95.00020000000001
 30
0.0
 11
17.3571
 21
94.50029999999999
 31
0.0
  0
LINE
  5
404
330
1E
100
AcDbEntity
  8
0
100
AcDbLine
 10
16.9286
 20
93.00029999999999
 30
0.0
 11
17.3571
 21
93.5003
 31
0.0
  0
LINE
  5
405
330
1E
100
AcDbEntity
  8
0
100
AcDbLine
 10
17.3571
 20
94.50029999999999
 30
0.0
 11
17.3571
 21
93.5003
 31
0.0
  0
LINE
  5
406
330
1E
100
AcDbEntity
  8
0
100
AcDbLine
 10
17.3571
 20
93.5003
 30
0.0
 11
17.3571
 21
94.50029999999999
 31
0.0
  0
LINE
  5
407
330
1E
100
AcDbEntity
  8
0
100
AcDbLine
 10
16.9286
 20
101.8
 30
0.0
 11
17.3571
 21
101.2999999999999
 31
0.0
  0
LINE
  5
408
330
1E
100
AcDbEntity
  8
0
100
AcDbLine
 10
16.9286
 20
99.80029999999999
 30
0.0
 11
17.3571
 21
100.2999999999999
 31
0.0
  0
LINE
  5
409
330
1E
100
AcDbEntity
  8
0
100
AcDbLine
 10
17.3571
 20
101.2999999999999
 30
0.0
 11
17.3571
 21
100.2999999999999
 31
0.0
  0
LINE
  5
40A
330
1E
100
AcDbEntity
  8
0
100
AcDbLine
 10
17.3571
 20
100.2999999999999
 30
0.0
 11
17.3571
 21
101.2999999999999
 31
0.0
  0
LINE
  5
40B
330
1E
100
AcDbEntity
  8
0
100
AcDbLine
 10
17.3571
 20
113.9
 30
0.0
 11
17.3571
 21
114.9
 31
0.0
  0
LINE
  5
40C
330
1E
100
AcDbEntity
  8
0
100
AcDbLine
 10
17.3571
 20
114.9
 30
0.0
 11
17.3571
 21
113.9
 31
0.0
  0
LINE
  5
40D
330
1E
100
AcDbEntity
  8
0
100
AcDbLine
 10
16.9286
 20
108.6
 30
0.0
 11
17.3571
 21
108.0999999999999
 31
0.0
  0
LINE
  5
40E
330
1E
100
AcDbEntity
  8
0
100
AcDbLine
 10
16.9286
 20
113.4
 30
0.0
 11
17.3571
 21
113.9
 31
0.0
  0
LINE
  5
40F
330
1E
100
AcDbEntity
  8
0
100
AcDbLine
 10
17.3571
 20
108.0999999999999
 30
0.0
 11
17.3571
 21
107.0999999999999
 31
0.0
  0
LINE
  5
410
330
1E
100
AcDbEntity
  8
0
100
AcDbLine
 10
17.3571
 20
107.0999999999999
 30
0.0
 11
17.3571
 21
108.0999999999999
 31
0.0
  0
LINE
  5
411
330
1E
100
AcDbEntity
  8
0
100
AcDbLine
 10
16.9286
 20
115.4
 30
0.0
 11
17.3571
 21
114.9
 31
0.0
  0
LINE
  5
412
330
1E
100
AcDbEntity
  8
0
100
AcDbLine
 10
16.9286
 20
120.1999999999999
 30
0.0
 11
17.3571
 21
120.7
 31
0.0
  0
LINE
  5
413
330
1E
100
AcDbEntity
  8
0
100
AcDbLine
 10
16.9286
 20
129.0
 30
0.0
 11
17.3571
 21
128.4999999999999
 31
0.0
  0
LINE
  5
414
330
1E
100
AcDbEntity
  8
0
100
AcDbLine
 10
16.9286
 20
122.1999999999999
 30
0.0
 11
17.3571
 21
121.7
 31
0.0
  0
LINE
  5
415
330
1E
100
AcDbEntity
  8
0
100
AcDbLine
 10
16.9286
 20
127.0
 30
0.0
 11
17.3571
 21
127.5
 31
0.0
  0
LINE
  5
416
330
1E
100
AcDbEntity
  8
0
100
AcDbLine
 10
17.3571
 20
127.5
 30
0.0
 11
17.3571
 21
128.4999999999999
 31
0.0
  0
LINE
  5
417
330
1E
100
AcDbEntity
  8
0
100
AcDbLine
 10
17.3571
 20
128.4999999999999
 30
0.0
 11
17.3571
 21
127.5
 31
0.0
  0
LINE
  5
418
330
1E
100
AcDbEntity
  8
0
100
AcDbLine
 10
16.9286
 20
135.8
 30
0.0
 11
17.3571
 21
135.3
 31
0.0
  0
LINE
  5
419
330
1E
100
AcDbEntity
  8
0
100
AcDbLine
 10
16.9286
 20
133.8
 30
0.0
 11
17.3571
 21
134.3
 31
0.0
  0
LINE
  5
41A
330
1E
100
AcDbEntity
  8
0
100
AcDbLine
 10
17.3571
 20
134.3
 30
0.0
 11
17.3571
 21
135.3
 31
0.0
  0
LINE
  5
41B
330
1E
100
AcDbEntity
  8
0
100
AcDbLine
 10
17.3571
 20
135.3
 30
0.0
 11
17.3571
 21
134.3
 31
0.0
  0
LINE
  5
41C
330
1E
100
AcDbEntity
  8
0
100
AcDbLine
 10
16.9286
 20
142.5999999999999
 30
0.0
 11
17.3571
 21
142.1
 31
0.0
  0
LINE
  5
41D
330
1E
100
AcDbEntity
  8
0
100
AcDbLine
 10
16.9286
 20
140.5999999999999
 30
0.0
 11
17.3571
 21
141.1
 31
0.0
  0
LINE
  5
41E
330
1E
100
AcDbEntity
  8
0
100
AcDbLine
 10
17.3571
 20
142.1
 30
0.0
 11
17.3571
 21
141.1
 31
0.0
  0
LINE
  5
41F
330
1E
100
AcDbEntity
  8
0
100
AcDbLine
 10
17.3571
 20
141.1
 30
0.0
 11
17.3571
 21
142.1
 31
0.0
  0
LINE
  5
420
330
1E
100
AcDbEntity
  8
0
100
AcDbLine
 10
16.9286
 20
147.4
 30
0.0
 11
17.3571
 21
147.9
 31
0.0
  0
LINE
  5
421
330
1E
100
AcDbEntity
  8
0
100
AcDbLine
 10
16.9286
 20
149.3999999999999
 30
0.0
 11
17.3571
 21
148.9
 31
0.0
  0
LINE
  5
422
330
1E
100
AcDbEntity
  8
0
100
AcDbLine
 10
17.3571
 20
148.9
 30
0.0
 11
17.3571
 21
147.9
 31
0.0
  0
LINE
  5
423
330
1E
100
AcDbEntity
  8
0
100
AcDbLine
 10
17.3571
 20
147.9
 30
0.0
 11
17.3571
 21
148.9
 31
0.0
  0
LINE
  5
424
330
1E
100
AcDbEntity
  8
0
100
AcDbLine
 10
16.9286
 20
154.1999999999999
 30
0.0
 11
17.3571
 21
154.6999999999999
 31
0.0
  0
LINE
  5
425
330
1E
100
AcDbEntity
  8
0
100
AcDbLine
 10
16.9286
 20
156.1999999999999
 30
0.0
 11
17.3571
 21
155.6999999999999
 31
0.0
  0
LINE
  5
426
330
1E
100
AcDbEntity
  8
0
100
AcDbLine
 10
17.3571
 20
155.6999999999999
 30
0.0
 11
17.3571
 21
154.6999999999999
 31
0.0
  0
LINE
  5
427
330
1E
100
AcDbEntity
  8
0
100
AcDbLine
 10
17.3571
 20
154.6999999999999
 30
0.0
 11
17.3571
 21
155.6999999999999
 31
0.0
  0
LINE
  5
428
330
1E
100
AcDbEntity
  8
0
100
AcDbLine
 10
16.9286
 20
163.0
 30
0.0
 11
17.3571
 21
162.5
 31
0.0
  0
LINE
  5
429
330
1E
100
AcDbEntity
  8
0
100
AcDbLine
 10
16.9286
 20
161.0
 30
0.0
 11
17.3571
 21
161.5
 31
0.0
  0
LINE
  5
42A
330
1E
100
AcDbEntity
  8
0
100
AcDbLine
 10
17.3571
 20
161.5
 30
0.0
 11
17.3571
 21
162.5
 31
0.0
  0
LINE
  5
42B
330
1E
100
AcDbEntity
  8
0
100
AcDbLine
 10
17.3571
 20
162.5
 30
0.0
 11
17.3571
 21
161.5
 31
0.0
  0
LINE
  5
42C
330
1E
100
AcDbEntity
  8
0
100
AcDbLine
 10
20.14289999999999
 20
148.9
 30
0.0
 11
20.57139999999999
 21
149.3999999999999
 31
0.0
  0
LINE
  5
42D
330
1E
100
AcDbEntity
  8
0
100
AcDbLine
 10
20.14289999999999
 20
147.9
 30
0.0
 11
20.57139999999999
 21
147.4
 31
0.0
  0
LINE
  5
42E
330
1E
100
AcDbEntity
  8
0
100
AcDbLine
 10
20.14289999999999
 20
141.1
 30
0.0
 11
20.57139999999999
 21
140.5999999999999
 31
0.0
  0
LINE
  5
42F
330
1E
100
AcDbEntity
  8
0
100
AcDbLine
 10
20.14289999999999
 20
142.1
 30
0.0
 11
20.57139999999999
 21
142.5999999999999
 31
0.0
  0
LINE
  5
430
330
1E
100
AcDbEntity
  8
0
100
AcDbLine
 10
20.14289999999999
 20
134.3
 30
0.0
 11
20.57139999999999
 21
133.8
 31
0.0
  0
LINE
  5
431
330
1E
100
AcDbEntity
  8
0
100
AcDbLine
 10
20.14289999999999
 20
135.3
 30
0.0
 11
20.57139999999999
 21
135.8
 31
0.0
  0
LINE
  5
432
330
1E
100
AcDbEntity
  8
0
100
AcDbLine
 10
20.14289999999999
 20
127.5
 30
0.0
 11
20.57139999999999
 21
127.0
 31
0.0
  0
LINE
  5
433
330
1E
100
AcDbEntity
  8
0
100
AcDbLine
 10
20.14289999999999
 20
121.7
 30
0.0
 11
20.57139999999999
 21
122.1999999999999
 31
0.0
  0
LINE
  5
434
330
1E
100
AcDbEntity
  8
0
100
AcDbLine
 10
20.14289999999999
 20
128.4999999999999
 30
0.0
 11
20.57139999999999
 21
129.0
 31
0.0
  0
LINE
  5
435
330
1E
100
AcDbEntity
  8
0
100
AcDbLine
 10
20.14289999999999
 20
120.7
 30
0.0
 11
20.57139999999999
 21
120.1999999999999
 31
0.0
  0
LINE
  5
436
330
1E
100
AcDbEntity
  8
0
100
AcDbLine
 10
20.14289999999999
 20
114.9
 30
0.0
 11
20.57139999999999
 21
115.4
 31
0.0
  0
LINE
  5
437
330
1E
100
AcDbEntity
  8
0
100
AcDbLine
 10
20.14289999999999
 20
113.9
 30
0.0
 11
20.57139999999999
 21
113.4
 31
0.0
  0
LINE
  5
438
330
1E
100
AcDbEntity
  8
0
100
AcDbLine
 10
20.14289999999999
 20
108.0999999999999
 30
0.0
 11
20.57139999999999
 21
108.6
 31
0.0
  0
LINE
  5
439
330
1E
100
AcDbEntity
  8
0
100
AcDbLine
 10
20.14289999999999
 20
100.2999999999999
 30
0.0
 11
20.57139999999999
 21
99.80029999999999
 31
0.0
  0
LINE
  5
43A
330
1E
100
AcDbEntity
  8
0
100
AcDbLine
 10
20.14289999999999
 20
101.2999999999999
 30
0.0
 11
20.57139999999999
 21
101.8
 31
0.0
  0
LINE
  5
43B
330
1E
100
AcDbEntity
  8
0
100
AcDbLine
 10
20.14289999999999
 20
94.50029999999999
 30
0.0
 11
20.57139999999999
 21
95.00020000000001
 31
0.0
  0
LINE
  5
43C
330
1E
100
AcDbEntity
  8
0
100
AcDbLine
 10
20.14289999999999
 20
93.5003
 30
0.0
 11
20.57139999999999
 21
93.00029999999999
 31
0.0
  0
LINE
  5
43D
330
1E
100
AcDbEntity
  8
0
100
AcDbLine
 10
20.14289999999999
 20
107.0999999999999
 30
0.0
 11
20.57139999999999
 21
106.6
 31
0.0
  0
LINE
  5
43E
330
1E
100
AcDbEntity
  8
0
100
AcDbLine
 10
20.14289999999999
 20
120.7
 30
0.0
 11
20.14289999999999
 21
121.7
 31
0.0
  0
LINE
  5
43F
330
1E
100
AcDbEntity
  8
0
100
AcDbLine
 10
20.14289999999999
 20
121.7
 30
0.0
 11
20.14289999999999
 21
120.7
 31
0.0
  0
LINE
  5
440
330
1E
100
AcDbEntity
  8
0
100
AcDbLine
 10
20.14289999999999
 20
94.50029999999999
 30
0.0
 11
20.14289999999999
 21
93.5003
 31
0.0
  0
LINE
  5
441
330
1E
100
AcDbEntity
  8
0
100
AcDbLine
 10
20.14289999999999
 20
93.5003
 30
0.0
 11
20.14289999999999
 21
94.50029999999999
 31
0.0
  0
LINE
  5
442
330
1E
100
AcDbEntity
  8
0
100
AcDbLine
 10
20.14289999999999
 20
100.2999999999999
 30
0.0
 11
20.14289999999999
 21
101.2999999999999
 31
0.0
  0
LINE
  5
443
330
1E
100
AcDbEntity
  8
0
100
AcDbLine
 10
20.14289999999999
 20
101.2999999999999
 30
0.0
 11
20.14289999999999
 21
100.2999999999999
 31
0.0
  0
LINE
  5
444
330
1E
100
AcDbEntity
  8
0
100
AcDbLine
 10
20.14289999999999
 20
113.9
 30
0.0
 11
20.14289999999999
 21
114.9
 31
0.0
  0
LINE
  5
445
330
1E
100
AcDbEntity
  8
0
100
AcDbLine
 10
20.14289999999999
 20
114.9
 30
0.0
 11
20.14289999999999
 21
113.9
 31
0.0
  0
LINE
  5
446
330
1E
100
AcDbEntity
  8
0
100
AcDbLine
 10
20.14289999999999
 20
107.0999999999999
 30
0.0
 11
20.14289999999999
 21
108.0999999999999
 31
0.0
  0
LINE
  5
447
330
1E
100
AcDbEntity
  8
0
100
AcDbLine
 10
20.14289999999999
 20
108.0999999999999
 30
0.0
 11
20.14289999999999
 21
107.0999999999999
 31
0.0
  0
LINE
  5
448
330
1E
100
AcDbEntity
  8
0
100
AcDbLine
 10
20.14289999999999
 20
127.5
 30
0.0
 11
20.14289999999999
 21
128.4999999999999
 31
0.0
  0
LINE
  5
449
330
1E
100
AcDbEntity
  8
0
100
AcDbLine
 10
20.14289999999999
 20
128.4999999999999
 30
0.0
 11
20.14289999999999
 21
127.5
 31
0.0
  0
LINE
  5
44A
330
1E
100
AcDbEntity
  8
0
100
AcDbLine
 10
20.14289999999999
 20
134.3
 30
0.0
 11
20.14289999999999
 21
135.3
 31
0.0
  0
LINE
  5
44B
330
1E
100
AcDbEntity
  8
0
100
AcDbLine
 10
20.14289999999999
 20
135.3
 30
0.0
 11
20.14289999999999
 21
134.3
 31
0.0
  0
LINE
  5
44C
330
1E
100
AcDbEntity
  8
0
100
AcDbLine
 10
20.14289999999999
 20
141.1
 30
0.0
 11
20.14289999999999
 21
142.1
 31
0.0
  0
LINE
  5
44D
330
1E
100
AcDbEntity
  8
0
100
AcDbLine
 10
20.14289999999999
 20
142.1
 30
0.0
 11
20.14289999999999
 21
141.1
 31
0.0
  0
LINE
  5
44E
330
1E
100
AcDbEntity
  8
0
100
AcDbLine
 10
20.14289999999999
 20
148.9
 30
0.0
 11
20.14289999999999
 21
147.9
 31
0.0
  0
LINE
  5
44F
330
1E
100
AcDbEntity
  8
0
100
AcDbLine
 10
20.14289999999999
 20
147.9
 30
0.0
 11
20.14289999999999
 21
148.9
 31
0.0
  0
LINE
  5
450
330
1E
100
AcDbEntity
  8
0
100
AcDbLine
 10
21.8571
 20
120.7
 30
0.0
 11
21.8571
 21
121.7
 31
0.0
  0
LINE
  5
451
330
1E
100
AcDbEntity
  8
0
100
AcDbLine
 10
21.8571
 20
121.7
 30
0.0
 11
21.8571
 21
120.7
 31
0.0
  0
LINE
  5
452
330
1E
100
AcDbEntity
  8
0
100
AcDbLine
 10
21.4286
 20
106.6
 30
0.0
 11
21.8571
 21
107.0999999999999
 31
0.0
  0
LINE
  5
453
330
1E
100
AcDbEntity
  8
0
100
AcDbLine
 10
20.57139999999999
 20
95.00020000000001
 30
0.0
 11
21.4286
 21
95.00020000000001
 31
0.0
  0
LINE
  5
454
330
1E
100
AcDbEntity
  8
0
100
AcDbLine
 10
20.57139999999999
 20
106.6
 30
0.0
 11
21.4286
 21
106.6
 31
0.0
  0
LINE
  5
455
330
1E
100
AcDbEntity
  8
0
100
AcDbLine
 10
20.57139999999999
 20
99.80029999999999
 30
0.0
 11
21.4286
 21
99.80029999999999
 31
0.0
  0
LINE
  5
456
330
1E
100
AcDbEntity
  8
0
100
AcDbLine
 10
20.57139999999999
 20
101.8
 30
0.0
 11
21.4286
 21
101.8
 31
0.0
  0
LINE
  5
457
330
1E
100
AcDbEntity
  8
0
100
AcDbLine
 10
20.57139999999999
 20
93.00029999999999
 30
0.0
 11
21.4286
 21
93.00029999999999
 31
0.0
  0
LINE
  5
458
330
1E
100
AcDbEntity
  8
0
100
AcDbLine
 10
21.4286
 20
93.00029999999999
 30
0.0
 11
21.8571
 21
93.5003
 31
0.0
  0
LINE
  5
459
330
1E
100
AcDbEntity
  8
0
100
AcDbLine
 10
21.4286
 20
95.00020000000001
 30
0.0
 11
21.8571
 21
94.50029999999999
 31
0.0
  0
LINE
  5
45A
330
1E
100
AcDbEntity
  8
0
100
AcDbLine
 10
21.8571
 20
93.5003
 30
0.0
 11
21.8571
 21
94.50029999999999
 31
0.0
  0
LINE
  5
45B
330
1E
100
AcDbEntity
  8
0
100
AcDbLine
 10
21.8571
 20
94.50029999999999
 30
0.0
 11
21.8571
 21
93.5003
 31
0.0
  0
LINE
  5
45C
330
1E
100
AcDbEntity
  8
0
100
AcDbLine
 10
21.4286
 20
99.80029999999999
 30
0.0
 11
21.8571
 21
100.2999999999999
 31
0.0
  0
LINE
  5
45D
330
1E
100
AcDbEntity
  8
0
100
AcDbLine
 10
21.4286
 20
101.8
 30
0.0
 11
21.8571
 21
101.2999999999999
 31
0.0
  0
LINE
  5
45E
330
1E
100
AcDbEntity
  8
0
100
AcDbLine
 10
21.8571
 20
100.2999999999999
 30
0.0
 11
21.8571
 21
101.2999999999999
 31
0.0
  0
LINE
  5
45F
330
1E
100
AcDbEntity
  8
0
100
AcDbLine
 10
21.8571
 20
101.2999999999999
 30
0.0
 11
21.8571
 21
100.2999999999999
 31
0.0
  0
LINE
  5
460
330
1E
100
AcDbEntity
  8
0
100
AcDbLine
 10
20.57139999999999
 20
120.1999999999999
 30
0.0
 11
21.4286
 21
120.1999999999999
 31
0.0
  0
LINE
  5
461
330
1E
100
AcDbEntity
  8
0
100
AcDbLine
 10
20.57139999999999
 20
113.4
 30
0.0
 11
21.4286
 21
113.4
 31
0.0
  0
LINE
  5
462
330
1E
100
AcDbEntity
  8
0
100
AcDbLine
 10
20.57139999999999
 20
115.4
 30
0.0
 11
21.4286
 21
115.4
 31
0.0
  0
LINE
  5
463
330
1E
100
AcDbEntity
  8
0
100
AcDbLine
 10
20.57139999999999
 20
108.6
 30
0.0
 11
21.4286
 21
108.6
 31
0.0
  0
LINE
  5
464
330
1E
100
AcDbEntity
  8
0
100
AcDbLine
 10
21.8571
 20
114.9
 30
0.0
 11
21.8571
 21
113.9
 31
0.0
  0
LINE
  5
465
330
1E
100
AcDbEntity
  8
0
100
AcDbLine
 10
21.8571
 20
113.9
 30
0.0
 11
21.8571
 21
114.9
 31
0.0
  0
LINE
  5
466
330
1E
100
AcDbEntity
  8
0
100
AcDbLine
 10
21.4286
 20
113.4
 30
0.0
 11
21.8571
 21
113.9
 31
0.0
  0
LINE
  5
467
330
1E
100
AcDbEntity
  8
0
100
AcDbLine
 10
21.4286
 20
108.6
 30
0.0
 11
21.8571
 21
108.0999999999999
 31
0.0
  0
LINE
  5
468
330
1E
100
AcDbEntity
  8
0
100
AcDbLine
 10
21.8571
 20
107.0999999999999
 30
0.0
 11
21.8571
 21
108.0999999999999
 31
0.0
  0
LINE
  5
469
330
1E
100
AcDbEntity
  8
0
100
AcDbLine
 10
21.8571
 20
108.0999999999999
 30
0.0
 11
21.8571
 21
107.0999999999999
 31
0.0
  0
LINE
  5
46A
330
1E
100
AcDbEntity
  8
0
100
AcDbLine
 10
21.4286
 20
120.1999999999999
 30
0.0
 11
21.8571
 21
120.7
 31
0.0
  0
LINE
  5
46B
330
1E
100
AcDbEntity
  8
0
100
AcDbLine
 10
21.4286
 20
115.4
 30
0.0
 11
21.8571
 21
114.9
 31
0.0
  0
LINE
  5
46C
330
1E
100
AcDbEntity
  8
0
100
AcDbLine
 10
20.57139999999999
 20
133.8
 30
0.0
 11
21.4286
 21
133.8
 31
0.0
  0
LINE
  5
46D
330
1E
100
AcDbEntity
  8
0
100
AcDbLine
 10
20.57139999999999
 20
135.8
 30
0.0
 11
21.4286
 21
135.8
 31
0.0
  0
LINE
  5
46E
330
1E
100
AcDbEntity
  8
0
100
AcDbLine
 10
20.57139999999999
 20
127.0
 30
0.0
 11
21.4286
 21
127.0
 31
0.0
  0
LINE
  5
46F
330
1E
100
AcDbEntity
  8
0
100
AcDbLine
 10
20.57139999999999
 20
129.0
 30
0.0
 11
21.4286
 21
129.0
 31
0.0
  0
LINE
  5
470
330
1E
100
AcDbEntity
  8
0
100
AcDbLine
 10
20.57139999999999
 20
122.1999999999999
 30
0.0
 11
21.4286
 21
122.1999999999999
 31
0.0
  0
LINE
  5
471
330
1E
100
AcDbEntity
  8
0
100
AcDbLine
 10
21.4286
 20
129.0
 30
0.0
 11
21.8571
 21
128.4999999999999
 31
0.0
  0
LINE
  5
472
330
1E
100
AcDbEntity
  8
0
100
AcDbLine
 10
21.4286
 20
127.0
 30
0.0
 11
21.8571
 21
127.5
 31
0.0
  0
LINE
  5
473
330
1E
100
AcDbEntity
  8
0
100
AcDbLine
 10
21.4286
 20
122.1999999999999
 30
0.0
 11
21.8571
 21
121.7
 31
0.0
  0
LINE
  5
474
330
1E
100
AcDbEntity
  8
0
100
AcDbLine
 10
21.8571
 20
128.4999999999999
 30
0.0
 11
21.8571
 21
127.5
 31
0.0
  0
LINE
  5
475
330
1E
100
AcDbEntity
  8
0
100
AcDbLine
 10
21.8571
 20
127.5
 30
0.0
 11
21.8571
 21
128.4999999999999
 31
0.0
  0
LINE
  5
476
330
1E
100
AcDbEntity
  8
0
100
AcDbLine
 10
21.4286
 20
133.8
 30
0.0
 11
21.8571
 21
134.3
 31
0.0
  0
LINE
  5
477
330
1E
100
AcDbEntity
  8
0
100
AcDbLine
 10
21.4286
 20
135.8
 30
0.0
 11
21.8571
 21
135.3
 31
0.0
  0
LINE
  5
478
330
1E
100
AcDbEntity
  8
0
100
AcDbLine
 10
21.8571
 20
135.3
 30
0.0
 11
21.8571
 21
134.3
 31
0.0
  0
LINE
  5
479
330
1E
100
AcDbEntity
  8
0
100
AcDbLine
 10
21.8571
 20
134.3
 30
0.0
 11
21.8571
 21
135.3
 31
0.0
  0
LINE
  5
47A
330
1E
100
AcDbEntity
  8
0
100
AcDbLine
 10
20.57139999999999
 20
149.3999999999999
 30
0.0
 11
21.4286
 21
149.3999999999999
 31
0.0
  0
LINE
  5
47B
330
1E
100
AcDbEntity
  8
0
100
AcDbLine
 10
20.57139999999999
 20
147.4
 30
0.0
 11
21.4286
 21
147.4
 31
0.0
  0
LINE
  5
47C
330
1E
100
AcDbEntity
  8
0
100
AcDbLine
 10
20.57139999999999
 20
140.5999999999999
 30
0.0
 11
21.4286
 21
140.5999999999999
 31
0.0
  0
LINE
  5
47D
330
1E
100
AcDbEntity
  8
0
100
AcDbLine
 10
20.57139999999999
 20
142.5999999999999
 30
0.0
 11
21.4286
 21
142.5999999999999
 31
0.0
  0
LINE
  5
47E
330
1E
100
AcDbEntity
  8
0
100
AcDbLine
 10
21.4286
 20
140.5999999999999
 30
0.0
 11
21.8571
 21
141.1
 31
0.0
  0
LINE
  5
47F
330
1E
100
AcDbEntity
  8
0
100
AcDbLine
 10
21.4286
 20
142.5999999999999
 30
0.0
 11
21.8571
 21
142.1
 31
0.0
  0
LINE
  5
480
330
1E
100
AcDbEntity
  8
0
100
AcDbLine
 10
21.8571
 20
141.1
 30
0.0
 11
21.8571
 21
142.1
 31
0.0
  0
LINE
  5
481
330
1E
100
AcDbEntity
  8
0
100
AcDbLine
 10
21.8571
 20
142.1
 30
0.0
 11
21.8571
 21
141.1
 31
0.0
  0
LINE
  5
482
330
1E
100
AcDbEntity
  8
0
100
AcDbLine
 10
21.4286
 20
149.3999999999999
 30
0.0
 11
21.8571
 21
148.9
 31
0.0
  0
LINE
  5
483
330
1E
100
AcDbEntity
  8
0
100
AcDbLine
 10
21.4286
 20
147.4
 30
0.0
 11
21.8571
 21
147.9
 31
0.0
  0
LINE
  5
484
330
1E
100
AcDbEntity
  8
0
100
AcDbLine
 10
21.8571
 20
147.9
 30
0.0
 11
21.8571
 21
148.9
 31
0.0
  0
LINE
  5
485
330
1E
100
AcDbEntity
  8
0
100
AcDbLine
 10
21.8571
 20
148.9
 30
0.0
 11
21.8571
 21
147.9
 31
0.0
  0
LINE
  5
486
330
1E
100
AcDbEntity
  8
0
100
AcDbLine
 10
20.14289999999999
 20
161.5
 30
0.0
 11
20.57139999999999
 21
161.0
 31
0.0
  0
LINE
  5
487
330
1E
100
AcDbEntity
  8
0
100
AcDbLine
 10
20.14289999999999
 20
162.5
 30
0.0
 11
20.57139999999999
 21
163.0
 31
0.0
  0
LINE
  5
488
330
1E
100
AcDbEntity
  8
0
100
AcDbLine
 10
20.14289999999999
 20
155.6999999999999
 30
0.0
 11
20.57139999999999
 21
156.1999999999999
 31
0.0
  0
LINE
  5
489
330
1E
100
AcDbEntity
  8
0
100
AcDbLine
 10
20.14289999999999
 20
154.6999999999999
 30
0.0
 11
20.57139999999999
 21
154.1999999999999
 31
0.0
  0
LINE
  5
48A
330
1E
100
AcDbEntity
  8
0
100
AcDbLine
 10
20.14289999999999
 20
155.6999999999999
 30
0.0
 11
20.14289999999999
 21
154.6999999999999
 31
0.0
  0
LINE
  5
48B
330
1E
100
AcDbEntity
  8
0
100
AcDbLine
 10
20.14289999999999
 20
154.6999999999999
 30
0.0
 11
20.14289999999999
 21
155.6999999999999
 31
0.0
  0
LINE
  5
48C
330
1E
100
AcDbEntity
  8
0
100
AcDbLine
 10
20.14289999999999
 20
161.5
 30
0.0
 11
20.14289999999999
 21
162.5
 31
0.0
  0
LINE
  5
48D
330
1E
100
AcDbEntity
  8
0
100
AcDbLine
 10
20.14289999999999
 20
162.5
 30
0.0
 11
20.14289999999999
 21
161.5
 31
0.0
  0
LINE
  5
48E
330
1E
100
AcDbEntity
  8
0
100
AcDbLine
 10
20.57139999999999
 20
161.0
 30
0.0
 11
21.4286
 21
161.0
 31
0.0
  0
LINE
  5
48F
330
1E
100
AcDbEntity
  8
0
100
AcDbLine
 10
20.57139999999999
 20
163.0
 30
0.0
 11
21.4286
 21
163.0
 31
0.0
  0
LINE
  5
490
330
1E
100
AcDbEntity
  8
0
100
AcDbLine
 10
20.57139999999999
 20
156.1999999999999
 30
0.0
 11
21.4286
 21
156.1999999999999
 31
0.0
  0
LINE
  5
491
330
1E
100
AcDbEntity
  8
0
100
AcDbLine
 10
20.57139999999999
 20
154.1999999999999
 30
0.0
 11
21.4286
 21
154.1999999999999
 31
0.0
  0
LINE
  5
492
330
1E
100
AcDbEntity
  8
0
100
AcDbLine
 10
21.4286
 20
156.1999999999999
 30
0.0
 11
21.8571
 21
155.6999999999999
 31
0.0
  0
LINE
  5
493
330
1E
100
AcDbEntity
  8
0
100
AcDbLine
 10
21.4286
 20
154.1999999999999
 30
0.0
 11
21.8571
 21
154.6999999999999
 31
0.0
  0
LINE
  5
494
330
1E
100
AcDbEntity
  8
0
100
AcDbLine
 10
21.8571
 20
154.6999999999999
 30
0.0
 11
21.8571
 21
155.6999999999999
 31
0.0
  0
LINE
  5
495
330
1E
100
AcDbEntity
  8
0
100
AcDbLine
 10
21.8571
 20
155.6999999999999
 30
0.0
 11
21.8571
 21
154.6999999999999
 31
0.0
  0
LINE
  5
496
330
1E
100
AcDbEntity
  8
0
100
AcDbLine
 10
21.4286
 20
161.0
 30
0.0
 11
21.8571
 21
161.5
 31
0.0
  0
LINE
  5
497
330
1E
100
AcDbEntity
  8
0
100
AcDbLine
 10
21.4286
 20
163.0
 30
0.0
 11
21.8571
 21
162.5
 31
0.0
  0
LINE
  5
498
330
1E
100
AcDbEntity
  8
0
100
AcDbLine
 10
21.8571
 20
162.5
 30
0.0
 11
21.8571
 21
161.5
 31
0.0
  0
LINE
  5
499
330
1E
100
AcDbEntity
  8
0
100
AcDbLine
 10
21.8571
 20
161.5
 30
0.0
 11
21.8571
 21
162.5
 31
0.0
  0
LINE
  5
49A
330
1E
100
AcDbEntity
  8
0
100
AcDbLine
 10
2.5714
 20
93.00029999999999
 30
0.0
 11
3.428599999999999
 21
93.00029999999999
 31
0.0
  0
LINE
  5
49B
330
1E
100
AcDbEntity
  8
0
100
AcDbLine
 10
2.5714
 20
101.8
 30
0.0
 11
3.428599999999999
 21
101.8
 31
0.0
  0
LINE
  5
49C
330
1E
100
AcDbEntity
  8
0
100
AcDbLine
 10
2.5714
 20
99.80029999999999
 30
0.0
 11
3.428599999999999
 21
99.80029999999999
 31
0.0
  0
LINE
  5
49D
330
1E
100
AcDbEntity
  8
0
100
AcDbLine
 10
2.5714
 20
108.6
 30
0.0
 11
3.428599999999999
 21
108.6
 31
0.0
  0
LINE
  5
49E
330
1E
100
AcDbEntity
  8
0
100
AcDbLine
 10
2.5714
 20
106.6
 30
0.0
 11
3.428599999999999
 21
106.6
 31
0.0
  0
LINE
  5
49F
330
1E
100
AcDbEntity
  8
0
100
AcDbLine
 10
2.5714
 20
115.4
 30
0.0
 11
3.428599999999999
 21
115.4
 31
0.0
  0
LINE
  5
4A0
330
1E
100
AcDbEntity
  8
0
100
AcDbLine
 10
2.5714
 20
113.4
 30
0.0
 11
3.428599999999999
 21
113.4
 31
0.0
  0
LINE
  5
4A1
330
1E
100
AcDbEntity
  8
0
100
AcDbLine
 10
2.5714
 20
122.1999999999999
 30
0.0
 11
3.428599999999999
 21
122.1999999999999
 31
0.0
  0
LINE
  5
4A2
330
1E
100
AcDbEntity
  8
0
100
AcDbLine
 10
2.5714
 20
120.1999999999999
 30
0.0
 11
3.428599999999999
 21
120.1999999999999
 31
0.0
  0
LINE
  5
4A3
330
1E
100
AcDbEntity
  8
0
100
AcDbLine
 10
2.5714
 20
129.0
 30
0.0
 11
3.428599999999999
 21
129.0
 31
0.0
  0
LINE
  5
4A4
330
1E
100
AcDbEntity
  8
0
100
AcDbLine
 10
2.5714
 20
127.0
 30
0.0
 11
3.428599999999999
 21
127.0
 31
0.0
  0
LINE
  5
4A5
330
1E
100
AcDbEntity
  8
0
100
AcDbLine
 10
2.5714
 20
135.8
 30
0.0
 11
3.428599999999999
 21
135.8
 31
0.0
  0
LINE
  5
4A6
330
1E
100
AcDbEntity
  8
0
100
AcDbLine
 10
2.5714
 20
133.8
 30
0.0
 11
3.428599999999999
 21
133.8
 31
0.0
  0
LINE
  5
4A7
330
1E
100
AcDbEntity
  8
0
100
AcDbLine
 10
2.5714
 20
142.5999999999999
 30
0.0
 11
3.428599999999999
 21
142.5999999999999
 31
0.0
  0
LINE
  5
4A8
330
1E
100
AcDbEntity
  8
0
100
AcDbLine
 10
2.5714
 20
140.5999999999999
 30
0.0
 11
3.428599999999999
 21
140.5999999999999
 31
0.0
  0
LINE
  5
4A9
330
1E
100
AcDbEntity
  8
0
100
AcDbLine
 10
2.5714
 20
147.4
 30
0.0
 11
3.428599999999999
 21
147.4
 31
0.0
  0
LINE
  5
4AA
330
1E
100
AcDbEntity
  8
0
100
AcDbLine
 10
2.5714
 20
154.1999999999999
 30
0.0
 11
3.428599999999999
 21
154.1999999999999
 31
0.0
  0
LINE
  5
4AB
330
1E
100
AcDbEntity
  8
0
100
AcDbLine
 10
2.5714
 20
156.1999999999999
 30
0.0
 11
3.428599999999999
 21
156.1999999999999
 31
0.0
  0
LINE
  5
4AC
330
1E
100
AcDbEntity
  8
0
100
AcDbLine
 10
2.5714
 20
163.0
 30
0.0
 11
3.428599999999999
 21
163.0
 31
0.0
  0
LINE
  5
4AD
330
1E
100
AcDbEntity
  8
0
100
AcDbLine
 10
2.5714
 20
161.0
 30
0.0
 11
3.428599999999999
 21
161.0
 31
0.0
  0
LINE
  5
4AE
330
1E
100
AcDbEntity
  8
0
100
AcDbLine
 10
2.5714
 20
149.3999999999999
 30
0.0
 11
3.428599999999999
 21
149.3999999999999
 31
0.0
  0
LINE
  5
4AF
330
1E
100
AcDbEntity
  8
0
100
AcDbLine
 10
2.5714
 20
95.00020000000001
 30
0.0
 11
3.428599999999999
 21
95.00020000000001
 31
0.0
  0
LINE
  5
4B0
330
1E
100
AcDbEntity
  8
0
100
AcDbLine
 10
2.142899999999999
 20
121.7
 30
0.0
 11
2.142899999999999
 21
120.7
 31
0.0
  0
LINE
  5
4B1
330
1E
100
AcDbEntity
  8
0
100
AcDbLine
 10
2.142899999999999
 20
120.7
 30
0.0
 11
2.142899999999999
 21
121.7
 31
0.0
  0
LINE
  5
4B2
330
1E
100
AcDbEntity
  8
0
100
AcDbLine
 10
2.142899999999999
 20
107.0999999999999
 30
0.0
 11
2.5714
 21
106.6
 31
0.0
  0
LINE
  5
4B3
330
1E
100
AcDbEntity
  8
0
100
AcDbLine
 10
2.142899999999999
 20
93.5003
 30
0.0
 11
2.5714
 21
93.00029999999999
 31
0.0
  0
LINE
  5
4B4
330
1E
100
AcDbEntity
  8
0
100
AcDbLine
 10
2.142899999999999
 20
94.50029999999999
 30
0.0
 11
2.5714
 21
95.00020000000001
 31
0.0
  0
LINE
  5
4B5
330
1E
100
AcDbEntity
  8
0
100
AcDbLine
 10
2.142899999999999
 20
93.5003
 30
0.0
 11
2.142899999999999
 21
94.50029999999999
 31
0.0
  0
LINE
  5
4B6
330
1E
100
AcDbEntity
  8
0
100
AcDbLine
 10
2.142899999999999
 20
94.50029999999999
 30
0.0
 11
2.142899999999999
 21
93.5003
 31
0.0
  0
LINE
  5
4B7
330
1E
100
AcDbEntity
  8
0
100
AcDbLine
 10
2.142899999999999
 20
101.2999999999999
 30
0.0
 11
2.5714
 21
101.8
 31
0.0
  0
LINE
  5
4B8
330
1E
100
AcDbEntity
  8
0
100
AcDbLine
 10
2.142899999999999
 20
100.2999999999999
 30
0.0
 11
2.5714
 21
99.80029999999999
 31
0.0
  0
LINE
  5
4B9
330
1E
100
AcDbEntity
  8
0
100
AcDbLine
 10
2.142899999999999
 20
101.2999999999999
 30
0.0
 11
2.142899999999999
 21
100.2999999999999
 31
0.0
  0
LINE
  5
4BA
330
1E
100
AcDbEntity
  8
0
100
AcDbLine
 10
2.142899999999999
 20
100.2999999999999
 30
0.0
 11
2.142899999999999
 21
101.2999999999999
 31
0.0
  0
LINE
  5
4BB
330
1E
100
AcDbEntity
  8
0
100
AcDbLine
 10
2.142899999999999
 20
114.9
 30
0.0
 11
2.142899999999999
 21
113.9
 31
0.0
  0
LINE
  5
4BC
330
1E
100
AcDbEntity
  8
0
100
AcDbLine
 10
2.142899999999999
 20
113.9
 30
0.0
 11
2.142899999999999
 21
114.9
 31
0.0
  0
LINE
  5
4BD
330
1E
100
AcDbEntity
  8
0
100
AcDbLine
 10
2.142899999999999
 20
108.0999999999999
 30
0.0
 11
2.5714
 21
108.6
 31
0.0
  0
LINE
  5
4BE
330
1E
100
AcDbEntity
  8
0
100
AcDbLine
 10
2.142899999999999
 20
113.9
 30
0.0
 11
2.5714
 21
113.4
 31
0.0
  0
LINE
  5
4BF
330
1E
100
AcDbEntity
  8
0
100
AcDbLine
 10
2.142899999999999
 20
108.0999999999999
 30
0.0
 11
2.142899999999999
 21
107.0999999999999
 31
0.0
  0
LINE
  5
4C0
330
1E
100
AcDbEntity
  8
0
100
AcDbLine
 10
2.142899999999999
 20
107.0999999999999
 30
0.0
 11
2.142899999999999
 21
108.0999999999999
 31
0.0
  0
LINE
  5
4C1
330
1E
100
AcDbEntity
  8
0
100
AcDbLine
 10
2.142899999999999
 20
114.9
 30
0.0
 11
2.5714
 21
115.4
 31
0.0
  0
LINE
  5
4C2
330
1E
100
AcDbEntity
  8
0
100
AcDbLine
 10
2.142899999999999
 20
120.7
 30
0.0
 11
2.5714
 21
120.1999999999999
 31
0.0
  0
LINE
  5
4C3
330
1E
100
AcDbEntity
  8
0
100
AcDbLine
 10
2.142899999999999
 20
128.4999999999999
 30
0.0
 11
2.5714
 21
129.0
 31
0.0
  0
LINE
  5
4C4
330
1E
100
AcDbEntity
  8
0
100
AcDbLine
 10
2.142899999999999
 20
121.7
 30
0.0
 11
2.5714
 21
122.1999999999999
 31
0.0
  0
LINE
  5
4C5
330
1E
100
AcDbEntity
  8
0
100
AcDbLine
 10
2.142899999999999
 20
127.5
 30
0.0
 11
2.5714
 21
127.0
 31
0.0
  0
LINE
  5
4C6
330
1E
100
AcDbEntity
  8
0
100
AcDbLine
 10
2.142899999999999
 20
128.4999999999999
 30
0.0
 11
2.142899999999999
 21
127.5
 31
0.0
  0
LINE
  5
4C7
330
1E
100
AcDbEntity
  8
0
100
AcDbLine
 10
2.142899999999999
 20
127.5
 30
0.0
 11
2.142899999999999
 21
128.4999999999999
 31
0.0
  0
LINE
  5
4C8
330
1E
100
AcDbEntity
  8
0
100
AcDbLine
 10
2.142899999999999
 20
135.3
 30
0.0
 11
2.5714
 21
135.8
 31
0.0
  0
LINE
  5
4C9
330
1E
100
AcDbEntity
  8
0
100
AcDbLine
 10
2.142899999999999
 20
134.3
 30
0.0
 11
2.5714
 21
133.8
 31
0.0
  0
LINE
  5
4CA
330
1E
100
AcDbEntity
  8
0
100
AcDbLine
 10
2.142899999999999
 20
135.3
 30
0.0
 11
2.142899999999999
 21
134.3
 31
0.0
  0
LINE
  5
4CB
330
1E
100
AcDbEntity
  8
0
100
AcDbLine
 10
2.142899999999999
 20
134.3
 30
0.0
 11
2.142899999999999
 21
135.3
 31
0.0
  0
LINE
  5
4CC
330
1E
100
AcDbEntity
  8
0
100
AcDbLine
 10
2.142899999999999
 20
142.1
 30
0.0
 11
2.5714
 21
142.5999999999999
 31
0.0
  0
LINE
  5
4CD
330
1E
100
AcDbEntity
  8
0
100
AcDbLine
 10
2.142899999999999
 20
141.1
 30
0.0
 11
2.5714
 21
140.5999999999999
 31
0.0
  0
LINE
  5
4CE
330
1E
100
AcDbEntity
  8
0
100
AcDbLine
 10
2.142899999999999
 20
142.1
 30
0.0
 11
2.142899999999999
 21
141.1
 31
0.0
  0
LINE
  5
4CF
330
1E
100
AcDbEntity
  8
0
100
AcDbLine
 10
2.142899999999999
 20
141.1
 30
0.0
 11
2.142899999999999
 21
142.1
 31
0.0
  0
LINE
  5
4D0
330
1E
100
AcDbEntity
  8
0
100
AcDbLine
 10
2.142899999999999
 20
147.9
 30
0.0
 11
2.5714
 21
147.4
 31
0.0
  0
LINE
  5
4D1
330
1E
100
AcDbEntity
  8
0
100
AcDbLine
 10
2.142899999999999
 20
148.9
 30
0.0
 11
2.5714
 21
149.3999999999999
 31
0.0
  0
LINE
  5
4D2
330
1E
100
AcDbEntity
  8
0
100
AcDbLine
 10
2.142899999999999
 20
147.9
 30
0.0
 11
2.142899999999999
 21
148.9
 31
0.0
  0
LINE
  5
4D3
330
1E
100
AcDbEntity
  8
0
100
AcDbLine
 10
2.142899999999999
 20
148.9
 30
0.0
 11
2.142899999999999
 21
147.9
 31
0.0
  0
LINE
  5
4D4
330
1E
100
AcDbEntity
  8
0
100
AcDbLine
 10
2.142899999999999
 20
154.6999999999999
 30
0.0
 11
2.5714
 21
154.1999999999999
 31
0.0
  0
LINE
  5
4D5
330
1E
100
AcDbEntity
  8
0
100
AcDbLine
 10
2.142899999999999
 20
155.6999999999999
 30
0.0
 11
2.5714
 21
156.1999999999999
 31
0.0
  0
LINE
  5
4D6
330
1E
100
AcDbEntity
  8
0
100
AcDbLine
 10
2.142899999999999
 20
154.6999999999999
 30
0.0
 11
2.142899999999999
 21
155.6999999999999
 31
0.0
  0
LINE
  5
4D7
330
1E
100
AcDbEntity
  8
0
100
AcDbLine
 10
2.142899999999999
 20
155.6999999999999
 30
0.0
 11
2.142899999999999
 21
154.6999999999999
 31
0.0
  0
LINE
  5
4D8
330
1E
100
AcDbEntity
  8
0
100
AcDbLine
 10
2.142899999999999
 20
162.5
 30
0.0
 11
2.5714
 21
163.0
 31
0.0
  0
LINE
  5
4D9
330
1E
100
AcDbEntity
  8
0
100
AcDbLine
 10
2.142899999999999
 20
161.5
 30
0.0
 11
2.5714
 21
161.0
 31
0.0
  0
LINE
  5
4DA
330
1E
100
AcDbEntity
  8
0
100
AcDbLine
 10
2.142899999999999
 20
162.5
 30
0.0
 11
2.142899999999999
 21
161.5
 31
0.0
  0
LINE
  5
4DB
330
1E
100
AcDbEntity
  8
0
100
AcDbLine
 10
2.142899999999999
 20
161.5
 30
0.0
 11
2.142899999999999
 21
162.5
 31
0.0
  0
LINE
  5
4DC
330
1E
100
AcDbEntity
  8
0
100
AcDbLine
 10
6.642899999999999
 20
148.9
 30
0.0
 11
7.0714
 21
149.3999999999999
 31
0.0
  0
LINE
  5
4DD
330
1E
100
AcDbEntity
  8
0
100
AcDbLine
 10
6.642899999999999
 20
147.9
 30
0.0
 11
7.0714
 21
147.4
 31
0.0
  0
LINE
  5
4DE
330
1E
100
AcDbEntity
  8
0
100
AcDbLine
 10
6.642899999999999
 20
141.1
 30
0.0
 11
7.0714
 21
140.5999999999999
 31
0.0
  0
LINE
  5
4DF
330
1E
100
AcDbEntity
  8
0
100
AcDbLine
 10
6.642899999999999
 20
142.1
 30
0.0
 11
7.0714
 21
142.5999999999999
 31
0.0
  0
LINE
  5
4E0
330
1E
100
AcDbEntity
  8
0
100
AcDbLine
 10
6.642899999999999
 20
134.3
 30
0.0
 11
7.0714
 21
133.8
 31
0.0
  0
LINE
  5
4E1
330
1E
100
AcDbEntity
  8
0
100
AcDbLine
 10
6.642899999999999
 20
135.3
 30
0.0
 11
7.0714
 21
135.8
 31
0.0
  0
LINE
  5
4E2
330
1E
100
AcDbEntity
  8
0
100
AcDbLine
 10
6.642899999999999
 20
127.5
 30
0.0
 11
7.0714
 21
127.0
 31
0.0
  0
LINE
  5
4E3
330
1E
100
AcDbEntity
  8
0
100
AcDbLine
 10
6.642899999999999
 20
121.7
 30
0.0
 11
7.0714
 21
122.1999999999999
 31
0.0
  0
LINE
  5
4E4
330
1E
100
AcDbEntity
  8
0
100
AcDbLine
 10
6.642899999999999
 20
128.4999999999999
 30
0.0
 11
7.0714
 21
129.0
 31
0.0
  0
LINE
  5
4E5
330
1E
100
AcDbEntity
  8
0
100
AcDbLine
 10
6.642899999999999
 20
120.7
 30
0.0
 11
7.0714
 21
120.1999999999999
 31
0.0
  0
LINE
  5
4E6
330
1E
100
AcDbEntity
  8
0
100
AcDbLine
 10
6.642899999999999
 20
114.9
 30
0.0
 11
7.0714
 21
115.4
 31
0.0
  0
LINE
  5
4E7
330
1E
100
AcDbEntity
  8
0
100
AcDbLine
 10
6.642899999999999
 20
113.9
 30
0.0
 11
7.0714
 21
113.4
 31
0.0
  0
LINE
  5
4E8
330
1E
100
AcDbEntity
  8
0
100
AcDbLine
 10
6.642899999999999
 20
108.0999999999999
 30
0.0
 11
7.0714
 21
108.6
 31
0.0
  0
LINE
  5
4E9
330
1E
100
AcDbEntity
  8
0
100
AcDbLine
 10
6.642899999999999
 20
100.2999999999999
 30
0.0
 11
7.0714
 21
99.80029999999999
 31
0.0
  0
LINE
  5
4EA
330
1E
100
AcDbEntity
  8
0
100
AcDbLine
 10
6.642899999999999
 20
101.2999999999999
 30
0.0
 11
7.0714
 21
101.8
 31
0.0
  0
LINE
  5
4EB
330
1E
100
AcDbEntity
  8
0
100
AcDbLine
 10
6.642899999999999
 20
94.50029999999999
 30
0.0
 11
7.0714
 21
95.00020000000001
 31
0.0
  0
LINE
  5
4EC
330
1E
100
AcDbEntity
  8
0
100
AcDbLine
 10
6.642899999999999
 20
93.5003
 30
0.0
 11
7.0714
 21
93.00029999999999
 31
0.0
  0
LINE
  5
4ED
330
1E
100
AcDbEntity
  8
0
100
AcDbLine
 10
6.642899999999999
 20
107.0999999999999
 30
0.0
 11
7.0714
 21
106.6
 31
0.0
  0
LINE
  5
4EE
330
1E
100
AcDbEntity
  8
0
100
AcDbLine
 10
6.642899999999999
 20
120.7
 30
0.0
 11
6.642899999999999
 21
121.7
 31
0.0
  0
LINE
  5
4EF
330
1E
100
AcDbEntity
  8
0
100
AcDbLine
 10
6.642899999999999
 20
121.7
 30
0.0
 11
6.642899999999999
 21
120.7
 31
0.0
  0
LINE
  5
4F0
330
1E
100
AcDbEntity
  8
0
100
AcDbLine
 10
3.8571
 20
121.7
 30
0.0
 11
3.8571
 21
120.7
 31
0.0
  0
LINE
  5
4F1
330
1E
100
AcDbEntity
  8
0
100
AcDbLine
 10
3.8571
 20
120.7
 30
0.0
 11
3.8571
 21
121.7
 31
0.0
  0
LINE
  5
4F2
330
1E
100
AcDbEntity
  8
0
100
AcDbLine
 10
3.428599999999999
 20
106.6
 30
0.0
 11
3.8571
 21
107.0999999999999
 31
0.0
  0
LINE
  5
4F3
330
1E
100
AcDbEntity
  8
0
100
AcDbLine
 10
3.428599999999999
 20
95.00020000000001
 30
0.0
 11
3.8571
 21
94.50029999999999
 31
0.0
  0
LINE
  5
4F4
330
1E
100
AcDbEntity
  8
0
100
AcDbLine
 10
3.428599999999999
 20
93.00029999999999
 30
0.0
 11
3.8571
 21
93.5003
 31
0.0
  0
LINE
  5
4F5
330
1E
100
AcDbEntity
  8
0
100
AcDbLine
 10
3.8571
 20
94.50029999999999
 30
0.0
 11
3.8571
 21
93.5003
 31
0.0
  0
LINE
  5
4F6
330
1E
100
AcDbEntity
  8
0
100
AcDbLine
 10
3.8571
 20
93.5003
 30
0.0
 11
3.8571
 21
94.50029999999999
 31
0.0
  0
LINE
  5
4F7
330
1E
100
AcDbEntity
  8
0
100
AcDbLine
 10
3.428599999999999
 20
101.8
 30
0.0
 11
3.8571
 21
101.2999999999999
 31
0.0
  0
LINE
  5
4F8
330
1E
100
AcDbEntity
  8
0
100
AcDbLine
 10
3.428599999999999
 20
99.80029999999999
 30
0.0
 11
3.8571
 21
100.2999999999999
 31
0.0
  0
LINE
  5
4F9
330
1E
100
AcDbEntity
  8
0
100
AcDbLine
 10
3.8571
 20
101.2999999999999
 30
0.0
 11
3.8571
 21
100.2999999999999
 31
0.0
  0
LINE
  5
4FA
330
1E
100
AcDbEntity
  8
0
100
AcDbLine
 10
3.8571
 20
100.2999999999999
 30
0.0
 11
3.8571
 21
101.2999999999999
 31
0.0
  0
LINE
  5
4FB
330
1E
100
AcDbEntity
  8
0
100
AcDbLine
 10
3.8571
 20
113.9
 30
0.0
 11
3.8571
 21
114.9
 31
0.0
  0
LINE
  5
4FC
330
1E
100
AcDbEntity
  8
0
100
AcDbLine
 10
3.8571
 20
114.9
 30
0.0
 11
3.8571
 21
113.9
 31
0.0
  0
LINE
  5
4FD
330
1E
100
AcDbEntity
  8
0
100
AcDbLine
 10
3.428599999999999
 20
108.6
 30
0.0
 11
3.8571
 21
108.0999999999999
 31
0.0
  0
LINE
  5
4FE
330
1E
100
AcDbEntity
  8
0
100
AcDbLine
 10
3.428599999999999
 20
113.4
 30
0.0
 11
3.8571
 21
113.9
 31
0.0
  0
LINE
  5
4FF
330
1E
100
AcDbEntity
  8
0
100
AcDbLine
 10
3.8571
 20
108.0999999999999
 30
0.0
 11
3.8571
 21
107.0999999999999
 31
0.0
  0
LINE
  5
500
330
1E
100
AcDbEntity
  8
0
100
AcDbLine
 10
3.8571
 20
107.0999999999999
 30
0.0
 11
3.8571
 21
108.0999999999999
 31
0.0
  0
LINE
  5
501
330
1E
100
AcDbEntity
  8
0
100
AcDbLine
 10
3.428599999999999
 20
115.4
 30
0.0
 11
3.8571
 21
114.9
 31
0.0
  0
LINE
  5
502
330
1E
100
AcDbEntity
  8
0
100
AcDbLine
 10
3.428599999999999
 20
120.1999999999999
 30
0.0
 11
3.8571
 21
120.7
 31
0.0
  0
LINE
  5
503
330
1E
100
AcDbEntity
  8
0
100
AcDbLine
 10
6.642899999999999
 20
94.50029999999999
 30
0.0
 11
6.642899999999999
 21
93.5003
 31
0.0
  0
LINE
  5
504
330
1E
100
AcDbEntity
  8
0
100
AcDbLine
 10
6.642899999999999
 20
93.5003
 30
0.0
 11
6.642899999999999
 21
94.50029999999999
 31
0.0
  0
LINE
  5
505
330
1E
100
AcDbEntity
  8
0
100
AcDbLine
 10
6.642899999999999
 20
100.2999999999999
 30
0.0
 11
6.642899999999999
 21
101.2999999999999
 31
0.0
  0
LINE
  5
506
330
1E
100
AcDbEntity
  8
0
100
AcDbLine
 10
6.642899999999999
 20
101.2999999999999
 30
0.0
 11
6.642899999999999
 21
100.2999999999999
 31
0.0
  0
LINE
  5
507
330
1E
100
AcDbEntity
  8
0
100
AcDbLine
 10
6.642899999999999
 20
113.9
 30
0.0
 11
6.642899999999999
 21
114.9
 31
0.0
  0
LINE
  5
508
330
1E
100
AcDbEntity
  8
0
100
AcDbLine
 10
6.642899999999999
 20
114.9
 30
0.0
 11
6.642899999999999
 21
113.9
 31
0.0
  0
LINE
  5
509
330
1E
100
AcDbEntity
  8
0
100
AcDbLine
 10
6.642899999999999
 20
107.0999999999999
 30
0.0
 11
6.642899999999999
 21
108.0999999999999
 31
0.0
  0
LINE
  5
50A
330
1E
100
AcDbEntity
  8
0
100
AcDbLine
 10
6.642899999999999
 20
108.0999999999999
 30
0.0
 11
6.642899999999999
 21
107.0999999999999
 31
0.0
  0
LINE
  5
50B
330
1E
100
AcDbEntity
  8
0
100
AcDbLine
 10
3.428599999999999
 20
129.0
 30
0.0
 11
3.8571
 21
128.4999999999999
 31
0.0
  0
LINE
  5
50C
330
1E
100
AcDbEntity
  8
0
100
AcDbLine
 10
3.428599999999999
 20
122.1999999999999
 30
0.0
 11
3.8571
 21
121.7
 31
0.0
  0
LINE
  5
50D
330
1E
100
AcDbEntity
  8
0
100
AcDbLine
 10
3.428599999999999
 20
127.0
 30
0.0
 11
3.8571
 21
127.5
 31
0.0
  0
LINE
  5
50E
330
1E
100
AcDbEntity
  8
0
100
AcDbLine
 10
3.8571
 20
127.5
 30
0.0
 11
3.8571
 21
128.4999999999999
 31
0.0
  0
LINE
  5
50F
330
1E
100
AcDbEntity
  8
0
100
AcDbLine
 10
3.8571
 20
128.4999999999999
 30
0.0
 11
3.8571
 21
127.5
 31
0.0
  0
LINE
  5
510
330
1E
100
AcDbEntity
  8
0
100
AcDbLine
 10
3.428599999999999
 20
135.8
 30
0.0
 11
3.8571
 21
135.3
 31
0.0
  0
LINE
  5
511
330
1E
100
AcDbEntity
  8
0
100
AcDbLine
 10
3.428599999999999
 20
133.8
 30
0.0
 11
3.8571
 21
134.3
 31
0.0
  0
LINE
  5
512
330
1E
100
AcDbEntity
  8
0
100
AcDbLine
 10
3.8571
 20
134.3
 30
0.0
 11
3.8571
 21
135.3
 31
0.0
  0
LINE
  5
513
330
1E
100
AcDbEntity
  8
0
100
AcDbLine
 10
3.8571
 20
135.3
 30
0.0
 11
3.8571
 21
134.3
 31
0.0
  0
LINE
  5
514
330
1E
100
AcDbEntity
  8
0
100
AcDbLine
 10
3.428599999999999
 20
142.5999999999999
 30
0.0
 11
3.8571
 21
142.1
 31
0.0
  0
LINE
  5
515
330
1E
100
AcDbEntity
  8
0
100
AcDbLine
 10
3.428599999999999
 20
140.5999999999999
 30
0.0
 11
3.8571
 21
141.1
 31
0.0
  0
LINE
  5
516
330
1E
100
AcDbEntity
  8
0
100
AcDbLine
 10
3.8571
 20
142.1
 30
0.0
 11
3.8571
 21
141.1
 31
0.0
  0
LINE
  5
517
330
1E
100
AcDbEntity
  8
0
100
AcDbLine
 10
3.8571
 20
141.1
 30
0.0
 11
3.8571
 21
142.1
 31
0.0
  0
LINE
  5
518
330
1E
100
AcDbEntity
  8
0
100
AcDbLine
 10
3.428599999999999
 20
147.4
 30
0.0
 11
3.8571
 21
147.9
 31
0.0
  0
LINE
  5
519
330
1E
100
AcDbEntity
  8
0
100
AcDbLine
 10
3.428599999999999
 20
149.3999999999999
 30
0.0
 11
3.8571
 21
148.9
 31
0.0
  0
LINE
  5
51A
330
1E
100
AcDbEntity
  8
0
100
AcDbLine
 10
3.8571
 20
148.9
 30
0.0
 11
3.8571
 21
147.9
 31
0.0
  0
LINE
  5
51B
330
1E
100
AcDbEntity
  8
0
100
AcDbLine
 10
3.8571
 20
147.9
 30
0.0
 11
3.8571
 21
148.9
 31
0.0
  0
LINE
  5
51C
330
1E
100
AcDbEntity
  8
0
100
AcDbLine
 10
6.642899999999999
 20
127.5
 30
0.0
 11
6.642899999999999
 21
128.4999999999999
 31
0.0
  0
LINE
  5
51D
330
1E
100
AcDbEntity
  8
0
100
AcDbLine
 10
6.642899999999999
 20
128.4999999999999
 30
0.0
 11
6.642899999999999
 21
127.5
 31
0.0
  0
LINE
  5
51E
330
1E
100
AcDbEntity
  8
0
100
AcDbLine
 10
6.642899999999999
 20
134.3
 30
0.0
 11
6.642899999999999
 21
135.3
 31
0.0
  0
LINE
  5
51F
330
1E
100
AcDbEntity
  8
0
100
AcDbLine
 10
6.642899999999999
 20
135.3
 30
0.0
 11
6.642899999999999
 21
134.3
 31
0.0
  0
LINE
  5
520
330
1E
100
AcDbEntity
  8
0
100
AcDbLine
 10
6.642899999999999
 20
141.1
 30
0.0
 11
6.642899999999999
 21
142.1
 31
0.0
  0
LINE
  5
521
330
1E
100
AcDbEntity
  8
0
100
AcDbLine
 10
6.642899999999999
 20
142.1
 30
0.0
 11
6.642899999999999
 21
141.1
 31
0.0
  0
LINE
  5
522
330
1E
100
AcDbEntity
  8
0
100
AcDbLine
 10
6.642899999999999
 20
148.9
 30
0.0
 11
6.642899999999999
 21
147.9
 31
0.0
  0
LINE
  5
523
330
1E
100
AcDbEntity
  8
0
100
AcDbLine
 10
6.642899999999999
 20
147.9
 30
0.0
 11
6.642899999999999
 21
148.9
 31
0.0
  0
LINE
  5
524
330
1E
100
AcDbEntity
  8
0
100
AcDbLine
 10
8.357100000000002
 20
120.7
 30
0.0
 11
8.357100000000002
 21
121.7
 31
0.0
  0
LINE
  5
525
330
1E
100
AcDbEntity
  8
0
100
AcDbLine
 10
8.357100000000002
 20
121.7
 30
0.0
 11
8.357100000000002
 21
120.7
 31
0.0
  0
LINE
  5
526
330
1E
100
AcDbEntity
  8
0
100
AcDbLine
 10
7.928599999999999
 20
106.6
 30
0.0
 11
8.357100000000002
 21
107.0999999999999
 31
0.0
  0
LINE
  5
527
330
1E
100
AcDbEntity
  8
0
100
AcDbLine
 10
7.0714
 20
95.00020000000001
 30
0.0
 11
7.928599999999999
 21
95.00020000000001
 31
0.0
  0
LINE
  5
528
330
1E
100
AcDbEntity
  8
0
100
AcDbLine
 10
7.0714
 20
106.6
 30
0.0
 11
7.928599999999999
 21
106.6
 31
0.0
  0
LINE
  5
529
330
1E
100
AcDbEntity
  8
0
100
AcDbLine
 10
7.0714
 20
99.80029999999999
 30
0.0
 11
7.928599999999999
 21
99.80029999999999
 31
0.0
  0
LINE
  5
52A
330
1E
100
AcDbEntity
  8
0
100
AcDbLine
 10
7.0714
 20
101.8
 30
0.0
 11
7.928599999999999
 21
101.8
 31
0.0
  0
LINE
  5
52B
330
1E
100
AcDbEntity
  8
0
100
AcDbLine
 10
7.0714
 20
93.00029999999999
 30
0.0
 11
7.928599999999999
 21
93.00029999999999
 31
0.0
  0
LINE
  5
52C
330
1E
100
AcDbEntity
  8
0
100
AcDbLine
 10
7.928599999999999
 20
93.00029999999999
 30
0.0
 11
8.357100000000002
 21
93.5003
 31
0.0
  0
LINE
  5
52D
330
1E
100
AcDbEntity
  8
0
100
AcDbLine
 10
7.928599999999999
 20
95.00020000000001
 30
0.0
 11
8.357100000000002
 21
94.50029999999999
 31
0.0
  0
LINE
  5
52E
330
1E
100
AcDbEntity
  8
0
100
AcDbLine
 10
8.357100000000002
 20
93.5003
 30
0.0
 11
8.357100000000002
 21
94.50029999999999
 31
0.0
  0
LINE
  5
52F
330
1E
100
AcDbEntity
  8
0
100
AcDbLine
 10
8.357100000000002
 20
94.50029999999999
 30
0.0
 11
8.357100000000002
 21
93.5003
 31
0.0
  0
LINE
  5
530
330
1E
100
AcDbEntity
  8
0
100
AcDbLine
 10
7.928599999999999
 20
99.80029999999999
 30
0.0
 11
8.357100000000002
 21
100.2999999999999
 31
0.0
  0
LINE
  5
531
330
1E
100
AcDbEntity
  8
0
100
AcDbLine
 10
7.928599999999999
 20
101.8
 30
0.0
 11
8.357100000000002
 21
101.2999999999999
 31
0.0
  0
LINE
  5
532
330
1E
100
AcDbEntity
  8
0
100
AcDbLine
 10
8.357100000000002
 20
100.2999999999999
 30
0.0
 11
8.357100000000002
 21
101.2999999999999
 31
0.0
  0
LINE
  5
533
330
1E
100
AcDbEntity
  8
0
100
AcDbLine
 10
8.357100000000002
 20
101.2999999999999
 30
0.0
 11
8.357100000000002
 21
100.2999999999999
 31
0.0
  0
LINE
  5
534
330
1E
100
AcDbEntity
  8
0
100
AcDbLine
 10
7.0714
 20
120.1999999999999
 30
0.0
 11
7.928599999999999
 21
120.1999999999999
 31
0.0
  0
LINE
  5
535
330
1E
100
AcDbEntity
  8
0
100
AcDbLine
 10
7.0714
 20
113.4
 30
0.0
 11
7.928599999999999
 21
113.4
 31
0.0
  0
LINE
  5
536
330
1E
100
AcDbEntity
  8
0
100
AcDbLine
 10
7.0714
 20
115.4
 30
0.0
 11
7.928599999999999
 21
115.4
 31
0.0
  0
LINE
  5
537
330
1E
100
AcDbEntity
  8
0
100
AcDbLine
 10
7.0714
 20
108.6
 30
0.0
 11
7.928599999999999
 21
108.6
 31
0.0
  0
LINE
  5
538
330
1E
100
AcDbEntity
  8
0
100
AcDbLine
 10
8.357100000000002
 20
114.9
 30
0.0
 11
8.357100000000002
 21
113.9
 31
0.0
  0
LINE
  5
539
330
1E
100
AcDbEntity
  8
0
100
AcDbLine
 10
8.357100000000002
 20
113.9
 30
0.0
 11
8.357100000000002
 21
114.9
 31
0.0
  0
LINE
  5
53A
330
1E
100
AcDbEntity
  8
0
100
AcDbLine
 10
7.928599999999999
 20
113.4
 30
0.0
 11
8.357100000000002
 21
113.9
 31
0.0
  0
LINE
  5
53B
330
1E
100
AcDbEntity
  8
0
100
AcDbLine
 10
7.928599999999999
 20
108.6
 30
0.0
 11
8.357100000000002
 21
108.0999999999999
 31
0.0
  0
LINE
  5
53C
330
1E
100
AcDbEntity
  8
0
100
AcDbLine
 10
8.357100000000002
 20
107.0999999999999
 30
0.0
 11
8.357100000000002
 21
108.0999999999999
 31
0.0
  0
LINE
  5
53D
330
1E
100
AcDbEntity
  8
0
100
AcDbLine
 10
8.357100000000002
 20
108.0999999999999
 30
0.0
 11
8.357100000000002
 21
107.0999999999999
 31
0.0
  0
LINE
  5
53E
330
1E
100
AcDbEntity
  8
0
100
AcDbLine
 10
7.928599999999999
 20
120.1999999999999
 30
0.0
 11
8.357100000000002
 21
120.7
 31
0.0
  0
LINE
  5
53F
330
1E
100
AcDbEntity
  8
0
100
AcDbLine
 10
7.928599999999999
 20
115.4
 30
0.0
 11
8.357100000000002
 21
114.9
 31
0.0
  0
LINE
  5
540
330
1E
100
AcDbEntity
  8
0
100
AcDbLine
 10
7.0714
 20
133.8
 30
0.0
 11
7.928599999999999
 21
133.8
 31
0.0
  0
LINE
  5
541
330
1E
100
AcDbEntity
  8
0
100
AcDbLine
 10
7.0714
 20
135.8
 30
0.0
 11
7.928599999999999
 21
135.8
 31
0.0
  0
LINE
  5
542
330
1E
100
AcDbEntity
  8
0
100
AcDbLine
 10
7.0714
 20
127.0
 30
0.0
 11
7.928599999999999
 21
127.0
 31
0.0
  0
LINE
  5
543
330
1E
100
AcDbEntity
  8
0
100
AcDbLine
 10
7.0714
 20
129.0
 30
0.0
 11
7.928599999999999
 21
129.0
 31
0.0
  0
LINE
  5
544
330
1E
100
AcDbEntity
  8
0
100
AcDbLine
 10
7.0714
 20
122.1999999999999
 30
0.0
 11
7.928599999999999
 21
122.1999999999999
 31
0.0
  0
LINE
  5
545
330
1E
100
AcDbEntity
  8
0
100
AcDbLine
 10
7.928599999999999
 20
129.0
 30
0.0
 11
8.357100000000002
 21
128.4999999999999
 31
0.0
  0
LINE
  5
546
330
1E
100
AcDbEntity
  8
0
100
AcDbLine
 10
7.928599999999999
 20
127.0
 30
0.0
 11
8.357100000000002
 21
127.5
 31
0.0
  0
LINE
  5
547
330
1E
100
AcDbEntity
  8
0
100
AcDbLine
 10
7.928599999999999
 20
122.1999999999999
 30
0.0
 11
8.357100000000002
 21
121.7
 31
0.0
  0
LINE
  5
548
330
1E
100
AcDbEntity
  8
0
100
AcDbLine
 10
8.357100000000002
 20
128.4999999999999
 30
0.0
 11
8.357100000000002
 21
127.5
 31
0.0
  0
LINE
  5
549
330
1E
100
AcDbEntity
  8
0
100
AcDbLine
 10
8.357100000000002
 20
127.5
 30
0.0
 11
8.357100000000002
 21
128.4999999999999
 31
0.0
  0
LINE
  5
54A
330
1E
100
AcDbEntity
  8
0
100
AcDbLine
 10
7.928599999999999
 20
133.8
 30
0.0
 11
8.357100000000002
 21
134.3
 31
0.0
  0
LINE
  5
54B
330
1E
100
AcDbEntity
  8
0
100
AcDbLine
 10
7.928599999999999
 20
135.8
 30
0.0
 11
8.357100000000002
 21
135.3
 31
0.0
  0
LINE
  5
54C
330
1E
100
AcDbEntity
  8
0
100
AcDbLine
 10
8.357100000000002
 20
135.3
 30
0.0
 11
8.357100000000002
 21
134.3
 31
0.0
  0
LINE
  5
54D
330
1E
100
AcDbEntity
  8
0
100
AcDbLine
 10
8.357100000000002
 20
134.3
 30
0.0
 11
8.357100000000002
 21
135.3
 31
0.0
  0
LINE
  5
54E
330
1E
100
AcDbEntity
  8
0
100
AcDbLine
 10
7.0714
 20
149.3999999999999
 30
0.0
 11
7.928599999999999
 21
149.3999999999999
 31
0.0
  0
LINE
  5
54F
330
1E
100
AcDbEntity
  8
0
100
AcDbLine
 10
7.0714
 20
147.4
 30
0.0
 11
7.928599999999999
 21
147.4
 31
0.0
  0
LINE
  5
550
330
1E
100
AcDbEntity
  8
0
100
AcDbLine
 10
7.0714
 20
140.5999999999999
 30
0.0
 11
7.928599999999999
 21
140.5999999999999
 31
0.0
  0
LINE
  5
551
330
1E
100
AcDbEntity
  8
0
100
AcDbLine
 10
7.0714
 20
142.5999999999999
 30
0.0
 11
7.928599999999999
 21
142.5999999999999
 31
0.0
  0
LINE
  5
552
330
1E
100
AcDbEntity
  8
0
100
AcDbLine
 10
7.928599999999999
 20
140.5999999999999
 30
0.0
 11
8.357100000000002
 21
141.1
 31
0.0
  0
LINE
  5
553
330
1E
100
AcDbEntity
  8
0
100
AcDbLine
 10
7.928599999999999
 20
142.5999999999999
 30
0.0
 11
8.357100000000002
 21
142.1
 31
0.0
  0
LINE
  5
554
330
1E
100
AcDbEntity
  8
0
100
AcDbLine
 10
8.357100000000002
 20
141.1
 30
0.0
 11
8.357100000000002
 21
142.1
 31
0.0
  0
LINE
  5
555
330
1E
100
AcDbEntity
  8
0
100
AcDbLine
 10
8.357100000000002
 20
142.1
 30
0.0
 11
8.357100000000002
 21
141.1
 31
0.0
  0
LINE
  5
556
330
1E
100
AcDbEntity
  8
0
100
AcDbLine
 10
7.928599999999999
 20
149.3999999999999
 30
0.0
 11
8.357100000000002
 21
148.9
 31
0.0
  0
LINE
  5
557
330
1E
100
AcDbEntity
  8
0
100
AcDbLine
 10
7.928599999999999
 20
147.4
 30
0.0
 11
8.357100000000002
 21
147.9
 31
0.0
  0
LINE
  5
558
330
1E
100
AcDbEntity
  8
0
100
AcDbLine
 10
8.357100000000002
 20
147.9
 30
0.0
 11
8.357100000000002
 21
148.9
 31
0.0
  0
LINE
  5
559
330
1E
100
AcDbEntity
  8
0
100
AcDbLine
 10
8.357100000000002
 20
148.9
 30
0.0
 11
8.357100000000002
 21
147.9
 31
0.0
  0
LINE
  5
55A
330
1E
100
AcDbEntity
  8
0
100
AcDbLine
 10
6.642899999999999
 20
161.5
 30
0.0
 11
7.0714
 21
161.0
 31
0.0
  0
LINE
  5
55B
330
1E
100
AcDbEntity
  8
0
100
AcDbLine
 10
6.642899999999999
 20
162.5
 30
0.0
 11
7.0714
 21
163.0
 31
0.0
  0
LINE
  5
55C
330
1E
100
AcDbEntity
  8
0
100
AcDbLine
 10
6.642899999999999
 20
155.6999999999999
 30
0.0
 11
7.0714
 21
156.1999999999999
 31
0.0
  0
LINE
  5
55D
330
1E
100
AcDbEntity
  8
0
100
AcDbLine
 10
6.642899999999999
 20
154.6999999999999
 30
0.0
 11
7.0714
 21
154.1999999999999
 31
0.0
  0
LINE
  5
55E
330
1E
100
AcDbEntity
  8
0
100
AcDbLine
 10
3.428599999999999
 20
154.1999999999999
 30
0.0
 11
3.8571
 21
154.6999999999999
 31
0.0
  0
LINE
  5
55F
330
1E
100
AcDbEntity
  8
0
100
AcDbLine
 10
3.428599999999999
 20
156.1999999999999
 30
0.0
 11
3.8571
 21
155.6999999999999
 31
0.0
  0
LINE
  5
560
330
1E
100
AcDbEntity
  8
0
100
AcDbLine
 10
3.8571
 20
155.6999999999999
 30
0.0
 11
3.8571
 21
154.6999999999999
 31
0.0
  0
LINE
  5
561
330
1E
100
AcDbEntity
  8
0
100
AcDbLine
 10
3.8571
 20
154.6999999999999
 30
0.0
 11
3.8571
 21
155.6999999999999
 31
0.0
  0
LINE
  5
562
330
1E
100
AcDbEntity
  8
0
100
AcDbLine
 10
3.428599999999999
 20
163.0
 30
0.0
 11
3.8571
 21
162.5
 31
0.0
  0
LINE
  5
563
330
1E
100
AcDbEntity
  8
0
100
AcDbLine
 10
3.428599999999999
 20
161.0
 30
0.0
 11
3.8571
 21
161.5
 31
0.0
  0
LINE
  5
564
330
1E
100
AcDbEntity
  8
0
100
AcDbLine
 10
3.8571
 20
161.5
 30
0.0
 11
3.8571
 21
162.5
 31
0.0
  0
LINE
  5
565
330
1E
100
AcDbEntity
  8
0
100
AcDbLine
 10
3.8571
 20
162.5
 30
0.0
 11
3.8571
 21
161.5
 31
0.0
  0
LINE
  5
566
330
1E
100
AcDbEntity
  8
0
100
AcDbLine
 10
6.642899999999999
 20
155.6999999999999
 30
0.0
 11
6.642899999999999
 21
154.6999999999999
 31
0.0
  0
LINE
  5
567
330
1E
100
AcDbEntity
  8
0
100
AcDbLine
 10
6.642899999999999
 20
154.6999999999999
 30
0.0
 11
6.642899999999999
 21
155.6999999999999
 31
0.0
  0
LINE
  5
568
330
1E
100
AcDbEntity
  8
0
100
AcDbLine
 10
6.642899999999999
 20
161.5
 30
0.0
 11
6.642899999999999
 21
162.5
 31
0.0
  0
LINE
  5
569
330
1E
100
AcDbEntity
  8
0
100
AcDbLine
 10
6.642899999999999
 20
162.5
 30
0.0
 11
6.642899999999999
 21
161.5
 31
0.0
  0
LINE
  5
56A
330
1E
100
AcDbEntity
  8
0
100
AcDbLine
 10
7.0714
 20
161.0
 30
0.0
 11
7.928599999999999
 21
161.0
 31
0.0
  0
LINE
  5
56B
330
1E
100
AcDbEntity
  8
0
100
AcDbLine
 10
7.0714
 20
163.0
 30
0.0
 11
7.928599999999999
 21
163.0
 31
0.0
  0
LINE
  5
56C
330
1E
100
AcDbEntity
  8
0
100
AcDbLine
 10
7.0714
 20
156.1999999999999
 30
0.0
 11
7.928599999999999
 21
156.1999999999999
 31
0.0
  0
LINE
  5
56D
330
1E
100
AcDbEntity
  8
0
100
AcDbLine
 10
7.0714
 20
154.1999999999999
 30
0.0
 11
7.928599999999999
 21
154.1999999999999
 31
0.0
  0
LINE
  5
56E
330
1E
100
AcDbEntity
  8
0
100
AcDbLine
 10
7.928599999999999
 20
156.1999999999999
 30
0.0
 11
8.357100000000002
 21
155.6999999999999
 31
0.0
  0
LINE
  5
56F
330
1E
100
AcDbEntity
  8
0
100
AcDbLine
 10
7.928599999999999
 20
154.1999999999999
 30
0.0
 11
8.357100000000002
 21
154.6999999999999
 31
0.0
  0
LINE
  5
570
330
1E
100
AcDbEntity
  8
0
100
AcDbLine
 10
8.357100000000002
 20
154.6999999999999
 30
0.0
 11
8.357100000000002
 21
155.6999999999999
 31
0.0
  0
LINE
  5
571
330
1E
100
AcDbEntity
  8
0
100
AcDbLine
 10
8.357100000000002
 20
155.6999999999999
 30
0.0
 11
8.357100000000002
 21
154.6999999999999
 31
0.0
  0
LINE
  5
572
330
1E
100
AcDbEntity
  8
0
100
AcDbLine
 10
7.928599999999999
 20
161.0
 30
0.0
 11
8.357100000000002
 21
161.5
 31
0.0
  0
LINE
  5
573
330
1E
100
AcDbEntity
  8
0
100
AcDbLine
 10
7.928599999999999
 20
163.0
 30
0.0
 11
8.357100000000002
 21
162.5
 31
0.0
  0
LINE
  5
574
330
1E
100
AcDbEntity
  8
0
100
AcDbLine
 10
8.357100000000002
 20
162.5
 30
0.0
 11
8.357100000000002
 21
161.5
 31
0.0
  0
LINE
  5
575
330
1E
100
AcDbEntity
  8
0
100
AcDbLine
 10
8.357100000000002
 20
161.5
 30
0.0
 11
8.357100000000002
 21
162.5
 31
0.0
  0
ENDSEC
  0
SECTION
  2
OBJECTS
  0
DICTIONARY
  5
C
330
0
100
AcDbDictionary
281
     1
  3
ACAD_GROUP
350
D
  3
ACAD_LAYOUT
350
19
  3
ACAD_MLINESTYLE
350
16
  3
ACAD_PLOTSETTINGS
350
18
  3
ACAD_PLOTSTYLENAME
350
E
  3
AcDbVariableDictionary
350
576
  0
DICTIONARY
  5
D
102
{ACAD_REACTORS
330
C
102
}
330
C
100
AcDbDictionary
281
     1
  0
DICTIONARY
  5
19
102
{ACAD_REACTORS
330
C
102
}
330
C
100
AcDbDictionary
281
     1
  3
Layout1
350
1D
  3
Model
350
21
  0
DICTIONARY
  5
16
102
{ACAD_REACTORS
330
C
102
}
330
C
100
AcDbDictionary
281
     1
  3
Standard
350
17
  0
DICTIONARY
  5
18
102
{ACAD_REACTORS
330
C
102
}
330
C
100
AcDbDictionary
281
     1
  0
ACDBDICTIONARYWDFLT
  5
E
102
{ACAD_REACTORS
330
C
102
}
330
C
100
AcDbDictionary
281
     1
  3
Normal
350
F
100
AcDbDictionaryWithDefault
340
F
  0
DICTIONARY
  5
576
102
{ACAD_REACTORS
330
C
102
}
330
C
100
AcDbDictionary
281
     1
  3
DIMASSOC
350
577
  0
LAYOUT
  5
1D
102
{ACAD_REACTORS
330
19
102
}
330
19
100
AcDbPlotSettings
  1

  2
hp deskjet 980c series
  4

  6

 40
0.0
 41
0.0
 42
0.0
 43
0.0
 44
0.0
 45
0.0
 46
0.0
 47
0.0
 48
0.0
 49
0.0
140
0.0
141
0.0
142
1.0
143
1.0
 70
   688
 72
     0
 73
     0
 74
     5
  7

 75
    16
147
1.0
148
0.0
149
0.0
100
AcDbLayout
  1
Layout1
 70
     1
 71
     1
 10
0.0
 20
0.0
 11
12.0
 21
9.0
 12
0.0
 22
0.0
 32
0.0
 14
1.000000000000000E+20
 24
1.000000000000000E+20
 34
1.000000000000000E+20
 15
-1.000000000000000E+20
 25
-1.000000000000000E+20
 35
-1.000000000000000E+20
146
0.0
 13
0.0
 23
0.0
 33
0.0
 16
1.0
 26
0.0
 36
0.0
 17
0.0
 27
1.0
 37
0.0
 76
     0
330
1A
  0
LAYOUT
  5
21
102
{ACAD_REACTORS
330
19
102
}
330
19
100
AcDbPlotSettings
  1

  2
hp deskjet 980c series
  4

  6

 40
0.0
 41
0.0
 42
0.0
 43
0.0
 44
0.0
 45
0.0
 46
0.0
 47
0.0
 48
0.0
 49
0.0
140
0.0
141
0.0
142
1.0
143
1.0
 70
  1712
 72
     0
 73
     0
 74
     0
  7

 75
     0
147
1.0
148
0.0
149
0.0
100
AcDbLayout
  1
Model
 70
     1
 71
     0
 10
0.0
 20
0.0
 11
12.0
 21
9.0
 12
0.0
 22
0.0
 32
0.0
 14
0.0
 24
0.0
 34
0.0
 15
0.0
 25
0.0
 35
0.0
146
0.0
 13
0.0
 23
0.0
 33
0.0
 16
1.0
 26
0.0
 36
0.0
 17
0.0
 27
1.0
 37
0.0
 76
     0
330
1E
  0
MLINESTYLE
  5
17
102
{ACAD_REACTORS
330
16
102
}
330
16
100
AcDbMlineStyle
  2
STANDARD
 70
     0
  3

 62
   256
 51
90.0
 52
90.0
 71
     2
 49
0.5
 62
   256
  6
BYLAYER
 49
-0.5
 62
   256
  6
BYLAYER
  0
ACDBPLACEHOLDER
  5
F
102
{ACAD_REACTORS
330
E
102
}
330
E
  0
DICTIONARYVAR
  5
577
102
{ACAD_REACTORS
330
576
102
}
330
576
100
DictionaryVariables
280
     0
  1
1
  0
ENDSEC
  0
EOF
