  0
SECTION
  2
HEADER
  9
$ACADVER
  1
AC1015
  9
$ACADMAINTVER
 70
    13
  9
$DWGCODEPAGE
  3
ANSI_1252
  9
$INSBASE
 10
0.0
 20
0.0
 30
0.0
  9
$EXTMIN
 10
-0.0000000000000044
 20
0.0000000000000012
 30
0.0
  9
$EXTMAX
 10
160.0
 20
101.0
 30
0.0
  9
$LIMMIN
 10
0.0
 20
0.0
  9
$LIMMAX
 10
12.0
 20
9.0
  9
$ORTHOMODE
 70
     0
  9
$REGENMODE
 70
     1
  9
$FILLMODE
 70
     1
  9
$QTEXTMODE
 70
     0
  9
$MIRRTEXT
 70
     1
  9
$LTSCALE
 40
1.0
  9
$ATTMODE
 70
     1
  9
$TEXTSIZE
 40
0.2
  9
$TRACEWID
 40
0.05
  9
$TEXTSTYLE
  7
Standard
  9
$CLAYER
  8
0
  9
$CELTYPE
  6
Continuous
  9
$CECOLOR
 62
   256
  9
$CELTSCALE
 40
1.0
  9
$DISPSILH
 70
     0
  9
$DIMSCALE
 40
1.0
  9
$DIMASZ
 40
0.18
  9
$DIMEXO
 40
0.0625
  9
$DIMDLI
 40
0.38
  9
$DIMRND
 40
0.0
  9
$DIMDLE
 40
0.0
  9
$DIMEXE
 40
0.18
  9
$DIMTP
 40
0.0
  9
$DIMTM
 40
0.0
  9
$DIMTXT
 40
0.18
  9
$DIMCEN
 40
0.09
  9
$DIMTSZ
 40
0.0
  9
$DIMTOL
 70
     0
  9
$DIMLIM
 70
     0
  9
$DIMTIH
 70
     1
  9
$DIMTOH
 70
     1
  9
$DIMSE1
 70
     0
  9
$DIMSE2
 70
     0
  9
$DIMTAD
 70
     0
  9
$DIMZIN
 70
     0
  9
$DIMBLK
  1

  9
$DIMASO
 70
     1
  9
$DIMSHO
 70
     1
  9
$DIMPOST
  1

  9
$DIMAPOST
  1

  9
$DIMALT
 70
     0
  9
$DIMALTD
 70
     2
  9
$DIMALTF
 40
25.4
  9
$DIMLFAC
 40
1.0
  9
$DIMTOFL
 70
     0
  9
$DIMTVP
 40
0.0
  9
$DIMTIX
 70
     0
  9
$DIMSOXD
 70
     0
  9
$DIMSAH
 70
     0
  9
$DIMBLK1
  1

  9
$DIMBLK2
  1

  9
$DIMSTYLE
  2
Standard
  9
$DIMCLRD
 70
     0
  9
$DIMCLRE
 70
     0
  9
$DIMCLRT
 70
     0
  9
$DIMTFAC
 40
1.0
  9
$DIMGAP
 40
0.09
  9
$DIMJUST
 70
     0
  9
$DIMSD1
 70
     0
  9
$DIMSD2
 70
     0
  9
$DIMTOLJ
 70
     1
  9
$DIMTZIN
 70
     0
  9
$DIMALTZ
 70
     0
  9
$DIMALTTZ
 70
     0
  9
$DIMUPT
 70
     0
  9
$DIMDEC
 70
     4
  9
$DIMTDEC
 70
     4
  9
$DIMALTU
 70
     2
  9
$DIMALTTD
 70
     2
  9
$DIMTXSTY
  7
Standard
  9
$DIMAUNIT
 70
     0
  9
$DIMADEC
 70
     0
  9
$DIMALTRND
 40
0.0
  9
$DIMAZIN
 70
     0
  9
$DIMDSEP
 70
    46
  9
$DIMATFIT
 70
     3
  9
$DIMFRAC
 70
     0
  9
$DIMLDRBLK
  1

  9
$DIMLUNIT
 70
     2
  9
$DIMLWD
 70
    -2
  9
$DIMLWE
 70
    -2
  9
$DIMTMOVE
 70
     0
  9
$LUNITS
 70
     2
  9
$LUPREC
 70
     4
  9
$SKETCHINC
 40
0.1
  9
$FILLETRAD
 40
0.0
  9
$AUNITS
 70
     0
  9
$AUPREC
 70
     0
  9
$MENU
  1
.
  9
$ELEVATION
 40
0.0
  9
$PELEVATION
 40
0.0
  9
$THICKNESS
 40
0.0
  9
$LIMCHECK
 70
     0
  9
$CHAMFERA
 40
0.0
  9
$CHAMFERB
 40
0.0
  9
$CHAMFERC
 40
0.0
  9
$CHAMFERD
 40
0.0
  9
$SKPOLY
 70
     0
  9
$TDCREATE
 40
2454748.406910393
  9
$TDUCREATE
 40
2454748.323577060
  9
$TDUPDATE
 40
2454748.419470613
  9
$TDUUPDATE
 40
2454748.336137280
  9
$TDINDWG
 40
0.0125602199
  9
$TDUSRTIMER
 40
0.0125602199
  9
$USRTIMER
 70
     1
  9
$ANGBASE
 50
0.0
  9
$ANGDIR
 70
     0
  9
$PDMODE
 70
     0
  9
$PDSIZE
 40
0.0
  9
$PLINEWID
 40
0.0
  9
$SPLFRAME
 70
     0
  9
$SPLINETYPE
 70
     6
  9
$SPLINESEGS
 70
     8
  9
$HANDSEED
  5
23C
  9
$SURFTAB1
 70
     6
  9
$SURFTAB2
 70
     6
  9
$SURFTYPE
 70
     6
  9
$SURFU
 70
     6
  9
$SURFV
 70
     6
  9
$UCSBASE
  2

  9
$UCSNAME
  2

  9
$UCSORG
 10
0.0
 20
0.0
 30
0.0
  9
$UCSXDIR
 10
1.0
 20
0.0
 30
0.0
  9
$UCSYDIR
 10
0.0
 20
1.0
 30
0.0
  9
$UCSORTHOREF
  2

  9
$UCSORTHOVIEW
 70
     1
  9
$UCSORGTOP
 10
0.0
 20
0.0
 30
0.0
  9
$UCSORGBOTTOM
 10
0.0
 20
0.0
 30
0.0
  9
$UCSORGLEFT
 10
0.0
 20
0.0
 30
0.0
  9
$UCSORGRIGHT
 10
0.0
 20
0.0
 30
0.0
  9
$UCSORGFRONT
 10
0.0
 20
0.0
 30
0.0
  9
$UCSORGBACK
 10
0.0
 20
0.0
 30
0.0
  9
$PUCSBASE
  2

  9
$PUCSNAME
  2

  9
$PUCSORG
 10
0.0
 20
0.0
 30
0.0
  9
$PUCSXDIR
 10
1.0
 20
0.0
 30
0.0
  9
$PUCSYDIR
 10
0.0
 20
1.0
 30
0.0
  9
$PUCSORTHOREF
  2

  9
$PUCSORTHOVIEW
 70
     0
  9
$PUCSORGTOP
 10
0.0
 20
0.0
 30
0.0
  9
$PUCSORGBOTTOM
 10
0.0
 20
0.0
 30
0.0
  9
$PUCSORGLEFT
 10
0.0
 20
0.0
 30
0.0
  9
$PUCSORGRIGHT
 10
0.0
 20
0.0
 30
0.0
  9
$PUCSORGFRONT
 10
0.0
 20
0.0
 30
0.0
  9
$PUCSORGBACK
 10
0.0
 20
0.0
 30
0.0
  9
$USERI1
 70
     0
  9
$USERI2
 70
     0
  9
$USERI3
 70
     0
  9
$USERI4
 70
     0
  9
$USERI5
 70
     0
  9
$USERR1
 40
0.0
  9
$USERR2
 40
0.0
  9
$USERR3
 40
0.0
  9
$USERR4
 40
0.0
  9
$USERR5
 40
0.0
  9
$WORLDVIEW
 70
     1
  9
$SHADEDGE
 70
     3
  9
$SHADEDIF
 70
    70
  9
$TILEMODE
 70
     1
  9
$MAXACTVP
 70
    64
  9
$PINSBASE
 10
0.0
 20
0.0
 30
0.0
  9
$PLIMCHECK
 70
     0
  9
$PEXTMIN
 10
1.000000000000000E+20
 20
1.000000000000000E+20
 30
1.000000000000000E+20
  9
$PEXTMAX
 10
-1.000000000000000E+20
 20
-1.000000000000000E+20
 30
-1.000000000000000E+20
  9
$PLIMMIN
 10
0.0
 20
0.0
  9
$PLIMMAX
 10
12.0
 20
9.0
  9
$UNITMODE
 70
     0
  9
$VISRETAIN
 70
     1
  9
$PLINEGEN
 70
     0
  9
$PSLTSCALE
 70
     1
  9
$TREEDEPTH
 70
  3020
  9
$CMLSTYLE
  2
Standard
  9
$CMLJUST
 70
     0
  9
$CMLSCALE
 40
1.0
  9
$PROXYGRAPHICS
 70
     1
  9
$MEASUREMENT
 70
     0
  9
$CELWEIGHT
370
    -1
  9
$ENDCAPS
280
     0
  9
$JOINSTYLE
280
     0
  9
$LWDISPLAY
290
     0
  9
$INSUNITS
 70
     0
  9
$HYPERLINKBASE
  1

  9
$STYLESHEET
  1

  9
$XEDIT
290
     1
  9
$CEPSNTYPE
380
     0
  9
$PSTYLEMODE
290
     1
  9
$FINGERPRINTGUID
  2
{9B61E99F-013C-4631-9FE6-5534276F7CE7}
  9
$VERSIONGUID
  2
{C2A25F49-7ECC-4C0D-9C6C-2CBB975DA1B0}
  9
$EXTNAMES
290
     1
  9
$PSVPSCALE
 40
0.0
  9
$OLESTARTUP
290
     0
  0
ENDSEC
  0
SECTION
  2
CLASSES
  0
CLASS
  1
ACDBDICTIONARYWDFLT
  2
AcDbDictionaryWithDefault
  3
AutoCAD 2000
 90
        0
280
     0
281
     0
  0
CLASS
  1
ACDBPLACEHOLDER
  2
AcDbPlaceHolder
  3
AutoCAD 2000
 90
        0
280
     0
281
     0
  0
CLASS
  1
LAYOUT
  2
AcDbLayout
  3
AutoCAD 2000
 90
        0
280
     0
281
     0
  0
CLASS
  1
DICTIONARYVAR
  2
AcDbDictionaryVar
  3
AutoCAD 2000
 90
        0
280
     0
281
     0
  0
ENDSEC
  0
SECTION
  2
TABLES
  0
TABLE
  2
VPORT
  5
8
330
0
100
AcDbSymbolTable
 70
     2
  0
VPORT
  5
23B
330
8
100
AcDbSymbolTableRecord
100
AcDbViewportTableRecord
  2
*Active
 70
     0
 10
0.0
 20
0.0
 11
1.0
 21
1.0
 12
80.0
 22
50.5
 13
0.0
 23
0.0
 14
1.0
 24
1.0
 15
0.0
 25
0.0
 16
0.0
 26
0.0
 36
1.0
 17
0.0
 27
0.0
 37
0.0
 40
101.774936061381
 41
2.078104993597951
 42
50.0
 43
0.0
 44
0.0
 50
0.0
 51
0.0
 71
     0
 72
   100
 73
     1
 74
     3
 75
     0
 76
     0
 77
     0
 78
     0
281
     0
 65
     1
110
0.0
120
0.0
130
0.0
111
1.0
121
0.0
131
0.0
112
0.0
122
1.0
132
0.0
 79
     1
146
0.0
  0
ENDTAB
  0
TABLE
  2
LTYPE
  5
5
330
0
100
AcDbSymbolTable
 70
     1
  0
LTYPE
  5
13
330
5
100
AcDbSymbolTableRecord
100
AcDbLinetypeTableRecord
  2
ByBlock
 70
     0
  3

 72
    65
 73
     0
 40
0.0
  0
LTYPE
  5
14
330
5
100
AcDbSymbolTableRecord
100
AcDbLinetypeTableRecord
  2
ByLayer
 70
     0
  3

 72
    65
 73
     0
 40
0.0
  0
LTYPE
  5
15
330
5
100
AcDbSymbolTableRecord
100
AcDbLinetypeTableRecord
  2
Continuous
 70
     0
  3
Solid line
 72
    65
 73
     0
 40
0.0
  0
ENDTAB
  0
TABLE
  2
LAYER
  5
2
330
0
100
AcDbSymbolTable
 70
     1
  0
LAYER
  5
10
330
2
100
AcDbSymbolTableRecord
100
AcDbLayerTableRecord
  2
0
 70
     0
 62
     7
  6
Continuous
370
    -3
390
F
  0
ENDTAB
  0
TABLE
  2
STYLE
  5
3
330
0
100
AcDbSymbolTable
 70
     1
  0
STYLE
  5
11
330
3
100
AcDbSymbolTableRecord
100
AcDbTextStyleTableRecord
  2
Standard
 70
     0
 40
0.0
 41
1.0
 50
0.0
 71
     0
 42
0.2
  3
txt
  4

  0
ENDTAB
  0
TABLE
  2
VIEW
  5
6
330
0
100
AcDbSymbolTable
 70
     0
  0
ENDTAB
  0
TABLE
  2
UCS
  5
7
330
0
100
AcDbSymbolTable
 70
     0
  0
ENDTAB
  0
TABLE
  2
APPID
  5
9
330
0
100
AcDbSymbolTable
 70
     1
  0
APPID
  5
12
330
9
100
AcDbSymbolTableRecord
100
AcDbRegAppTableRecord
  2
ACAD
 70
     0
  0
ENDTAB
  0
TABLE
  2
DIMSTYLE
  5
A
330
0
100
AcDbSymbolTable
 70
     1
100
AcDbDimStyleTable
 71
     0
  0
DIMSTYLE
105
21D
330
A
100
AcDbSymbolTableRecord
100
AcDbDimStyleTableRecord
  2
Standard
 70
     0
340
11
  0
ENDTAB
  0
TABLE
  2
BLOCK_RECORD
  5
1
330
0
100
AcDbSymbolTable
 70
     0
  0
BLOCK_RECORD
  5
1E
330
1
100
AcDbSymbolTableRecord
100
AcDbBlockTableRecord
  2
*Model_Space
340
21
  0
BLOCK_RECORD
  5
1A
330
1
100
AcDbSymbolTableRecord
100
AcDbBlockTableRecord
  2
*Paper_Space
340
1D
  0
ENDTAB
  0
ENDSEC
  0
SECTION
  2
BLOCKS
  0
BLOCK
  5
1F
330
1E
100
AcDbEntity
  8
0
100
AcDbBlockBegin
  2
*Model_Space
 70
     0
 10
0.0
 20
0.0
 30
0.0
  3
*Model_Space
  1

  0
ENDBLK
  5
20
330
1E
100
AcDbEntity
  8
0
100
AcDbBlockEnd
  0
BLOCK
  5
1B
330
1A
100
AcDbEntity
 67
     1
  8
0
100
AcDbBlockBegin
  2
*Paper_Space
 70
     0
 10
0.0
 20
0.0
 30
0.0
  3
*Paper_Space
  1

  0
ENDBLK
  5
1C
330
1A
100
AcDbEntity
 67
     1
  8
0
100
AcDbBlockEnd
  0
ENDSEC
  0
SECTION
  2
ENTITIES
  0
LINE
  5
22
330
1E
100
AcDbEntity
  8
0
100
AcDbLine
 10
3.72
 20
69.18000000000001
 30
0.0
 11
5.0
 21
69.0
 31
0.0
  0
LINE
  5
23
330
1E
100
AcDbEntity
  8
0
100
AcDbLine
 10
5.0
 20
69.0
 30
0.0
 11
6.618519999999999
 21
69.0
 31
0.0
  0
LINE
  5
24
330
1E
100
AcDbEntity
  8
0
100
AcDbLine
 10
2.52
 20
69.66
 30
0.0
 11
3.72
 21
69.18000000000001
 31
0.0
  0
LINE
  5
25
330
1E
100
AcDbEntity
  8
0
100
AcDbLine
 10
1.459999999999999
 20
70.45999999999999
 30
0.0
 11
2.52
 21
69.66
 31
0.0
  0
LINE
  5
26
330
1E
100
AcDbEntity
  8
0
100
AcDbLine
 10
0.6599999999999959
 20
71.52
 30
0.0
 11
1.459999999999999
 21
70.45999999999999
 31
0.0
  0
LINE
  5
27
330
1E
100
AcDbEntity
  8
0
100
AcDbLine
 10
0.179999999999996
 20
72.72
 30
0.0
 11
0.6599999999999959
 21
71.52
 31
0.0
  0
LINE
  5
28
330
1E
100
AcDbEntity
  8
0
100
AcDbLine
 10
15.0
 20
0.0000000000000023
 30
0.0
 11
15.512
 21
0.0720000000000023
 31
0.0
  0
LINE
  5
29
330
1E
100
AcDbEntity
  8
0
100
AcDbLine
 10
15.512
 20
0.0720000000000023
 30
0.0
 11
15.992
 21
0.264000000000002
 31
0.0
  0
LINE
  5
2A
330
1E
100
AcDbEntity
  8
0
100
AcDbLine
 10
15.0
 20
0.0000000000000023
 30
0.0
 11
15.512
 21
0.0720000000000023
 31
0.0
  0
LINE
  5
2B
330
1E
100
AcDbEntity
  8
0
100
AcDbLine
 10
13.0
 20
3.741669999999999
 30
0.0
 11
13.0
 21
2.442959999999999
 31
0.0
  0
LINE
  5
2C
330
1E
100
AcDbEntity
  8
0
100
AcDbLine
 10
13.0
 20
3.741669999999999
 30
0.0
 11
13.0
 21
5.807609999999999
 31
0.0
  0
LINE
  5
2D
330
1E
100
AcDbEntity
  8
0
100
AcDbLine
 10
13.0
 20
2.442959999999999
 30
0.0
 11
13.0
 21
2.0
 31
0.0
  0
LINE
  5
2E
330
1E
100
AcDbEntity
  8
0
100
AcDbLine
 10
13.0
 20
2.442959999999999
 30
0.0
 11
13.0
 21
3.741669999999999
 31
0.0
  0
LINE
  5
2F
330
1E
100
AcDbEntity
  8
0
100
AcDbLine
 10
13.0
 20
8.5
 30
0.0
 11
13.0
 21
11.6354
 31
0.0
  0
LINE
  5
30
330
1E
100
AcDbEntity
  8
0
100
AcDbLine
 10
13.0
 20
8.5
 30
0.0
 11
13.0
 21
5.807609999999999
 31
0.0
  0
LINE
  5
31
330
1E
100
AcDbEntity
  8
0
100
AcDbLine
 10
13.0
 20
11.6354
 30
0.0
 11
13.0
 21
8.5
 31
0.0
  0
LINE
  5
32
330
1E
100
AcDbEntity
  8
0
100
AcDbLine
 10
13.0
 20
11.6354
 30
0.0
 11
13.0
 21
15.0
 31
0.0
  0
LINE
  5
33
330
1E
100
AcDbEntity
  8
0
100
AcDbLine
 10
13.0
 20
5.807609999999999
 30
0.0
 11
13.0
 21
3.741669999999999
 31
0.0
  0
LINE
  5
34
330
1E
100
AcDbEntity
  8
0
100
AcDbLine
 10
13.0
 20
5.807609999999999
 30
0.0
 11
13.0
 21
8.5
 31
0.0
  0
LINE
  5
35
330
1E
100
AcDbEntity
  8
0
100
AcDbLine
 10
13.0
 20
5.807609999999999
 30
0.0
 11
13.0
 21
3.741669999999999
 31
0.0
  0
LINE
  5
36
330
1E
100
AcDbEntity
  8
0
100
AcDbLine
 10
13.0
 20
5.807609999999999
 30
0.0
 11
13.0
 21
8.500000000000008
 31
0.0
  0
LINE
  5
37
330
1E
100
AcDbEntity
  8
0
100
AcDbLine
 10
13.0
 20
3.741669999999999
 30
0.0
 11
13.0
 21
2.442959999999999
 31
0.0
  0
LINE
  5
38
330
1E
100
AcDbEntity
  8
0
100
AcDbLine
 10
13.0
 20
3.741669999999999
 30
0.0
 11
13.0
 21
5.807609999999999
 31
0.0
  0
LINE
  5
39
330
1E
100
AcDbEntity
  8
0
100
AcDbLine
 10
13.0
 20
2.442959999999999
 30
0.0
 11
13.0
 21
3.741669999999999
 31
0.0
  0
LINE
  5
3A
330
1E
100
AcDbEntity
  8
0
100
AcDbLine
 10
13.0
 20
2.442959999999999
 30
0.0
 11
13.0
 21
2.0
 31
0.0
  0
LINE
  5
3B
330
1E
100
AcDbEntity
  8
0
100
AcDbLine
 10
13.0
 20
15.0
 30
0.0
 11
13.0
 21
69.0
 31
0.0
  0
LINE
  5
3C
330
1E
100
AcDbEntity
  8
0
100
AcDbLine
 10
13.0
 20
15.0
 30
0.0
 11
13.0
 21
11.6354
 31
0.0
  0
LINE
  5
3D
330
1E
100
AcDbEntity
  8
0
100
AcDbLine
 10
13.0
 20
11.6354
 30
0.0
 11
13.0
 21
8.500000000000008
 31
0.0
  0
LINE
  5
3E
330
1E
100
AcDbEntity
  8
0
100
AcDbLine
 10
13.0
 20
11.6354
 30
0.0
 11
13.0
 21
15.0
 31
0.0
  0
LINE
  5
3F
330
1E
100
AcDbEntity
  8
0
100
AcDbLine
 10
13.0
 20
8.500000000000008
 30
0.0
 11
13.0
 21
11.6354
 31
0.0
  0
LINE
  5
40
330
1E
100
AcDbEntity
  8
0
100
AcDbLine
 10
13.0
 20
8.500000000000008
 30
0.0
 11
13.0
 21
5.807609999999999
 31
0.0
  0
LINE
  5
41
330
1E
100
AcDbEntity
  8
0
100
AcDbLine
 10
13.0
 20
69.0
 30
0.0
 11
13.0
 21
15.0
 31
0.0
  0
LINE
  5
42
330
1E
100
AcDbEntity
  8
0
100
AcDbLine
 10
13.0
 20
15.0
 30
0.0
 11
13.0
 21
69.0
 31
0.0
  0
LINE
  5
43
330
1E
100
AcDbEntity
  8
0
100
AcDbLine
 10
13.0
 20
15.0
 30
0.0
 11
13.0
 21
11.6354
 31
0.0
  0
LINE
  5
44
330
1E
100
AcDbEntity
  8
0
100
AcDbLine
 10
13.0
 20
2.0
 30
0.0
 11
13.0
 21
2.442959999999999
 31
0.0
  0
LINE
  5
45
330
1E
100
AcDbEntity
  8
0
100
AcDbLine
 10
13.0
 20
2.0
 30
0.0
 11
13.072
 21
1.488
 31
0.0
  0
LINE
  5
46
330
1E
100
AcDbEntity
  8
0
100
AcDbLine
 10
13.0
 20
2.0
 30
0.0
 11
13.0
 21
2.442959999999999
 31
0.0
  0
LINE
  5
47
330
1E
100
AcDbEntity
  8
0
100
AcDbLine
 10
13.264
 20
1.008
 30
0.0
 11
13.584
 21
0.5840000000000022
 31
0.0
  0
LINE
  5
48
330
1E
100
AcDbEntity
  8
0
100
AcDbLine
 10
13.584
 20
0.5840000000000022
 30
0.0
 11
14.008
 21
0.264000000000002
 31
0.0
  0
LINE
  5
49
330
1E
100
AcDbEntity
  8
0
100
AcDbLine
 10
16.928
 20
1.488
 30
0.0
 11
17.0
 21
2.0
 31
0.0
  0
LINE
  5
4A
330
1E
100
AcDbEntity
  8
0
100
AcDbLine
 10
16.736
 20
1.008
 30
0.0
 11
16.928
 21
1.488
 31
0.0
  0
LINE
  5
4B
330
1E
100
AcDbEntity
  8
0
100
AcDbLine
 10
16.416
 20
0.5840000000000022
 30
0.0
 11
16.736
 21
1.008
 31
0.0
  0
LINE
  5
4C
330
1E
100
AcDbEntity
  8
0
100
AcDbLine
 10
15.992
 20
0.264000000000002
 30
0.0
 11
16.416
 21
0.5840000000000022
 31
0.0
  0
LINE
  5
4D
330
1E
100
AcDbEntity
  8
0
100
AcDbLine
 10
17.0
 20
5.807609999999999
 30
0.0
 11
17.0
 21
3.741669999999999
 31
0.0
  0
LINE
  5
4E
330
1E
100
AcDbEntity
  8
0
100
AcDbLine
 10
17.0
 20
5.807609999999999
 30
0.0
 11
17.0
 21
8.500000000000008
 31
0.0
  0
LINE
  5
4F
330
1E
100
AcDbEntity
  8
0
100
AcDbLine
 10
17.0
 20
3.741669999999999
 30
0.0
 11
17.0
 21
2.442959999999999
 31
0.0
  0
LINE
  5
50
330
1E
100
AcDbEntity
  8
0
100
AcDbLine
 10
17.0
 20
3.741669999999999
 30
0.0
 11
17.0
 21
5.807609999999999
 31
0.0
  0
LINE
  5
51
330
1E
100
AcDbEntity
  8
0
100
AcDbLine
 10
17.0
 20
2.0
 30
0.0
 11
17.0
 21
2.442959999999999
 31
0.0
  0
LINE
  5
52
330
1E
100
AcDbEntity
  8
0
100
AcDbLine
 10
17.0
 20
2.442959999999999
 30
0.0
 11
17.0
 21
2.0
 31
0.0
  0
LINE
  5
53
330
1E
100
AcDbEntity
  8
0
100
AcDbLine
 10
17.0
 20
2.442959999999999
 30
0.0
 11
17.0
 21
3.741669999999999
 31
0.0
  0
LINE
  5
54
330
1E
100
AcDbEntity
  8
0
100
AcDbLine
 10
17.0
 20
8.500000000000008
 30
0.0
 11
17.0
 21
11.6354
 31
0.0
  0
LINE
  5
55
330
1E
100
AcDbEntity
  8
0
100
AcDbLine
 10
17.0
 20
8.500000000000008
 30
0.0
 11
17.0
 21
5.807609999999999
 31
0.0
  0
LINE
  5
56
330
1E
100
AcDbEntity
  8
0
100
AcDbLine
 10
17.0
 20
11.6354
 30
0.0
 11
17.0
 21
15.0
 31
0.0
  0
LINE
  5
57
330
1E
100
AcDbEntity
  8
0
100
AcDbLine
 10
17.0
 20
11.6354
 30
0.0
 11
17.0
 21
8.500000000000008
 31
0.0
  0
LINE
  5
58
330
1E
100
AcDbEntity
  8
0
100
AcDbLine
 10
17.0
 20
15.0
 30
0.0
 11
17.0
 21
69.0
 31
0.0
  0
LINE
  5
59
330
1E
100
AcDbEntity
  8
0
100
AcDbLine
 10
17.0
 20
15.0
 30
0.0
 11
17.0
 21
11.6354
 31
0.0
  0
LINE
  5
5A
330
1E
100
AcDbEntity
  8
0
100
AcDbLine
 10
14.008
 20
0.264000000000002
 30
0.0
 11
14.488
 21
0.0720000000000023
 31
0.0
  0
LINE
  5
5B
330
1E
100
AcDbEntity
  8
0
100
AcDbLine
 10
14.488
 20
0.0720000000000023
 30
0.0
 11
15.0
 21
0.0000000000000023
 31
0.0
  0
LINE
  5
5C
330
1E
100
AcDbEntity
  8
0
100
AcDbLine
 10
14.488
 20
0.0720000000000023
 30
0.0
 11
15.0
 21
0.0000000000000023
 31
0.0
  0
LINE
  5
5D
330
1E
100
AcDbEntity
  8
0
100
AcDbLine
 10
41.0
 20
0.0000000000000012
 30
0.0
 11
41.512
 21
0.0720000000000012
 31
0.0
  0
LINE
  5
5E
330
1E
100
AcDbEntity
  8
0
100
AcDbLine
 10
41.512
 20
0.0720000000000012
 30
0.0
 11
41.992
 21
0.264000000000001
 31
0.0
  0
LINE
  5
5F
330
1E
100
AcDbEntity
  8
0
100
AcDbLine
 10
39.0
 20
3.741669999999999
 30
0.0
 11
39.0
 21
2.442959999999999
 31
0.0
  0
LINE
  5
60
330
1E
100
AcDbEntity
  8
0
100
AcDbLine
 10
39.0
 20
3.741669999999999
 30
0.0
 11
39.0
 21
5.807609999999999
 31
0.0
  0
LINE
  5
61
330
1E
100
AcDbEntity
  8
0
100
AcDbLine
 10
39.0
 20
2.442959999999999
 30
0.0
 11
39.0
 21
3.741669999999999
 31
0.0
  0
LINE
  5
62
330
1E
100
AcDbEntity
  8
0
100
AcDbLine
 10
39.0
 20
2.442959999999999
 30
0.0
 11
39.0
 21
2.0
 31
0.0
  0
LINE
  5
63
330
1E
100
AcDbEntity
  8
0
100
AcDbLine
 10
39.0
 20
2.44296000000001
 30
0.0
 11
39.0
 21
2.00000000000001
 31
0.0
  0
LINE
  5
64
330
1E
100
AcDbEntity
  8
0
100
AcDbLine
 10
39.0
 20
2.44296000000001
 30
0.0
 11
39.0
 21
3.741670000000009
 31
0.0
  0
LINE
  5
65
330
1E
100
AcDbEntity
  8
0
100
AcDbLine
 10
39.0
 20
8.5
 30
0.0
 11
39.0
 21
11.6354
 31
0.0
  0
LINE
  5
66
330
1E
100
AcDbEntity
  8
0
100
AcDbLine
 10
39.0
 20
8.5
 30
0.0
 11
39.0
 21
5.807609999999999
 31
0.0
  0
LINE
  5
67
330
1E
100
AcDbEntity
  8
0
100
AcDbLine
 10
39.0
 20
5.807609999999999
 30
0.0
 11
39.0
 21
3.741669999999999
 31
0.0
  0
LINE
  5
68
330
1E
100
AcDbEntity
  8
0
100
AcDbLine
 10
39.0
 20
5.807609999999999
 30
0.0
 11
39.0
 21
8.5
 31
0.0
  0
LINE
  5
69
330
1E
100
AcDbEntity
  8
0
100
AcDbLine
 10
39.0
 20
3.741670000000009
 30
0.0
 11
39.0
 21
5.807610000000009
 31
0.0
  0
LINE
  5
6A
330
1E
100
AcDbEntity
  8
0
100
AcDbLine
 10
39.0
 20
3.741670000000009
 30
0.0
 11
39.0
 21
2.44296000000001
 31
0.0
  0
LINE
  5
6B
330
1E
100
AcDbEntity
  8
0
100
AcDbLine
 10
39.0
 20
5.807610000000009
 30
0.0
 11
39.0
 21
3.741670000000009
 31
0.0
  0
LINE
  5
6C
330
1E
100
AcDbEntity
  8
0
100
AcDbLine
 10
39.0
 20
5.807610000000009
 30
0.0
 11
39.0
 21
8.500000000000008
 31
0.0
  0
LINE
  5
6D
330
1E
100
AcDbEntity
  8
0
100
AcDbLine
 10
39.0
 20
11.6354
 30
0.0
 11
39.0
 21
15.0
 31
0.0
  0
LINE
  5
6E
330
1E
100
AcDbEntity
  8
0
100
AcDbLine
 10
39.0
 20
11.6354
 30
0.0
 11
39.0
 21
8.5
 31
0.0
  0
LINE
  5
6F
330
1E
100
AcDbEntity
  8
0
100
AcDbLine
 10
39.0
 20
15.0
 30
0.0
 11
39.0
 21
69.0
 31
0.0
  0
LINE
  5
70
330
1E
100
AcDbEntity
  8
0
100
AcDbLine
 10
39.0
 20
15.0
 30
0.0
 11
39.0
 21
11.6354
 31
0.0
  0
LINE
  5
71
330
1E
100
AcDbEntity
  8
0
100
AcDbLine
 10
39.0
 20
8.500000000000008
 30
0.0
 11
39.0
 21
11.6354
 31
0.0
  0
LINE
  5
72
330
1E
100
AcDbEntity
  8
0
100
AcDbLine
 10
39.0
 20
8.500000000000008
 30
0.0
 11
39.0
 21
5.807610000000009
 31
0.0
  0
LINE
  5
73
330
1E
100
AcDbEntity
  8
0
100
AcDbLine
 10
39.0
 20
11.6354
 30
0.0
 11
39.0
 21
15.0
 31
0.0
  0
LINE
  5
74
330
1E
100
AcDbEntity
  8
0
100
AcDbLine
 10
39.0
 20
11.6354
 30
0.0
 11
39.0
 21
8.500000000000008
 31
0.0
  0
LINE
  5
75
330
1E
100
AcDbEntity
  8
0
100
AcDbLine
 10
39.0
 20
69.0
 30
0.0
 11
39.0
 21
15.0
 31
0.0
  0
LINE
  5
76
330
1E
100
AcDbEntity
  8
0
100
AcDbLine
 10
39.0
 20
15.0
 30
0.0
 11
39.0
 21
69.0
 31
0.0
  0
LINE
  5
77
330
1E
100
AcDbEntity
  8
0
100
AcDbLine
 10
39.0
 20
15.0
 30
0.0
 11
39.0
 21
11.6354
 31
0.0
  0
LINE
  5
78
330
1E
100
AcDbEntity
  8
0
100
AcDbLine
 10
39.0
 20
2.00000000000001
 30
0.0
 11
39.0
 21
2.44296000000001
 31
0.0
  0
LINE
  5
79
330
1E
100
AcDbEntity
  8
0
100
AcDbLine
 10
39.0
 20
2.0
 30
0.0
 11
39.07199999999999
 21
1.488
 31
0.0
  0
LINE
  5
7A
330
1E
100
AcDbEntity
  8
0
100
AcDbLine
 10
39.0
 20
2.0
 30
0.0
 11
39.0
 21
2.442959999999999
 31
0.0
  0
LINE
  5
7B
330
1E
100
AcDbEntity
  8
0
100
AcDbLine
 10
39.264
 20
1.008
 30
0.0
 11
39.584
 21
0.584000000000001
 31
0.0
  0
LINE
  5
7C
330
1E
100
AcDbEntity
  8
0
100
AcDbLine
 10
39.584
 20
0.584000000000001
 30
0.0
 11
40.008
 21
0.264000000000001
 31
0.0
  0
LINE
  5
7D
330
1E
100
AcDbEntity
  8
0
100
AcDbLine
 10
40.008
 20
0.264000000000001
 30
0.0
 11
40.48799999999999
 21
0.0720000000000012
 31
0.0
  0
LINE
  5
7E
330
1E
100
AcDbEntity
  8
0
100
AcDbLine
 10
40.008
 20
0.264000000000001
 30
0.0
 11
40.48799999999999
 21
0.0720000000000012
 31
0.0
  0
LINE
  5
7F
330
1E
100
AcDbEntity
  8
0
100
AcDbLine
 10
40.48799999999999
 20
0.0720000000000012
 30
0.0
 11
41.0
 21
0.0000000000000012
 31
0.0
  0
LINE
  5
80
330
1E
100
AcDbEntity
  8
0
100
AcDbLine
 10
40.48799999999999
 20
0.0720000000000012
 30
0.0
 11
41.0
 21
0.0000000000000012
 31
0.0
  0
LINE
  5
81
330
1E
100
AcDbEntity
  8
0
100
AcDbLine
 10
43.0
 20
2.44296000000001
 30
0.0
 11
43.0
 21
3.741670000000009
 31
0.0
  0
LINE
  5
82
330
1E
100
AcDbEntity
  8
0
100
AcDbLine
 10
43.0
 20
2.44296000000001
 30
0.0
 11
43.0
 21
2.00000000000001
 31
0.0
  0
LINE
  5
83
330
1E
100
AcDbEntity
  8
0
100
AcDbLine
 10
43.0
 20
5.807610000000009
 30
0.0
 11
43.0
 21
3.741670000000009
 31
0.0
  0
LINE
  5
84
330
1E
100
AcDbEntity
  8
0
100
AcDbLine
 10
43.0
 20
5.807610000000009
 30
0.0
 11
43.0
 21
8.500000000000008
 31
0.0
  0
LINE
  5
85
330
1E
100
AcDbEntity
  8
0
100
AcDbLine
 10
43.0
 20
3.741670000000009
 30
0.0
 11
43.0
 21
5.807610000000009
 31
0.0
  0
LINE
  5
86
330
1E
100
AcDbEntity
  8
0
100
AcDbLine
 10
43.0
 20
3.741670000000009
 30
0.0
 11
43.0
 21
2.44296000000001
 31
0.0
  0
LINE
  5
87
330
1E
100
AcDbEntity
  8
0
100
AcDbLine
 10
43.0
 20
11.6354
 30
0.0
 11
43.0
 21
8.500000000000008
 31
0.0
  0
LINE
  5
88
330
1E
100
AcDbEntity
  8
0
100
AcDbLine
 10
43.0
 20
11.6354
 30
0.0
 11
43.0
 21
15.0
 31
0.0
  0
LINE
  5
89
330
1E
100
AcDbEntity
  8
0
100
AcDbLine
 10
43.0
 20
8.500000000000008
 30
0.0
 11
43.0
 21
11.6354
 31
0.0
  0
LINE
  5
8A
330
1E
100
AcDbEntity
  8
0
100
AcDbLine
 10
43.0
 20
8.500000000000008
 30
0.0
 11
43.0
 21
5.807610000000009
 31
0.0
  0
LINE
  5
8B
330
1E
100
AcDbEntity
  8
0
100
AcDbLine
 10
43.0
 20
15.0
 30
0.0
 11
43.0
 21
69.0
 31
0.0
  0
LINE
  5
8C
330
1E
100
AcDbEntity
  8
0
100
AcDbLine
 10
43.0
 20
15.0
 30
0.0
 11
43.0
 21
11.6354
 31
0.0
  0
LINE
  5
8D
330
1E
100
AcDbEntity
  8
0
100
AcDbLine
 10
43.0
 20
2.00000000000001
 30
0.0
 11
43.0
 21
2.44296000000001
 31
0.0
  0
LINE
  5
8E
330
1E
100
AcDbEntity
  8
0
100
AcDbLine
 10
42.928
 20
1.488
 30
0.0
 11
43.0
 21
2.0
 31
0.0
  0
LINE
  5
8F
330
1E
100
AcDbEntity
  8
0
100
AcDbLine
 10
42.736
 20
1.008
 30
0.0
 11
42.928
 21
1.488
 31
0.0
  0
LINE
  5
90
330
1E
100
AcDbEntity
  8
0
100
AcDbLine
 10
42.416
 20
0.584000000000001
 30
0.0
 11
42.736
 21
1.008
 31
0.0
  0
LINE
  5
91
330
1E
100
AcDbEntity
  8
0
100
AcDbLine
 10
41.992
 20
0.264000000000001
 30
0.0
 11
42.416
 21
0.584000000000001
 31
0.0
  0
LINE
  5
92
330
1E
100
AcDbEntity
  8
0
100
AcDbLine
 10
41.512
 20
0.0720000000000012
 30
0.0
 11
41.992
 21
0.264000000000001
 31
0.0
  0
LINE
  5
93
330
1E
100
AcDbEntity
  8
0
100
AcDbLine
 10
41.0
 20
0.0000000000000012
 30
0.0
 11
41.512
 21
0.0720000000000012
 31
0.0
  0
LINE
  5
94
330
1E
100
AcDbEntity
  8
0
100
AcDbLine
 10
17.0
 20
69.0
 30
0.0
 11
18.9124
 21
69.0
 31
0.0
  0
LINE
  5
95
330
1E
100
AcDbEntity
  8
0
100
AcDbLine
 10
17.0
 20
69.0
 30
0.0
 11
17.0
 21
15.0
 31
0.0
  0
LINE
  5
96
330
1E
100
AcDbEntity
  8
0
100
AcDbLine
 10
28.75
 20
69.0
 30
0.0
 11
39.0
 21
69.0
 31
0.0
  0
LINE
  5
97
330
1E
100
AcDbEntity
  8
0
100
AcDbLine
 10
52.5
 20
69.0
 30
0.0
 11
65.0
 21
69.0
 31
0.0
  0
LINE
  5
98
330
1E
100
AcDbEntity
  8
0
100
AcDbLine
 10
43.0
 20
69.0
 30
0.0
 11
52.5
 21
69.0
 31
0.0
  0
LINE
  5
99
330
1E
100
AcDbEntity
  8
0
100
AcDbLine
 10
16.3800677966102
 20
69.0
 30
0.0
 11
18.9124
 21
69.0
 31
0.0
  0
LINE
  5
9A
330
1E
100
AcDbEntity
  8
0
100
AcDbLine
 10
11.36379999999999
 20
69.0
 30
0.0
 11
147.0
 21
69.0
 31
0.0
  0
LINE
  5
9B
330
1E
100
AcDbEntity
  8
0
100
AcDbLine
 10
13.0
 20
69.0
 30
0.0
 11
13.0
 21
15.0
 31
0.0
  0
LINE
  5
9C
330
1E
100
AcDbEntity
  8
0
100
AcDbLine
 10
39.0
 20
69.0
 30
0.0
 11
39.0
 21
15.0
 31
0.0
  0
LINE
  5
9D
330
1E
100
AcDbEntity
  8
0
100
AcDbLine
 10
43.0
 20
69.0
 30
0.0
 11
43.0
 21
15.0
 31
0.0
  0
LINE
  5
9E
330
1E
100
AcDbEntity
  8
0
100
AcDbLine
 10
18.9124
 20
69.0
 30
0.0
 11
28.75
 21
69.0
 31
0.0
  0
LINE
  5
9F
330
1E
100
AcDbEntity
  8
0
100
AcDbLine
 10
6.618519999999999
 20
69.0
 30
0.0
 11
11.36379999999999
 21
69.0
 31
0.0
  0
LINE
  5
A0
330
1E
100
AcDbEntity
  8
0
100
AcDbLine
 10
5.0
 20
79.0
 30
0.0
 11
6.618519999999999
 21
79.0
 31
0.0
  0
LINE
  5
A1
330
1E
100
AcDbEntity
  8
0
100
AcDbLine
 10
52.5
 20
79.0
 30
0.0
 11
107.4999999999999
 21
79.0
 31
0.0
  0
LINE
  5
A2
330
1E
100
AcDbEntity
  8
0
100
AcDbLine
 10
40.2061
 20
79.0
 30
0.0
 11
52.5
 21
79.0
 31
0.0
  0
LINE
  5
A3
330
1E
100
AcDbEntity
  8
0
100
AcDbLine
 10
28.75
 20
79.0
 30
0.0
 11
40.2061
 21
79.0
 31
0.0
  0
LINE
  5
A4
330
1E
100
AcDbEntity
  8
0
100
AcDbLine
 10
18.9124
 20
79.0
 30
0.0
 11
28.75
 21
79.0
 31
0.0
  0
LINE
  5
A5
330
1E
100
AcDbEntity
  8
0
100
AcDbLine
 10
11.36379999999999
 20
79.0
 30
0.0
 11
18.9124
 21
79.0
 31
0.0
  0
LINE
  5
A6
330
1E
100
AcDbEntity
  8
0
100
AcDbLine
 10
6.618519999999999
 20
79.0
 30
0.0
 11
11.36379999999999
 21
79.0
 31
0.0
  0
LINE
  5
A7
330
1E
100
AcDbEntity
  8
0
100
AcDbLine
 10
3.72
 20
78.81999999999999
 30
0.0
 11
5.0
 21
79.0
 31
0.0
  0
LINE
  5
A8
330
1E
100
AcDbEntity
  8
0
100
AcDbLine
 10
2.52
 20
78.34
 30
0.0
 11
3.72
 21
78.81999999999999
 31
0.0
  0
LINE
  5
A9
330
1E
100
AcDbEntity
  8
0
100
AcDbLine
 10
1.459999999999999
 20
77.54000000000001
 30
0.0
 11
2.52
 21
78.34
 31
0.0
  0
LINE
  5
AA
330
1E
100
AcDbEntity
  8
0
100
AcDbLine
 10
0.6599999999999959
 20
76.48
 30
0.0
 11
1.459999999999999
 21
77.54000000000001
 31
0.0
  0
LINE
  5
AB
330
1E
100
AcDbEntity
  8
0
100
AcDbLine
 10
0.179999999999996
 20
75.28
 30
0.0
 11
0.6599999999999959
 21
76.48
 31
0.0
  0
LINE
  5
AC
330
1E
100
AcDbEntity
  8
0
100
AcDbLine
 10
-0.0000000000000044
 20
74.0
 30
0.0
 11
0.179999999999996
 21
75.28
 31
0.0
  0
LINE
  5
AD
330
1E
100
AcDbEntity
  8
0
100
AcDbLine
 10
-0.0000000000000044
 20
74.0
 30
0.0
 11
0.179999999999996
 21
72.72
 31
0.0
  0
LINE
  5
AE
330
1E
100
AcDbEntity
  8
0
100
AcDbLine
 10
53.7246376811594
 20
79.0
 30
0.0
 11
54.0
 21
80.90000000000001
 31
0.0
  0
LINE
  5
AF
330
1E
100
AcDbEntity
  8
0
100
AcDbLine
 10
67.0
 20
0.0000000000000012
 30
0.0
 11
67.512
 21
0.0720000000000012
 31
0.0
  0
LINE
  5
B0
330
1E
100
AcDbEntity
  8
0
100
AcDbLine
 10
65.0
 20
2.442959999999999
 30
0.0
 11
65.0
 21
3.741669999999999
 31
0.0
  0
LINE
  5
B1
330
1E
100
AcDbEntity
  8
0
100
AcDbLine
 10
65.0
 20
2.442959999999999
 30
0.0
 11
65.0
 21
2.0
 31
0.0
  0
LINE
  5
B2
330
1E
100
AcDbEntity
  8
0
100
AcDbLine
 10
65.0
 20
5.807609999999999
 30
0.0
 11
65.0
 21
3.741669999999999
 31
0.0
  0
LINE
  5
B3
330
1E
100
AcDbEntity
  8
0
100
AcDbLine
 10
65.0
 20
5.807609999999999
 30
0.0
 11
65.0
 21
8.5
 31
0.0
  0
LINE
  5
B4
330
1E
100
AcDbEntity
  8
0
100
AcDbLine
 10
65.0
 20
3.741669999999999
 30
0.0
 11
65.0
 21
2.442959999999999
 31
0.0
  0
LINE
  5
B5
330
1E
100
AcDbEntity
  8
0
100
AcDbLine
 10
65.0
 20
3.741669999999999
 30
0.0
 11
65.0
 21
5.807609999999999
 31
0.0
  0
LINE
  5
B6
330
1E
100
AcDbEntity
  8
0
100
AcDbLine
 10
65.0
 20
2.44296000000001
 30
0.0
 11
65.0
 21
2.00000000000001
 31
0.0
  0
LINE
  5
B7
330
1E
100
AcDbEntity
  8
0
100
AcDbLine
 10
65.0
 20
2.44296000000001
 30
0.0
 11
65.0
 21
3.741670000000009
 31
0.0
  0
LINE
  5
B8
330
1E
100
AcDbEntity
  8
0
100
AcDbLine
 10
65.0
 20
3.741670000000009
 30
0.0
 11
65.0
 21
5.807610000000009
 31
0.0
  0
LINE
  5
B9
330
1E
100
AcDbEntity
  8
0
100
AcDbLine
 10
65.0
 20
3.741670000000009
 30
0.0
 11
65.0
 21
2.44296000000001
 31
0.0
  0
LINE
  5
BA
330
1E
100
AcDbEntity
  8
0
100
AcDbLine
 10
65.0
 20
8.5
 30
0.0
 11
65.0
 21
11.6354
 31
0.0
  0
LINE
  5
BB
330
1E
100
AcDbEntity
  8
0
100
AcDbLine
 10
65.0
 20
8.5
 30
0.0
 11
65.0
 21
5.807609999999999
 31
0.0
  0
LINE
  5
BC
330
1E
100
AcDbEntity
  8
0
100
AcDbLine
 10
65.0
 20
11.6354
 30
0.0
 11
65.0
 21
15.0
 31
0.0
  0
LINE
  5
BD
330
1E
100
AcDbEntity
  8
0
100
AcDbLine
 10
65.0
 20
11.6354
 30
0.0
 11
65.0
 21
8.5
 31
0.0
  0
LINE
  5
BE
330
1E
100
AcDbEntity
  8
0
100
AcDbLine
 10
65.0
 20
5.807610000000009
 30
0.0
 11
65.0
 21
3.741670000000009
 31
0.0
  0
LINE
  5
BF
330
1E
100
AcDbEntity
  8
0
100
AcDbLine
 10
65.0
 20
5.807610000000009
 30
0.0
 11
65.0
 21
8.500000000000008
 31
0.0
  0
LINE
  5
C0
330
1E
100
AcDbEntity
  8
0
100
AcDbLine
 10
65.0
 20
8.500000000000008
 30
0.0
 11
65.0
 21
11.6354
 31
0.0
  0
LINE
  5
C1
330
1E
100
AcDbEntity
  8
0
100
AcDbLine
 10
65.0
 20
8.500000000000008
 30
0.0
 11
65.0
 21
5.807610000000009
 31
0.0
  0
LINE
  5
C2
330
1E
100
AcDbEntity
  8
0
100
AcDbLine
 10
65.0
 20
15.0
 30
0.0
 11
65.0
 21
69.0
 31
0.0
  0
LINE
  5
C3
330
1E
100
AcDbEntity
  8
0
100
AcDbLine
 10
65.0
 20
15.0
 30
0.0
 11
65.0
 21
11.6354
 31
0.0
  0
LINE
  5
C4
330
1E
100
AcDbEntity
  8
0
100
AcDbLine
 10
65.0
 20
11.6354
 30
0.0
 11
65.0
 21
15.0
 31
0.0
  0
LINE
  5
C5
330
1E
100
AcDbEntity
  8
0
100
AcDbLine
 10
65.0
 20
11.6354
 30
0.0
 11
65.0
 21
8.500000000000008
 31
0.0
  0
LINE
  5
C6
330
1E
100
AcDbEntity
  8
0
100
AcDbLine
 10
65.0
 20
15.0
 30
0.0
 11
65.0
 21
69.0
 31
0.0
  0
LINE
  5
C7
330
1E
100
AcDbEntity
  8
0
100
AcDbLine
 10
65.0
 20
15.0
 30
0.0
 11
65.0
 21
11.6354
 31
0.0
  0
LINE
  5
C8
330
1E
100
AcDbEntity
  8
0
100
AcDbLine
 10
65.0
 20
2.00000000000001
 30
0.0
 11
65.0
 21
2.44296000000001
 31
0.0
  0
LINE
  5
C9
330
1E
100
AcDbEntity
  8
0
100
AcDbLine
 10
65.0
 20
2.0
 30
0.0
 11
65.072
 21
1.488
 31
0.0
  0
LINE
  5
CA
330
1E
100
AcDbEntity
  8
0
100
AcDbLine
 10
65.0
 20
2.0
 30
0.0
 11
65.0
 21
2.442959999999999
 31
0.0
  0
LINE
  5
CB
330
1E
100
AcDbEntity
  8
0
100
AcDbLine
 10
65.072
 20
1.488
 30
0.0
 11
65.26399999999999
 21
1.008
 31
0.0
  0
LINE
  5
CC
330
1E
100
AcDbEntity
  8
0
100
AcDbLine
 10
65.26399999999999
 20
1.008
 30
0.0
 11
65.584
 21
0.584000000000001
 31
0.0
  0
LINE
  5
CD
330
1E
100
AcDbEntity
  8
0
100
AcDbLine
 10
65.584
 20
0.584000000000001
 30
0.0
 11
66.00799999999999
 21
0.264000000000001
 31
0.0
  0
LINE
  5
CE
330
1E
100
AcDbEntity
  8
0
100
AcDbLine
 10
66.00799999999999
 20
0.264000000000001
 30
0.0
 11
66.488
 21
0.0720000000000012
 31
0.0
  0
LINE
  5
CF
330
1E
100
AcDbEntity
  8
0
100
AcDbLine
 10
66.00799999999999
 20
0.264000000000001
 30
0.0
 11
66.488
 21
0.0720000000000012
 31
0.0
  0
LINE
  5
D0
330
1E
100
AcDbEntity
  8
0
100
AcDbLine
 10
66.488
 20
0.0720000000000012
 30
0.0
 11
67.0
 21
0.0000000000000012
 31
0.0
  0
LINE
  5
D1
330
1E
100
AcDbEntity
  8
0
100
AcDbLine
 10
66.488
 20
0.0720000000000012
 30
0.0
 11
67.0
 21
0.0000000000000012
 31
0.0
  0
LINE
  5
D2
330
1E
100
AcDbEntity
  8
0
100
AcDbLine
 10
67.512
 20
0.0720000000000012
 30
0.0
 11
67.992
 21
0.264000000000001
 31
0.0
  0
LINE
  5
D3
330
1E
100
AcDbEntity
  8
0
100
AcDbLine
 10
69.0
 20
2.44296000000001
 30
0.0
 11
69.0
 21
3.741670000000009
 31
0.0
  0
LINE
  5
D4
330
1E
100
AcDbEntity
  8
0
100
AcDbLine
 10
69.0
 20
2.44296000000001
 30
0.0
 11
69.0
 21
2.00000000000001
 31
0.0
  0
LINE
  5
D5
330
1E
100
AcDbEntity
  8
0
100
AcDbLine
 10
69.0
 20
5.807610000000009
 30
0.0
 11
69.0
 21
3.741670000000009
 31
0.0
  0
LINE
  5
D6
330
1E
100
AcDbEntity
  8
0
100
AcDbLine
 10
69.0
 20
5.807610000000009
 30
0.0
 11
69.0
 21
8.500000000000008
 31
0.0
  0
LINE
  5
D7
330
1E
100
AcDbEntity
  8
0
100
AcDbLine
 10
69.0
 20
3.741670000000009
 30
0.0
 11
69.0
 21
5.807610000000009
 31
0.0
  0
LINE
  5
D8
330
1E
100
AcDbEntity
  8
0
100
AcDbLine
 10
69.0
 20
3.741670000000009
 30
0.0
 11
69.0
 21
2.44296000000001
 31
0.0
  0
LINE
  5
D9
330
1E
100
AcDbEntity
  8
0
100
AcDbLine
 10
69.0
 20
11.6354
 30
0.0
 11
69.0
 21
8.500000000000008
 31
0.0
  0
LINE
  5
DA
330
1E
100
AcDbEntity
  8
0
100
AcDbLine
 10
69.0
 20
11.6354
 30
0.0
 11
69.0
 21
15.0
 31
0.0
  0
LINE
  5
DB
330
1E
100
AcDbEntity
  8
0
100
AcDbLine
 10
69.0
 20
8.500000000000008
 30
0.0
 11
69.0
 21
11.6354
 31
0.0
  0
LINE
  5
DC
330
1E
100
AcDbEntity
  8
0
100
AcDbLine
 10
69.0
 20
8.500000000000008
 30
0.0
 11
69.0
 21
5.807610000000009
 31
0.0
  0
LINE
  5
DD
330
1E
100
AcDbEntity
  8
0
100
AcDbLine
 10
69.0
 20
15.0
 30
0.0
 11
69.0
 21
69.0
 31
0.0
  0
LINE
  5
DE
330
1E
100
AcDbEntity
  8
0
100
AcDbLine
 10
69.0
 20
15.0
 30
0.0
 11
69.0
 21
11.6354
 31
0.0
  0
LINE
  5
DF
330
1E
100
AcDbEntity
  8
0
100
AcDbLine
 10
69.0
 20
2.00000000000001
 30
0.0
 11
69.0
 21
2.44296000000001
 31
0.0
  0
LINE
  5
E0
330
1E
100
AcDbEntity
  8
0
100
AcDbLine
 10
68.928
 20
1.488
 30
0.0
 11
69.0
 21
2.0
 31
0.0
  0
LINE
  5
E1
330
1E
100
AcDbEntity
  8
0
100
AcDbLine
 10
68.736
 20
1.008
 30
0.0
 11
68.928
 21
1.488
 31
0.0
  0
LINE
  5
E2
330
1E
100
AcDbEntity
  8
0
100
AcDbLine
 10
68.41599999999999
 20
0.584000000000001
 30
0.0
 11
68.736
 21
1.008
 31
0.0
  0
LINE
  5
E3
330
1E
100
AcDbEntity
  8
0
100
AcDbLine
 10
67.992
 20
0.264000000000001
 30
0.0
 11
68.41599999999999
 21
0.584000000000001
 31
0.0
  0
LINE
  5
E4
330
1E
100
AcDbEntity
  8
0
100
AcDbLine
 10
67.512
 20
0.0720000000000012
 30
0.0
 11
67.992
 21
0.264000000000001
 31
0.0
  0
LINE
  5
E5
330
1E
100
AcDbEntity
  8
0
100
AcDbLine
 10
67.0
 20
0.0000000000000012
 30
0.0
 11
67.512
 21
0.0720000000000012
 31
0.0
  0
LINE
  5
E6
330
1E
100
AcDbEntity
  8
0
100
AcDbLine
 10
69.0
 20
50.140625
 30
0.0
 11
73.2
 21
48.5
 31
0.0
  0
LINE
  5
E7
330
1E
100
AcDbEntity
  8
0
100
AcDbLine
 10
69.0
 20
49.64
 30
0.0
 11
73.09999999999999
 21
48.0
 31
0.0
  0
LINE
  5
E8
330
1E
100
AcDbEntity
  8
0
100
AcDbLine
 10
69.0
 20
60.5405405405405
 30
0.0
 11
71.29999999999999
 21
58.79999999999999
 31
0.0
  0
LINE
  5
E9
330
1E
100
AcDbEntity
  8
0
100
AcDbLine
 10
61.29999999999999
 20
55.3
 30
0.0
 11
65.0
 21
52.40727272727269
 31
0.0
  0
LINE
  5
EA
330
1E
100
AcDbEntity
  8
0
100
AcDbLine
 10
69.0
 20
64.8
 30
0.0
 11
69.8
 21
63.79999999999999
 31
0.0
  0
LINE
  5
EB
330
1E
100
AcDbEntity
  8
0
100
AcDbLine
 10
69.8
 20
63.79999999999999
 30
0.0
 11
72.8
 21
61.4
 31
0.0
  0
LINE
  5
EC
330
1E
100
AcDbEntity
  8
0
100
AcDbLine
 10
69.40000000000001
 20
63.39999999999999
 30
0.0
 11
72.5
 21
61.0
 31
0.0
  0
LINE
  5
ED
330
1E
100
AcDbEntity
  8
0
100
AcDbLine
 10
71.29999999999999
 20
58.79999999999999
 30
0.0
 11
75.5
 21
57.1
 31
0.0
  0
LINE
  5
EE
330
1E
100
AcDbEntity
  8
0
100
AcDbLine
 10
69.0
 20
63.9166666666667
 30
0.0
 11
69.40000000000001
 21
63.39999999999999
 31
0.0
  0
LINE
  5
EF
330
1E
100
AcDbEntity
  8
0
100
AcDbLine
 10
64.8
 20
65.3
 30
0.0
 11
65.0
 21
65.03571428571429
 31
0.0
  0
LINE
  5
F0
330
1E
100
AcDbEntity
  8
0
100
AcDbLine
 10
57.0
 20
60.8
 30
0.0
 11
61.29999999999999
 21
55.3
 31
0.0
  0
LINE
  5
F1
330
1E
100
AcDbEntity
  8
0
100
AcDbLine
 10
60.89999999999999
 20
54.9
 30
0.0
 11
65.0
 21
51.8070175438596
 31
0.0
  0
LINE
  5
F2
330
1E
100
AcDbEntity
  8
0
100
AcDbLine
 10
56.6
 20
60.6
 30
0.0
 11
60.89999999999999
 21
54.9
 31
0.0
  0
LINE
  5
F3
330
1E
100
AcDbEntity
  8
0
100
AcDbLine
 10
54.23529411764711
 20
79.0
 30
0.0
 11
54.5
 21
80.8
 31
0.0
  0
LINE
  5
F4
330
1E
100
AcDbEntity
  8
0
100
AcDbLine
 10
65.0
 20
69.0
 30
0.0
 11
65.0
 21
15.0
 31
0.0
  0
LINE
  5
F5
330
1E
100
AcDbEntity
  8
0
100
AcDbLine
 10
68.9938983050847
 20
69.0
 30
0.0
 11
91.0061016949152
 21
69.0
 31
0.0
  0
LINE
  5
F6
330
1E
100
AcDbEntity
  8
0
100
AcDbLine
 10
69.0
 20
69.0
 30
0.0
 11
91.0
 21
69.0
 31
0.0
  0
LINE
  5
F7
330
1E
100
AcDbEntity
  8
0
100
AcDbLine
 10
69.0
 20
69.0
 30
0.0
 11
69.0
 21
15.0
 31
0.0
  0
LINE
  5
F8
330
1E
100
AcDbEntity
  8
0
100
AcDbLine
 10
66.52
 20
79.0
 30
0.0
 11
67.40000000000001
 21
81.2
 31
0.0
  0
LINE
  5
F9
330
1E
100
AcDbEntity
  8
0
100
AcDbLine
 10
65.9583333333333
 20
79.0
 30
0.0
 11
67.0
 21
81.5
 31
0.0
  0
LINE
  5
FA
330
1E
100
AcDbEntity
  8
0
100
AcDbLine
 10
63.302380952381
 20
79.0
 30
0.0
 11
64.8
 21
82.70000000000001
 31
0.0
  0
LINE
  5
FB
330
1E
100
AcDbEntity
  8
0
100
AcDbLine
 10
63.30238095238089
 20
69.0
 30
0.0
 11
64.8
 21
65.3
 31
0.0
  0
LINE
  5
FC
330
1E
100
AcDbEntity
  8
0
100
AcDbLine
 10
62.8581395348837
 20
69.0
 30
0.0
 11
64.40000000000001
 21
65.09999999999999
 31
0.0
  0
LINE
  5
FD
330
1E
100
AcDbEntity
  8
0
100
AcDbLine
 10
54.5
 20
67.2
 30
0.0
 11
57.0
 21
60.8
 31
0.0
  0
LINE
  5
FE
330
1E
100
AcDbEntity
  8
0
100
AcDbLine
 10
54.23529411764711
 20
69.0
 30
0.0
 11
54.5
 21
67.2
 31
0.0
  0
LINE
  5
FF
330
1E
100
AcDbEntity
  8
0
100
AcDbLine
 10
54.0
 20
67.09999999999999
 30
0.0
 11
56.6
 21
60.6
 31
0.0
  0
LINE
  5
100
330
1E
100
AcDbEntity
  8
0
100
AcDbLine
 10
53.7246376811594
 20
69.0
 30
0.0
 11
54.0
 21
67.09999999999999
 31
0.0
  0
LINE
  5
101
330
1E
100
AcDbEntity
  8
0
100
AcDbLine
 10
54.5
 20
80.8
 30
0.0
 11
57.0
 21
87.2
 31
0.0
  0
LINE
  5
102
330
1E
100
AcDbEntity
  8
0
100
AcDbLine
 10
57.0
 20
87.2
 30
0.0
 11
61.29999999999999
 21
92.70000000000001
 31
0.0
  0
LINE
  5
103
330
1E
100
AcDbEntity
  8
0
100
AcDbLine
 10
56.6
 20
87.4
 30
0.0
 11
60.89999999999999
 21
93.1
 31
0.0
  0
LINE
  5
104
330
1E
100
AcDbEntity
  8
0
100
AcDbLine
 10
54.0
 20
80.90000000000001
 30
0.0
 11
56.6
 21
87.4
 31
0.0
  0
LINE
  5
105
330
1E
100
AcDbEntity
  8
0
100
AcDbLine
 10
64.8
 20
82.70000000000001
 30
0.0
 11
67.59999999999999
 21
86.4
 31
0.0
  0
LINE
  5
106
330
1E
100
AcDbEntity
  8
0
100
AcDbLine
 10
64.40000000000001
 20
82.9
 30
0.0
 11
67.3
 21
86.69999999999999
 31
0.0
  0
LINE
  5
107
330
1E
100
AcDbEntity
  8
0
100
AcDbLine
 10
61.29999999999999
 20
92.70000000000001
 30
0.0
 11
66.79999999999999
 21
97.0
 31
0.0
  0
LINE
  5
108
330
1E
100
AcDbEntity
  8
0
100
AcDbLine
 10
60.89999999999999
 20
93.1
 30
0.0
 11
66.6
 21
97.40000000000001
 31
0.0
  0
LINE
  5
109
330
1E
100
AcDbEntity
  8
0
100
AcDbLine
 10
67.40000000000001
 20
81.2
 30
0.0
 11
69.8
 21
84.19999999999999
 31
0.0
  0
LINE
  5
10A
330
1E
100
AcDbEntity
  8
0
100
AcDbLine
 10
67.0
 20
81.5
 30
0.0
 11
69.40000000000001
 21
84.59999999999999
 31
0.0
  0
LINE
  5
10B
330
1E
100
AcDbEntity
  8
0
100
AcDbLine
 10
69.8
 20
84.19999999999999
 30
0.0
 11
72.8
 21
86.6
 31
0.0
  0
LINE
  5
10C
330
1E
100
AcDbEntity
  8
0
100
AcDbLine
 10
69.40000000000001
 20
84.59999999999999
 30
0.0
 11
72.5
 21
87.0
 31
0.0
  0
LINE
  5
10D
330
1E
100
AcDbEntity
  8
0
100
AcDbLine
 10
67.59999999999999
 20
86.4
 30
0.0
 11
71.29999999999999
 21
89.19999999999999
 31
0.0
  0
LINE
  5
10E
330
1E
100
AcDbEntity
  8
0
100
AcDbLine
 10
71.29999999999999
 20
89.19999999999999
 30
0.0
 11
75.5
 21
90.90000000000001
 31
0.0
  0
LINE
  5
10F
330
1E
100
AcDbEntity
  8
0
100
AcDbLine
 10
71.09999999999999
 20
89.59999999999999
 30
0.0
 11
75.4
 21
91.3
 31
0.0
  0
LINE
  5
110
330
1E
100
AcDbEntity
  8
0
100
AcDbLine
 10
66.79999999999999
 20
97.0
 30
0.0
 11
73.2
 21
99.50000000000001
 31
0.0
  0
LINE
  5
111
330
1E
100
AcDbEntity
  8
0
100
AcDbLine
 10
66.6
 20
97.40000000000001
 30
0.0
 11
73.09999999999999
 21
100.0
 31
0.0
  0
LINE
  5
112
330
1E
100
AcDbEntity
  8
0
100
AcDbLine
 10
71.29999999999999
 20
79.0
 30
0.0
 11
72.9
 21
81.09999999999999
 31
0.0
  0
LINE
  5
113
330
1E
100
AcDbEntity
  8
0
100
AcDbLine
 10
80.0
 20
47.5
 30
0.0
 11
86.79999999999999
 21
48.5
 31
0.0
  0
LINE
  5
114
330
1E
100
AcDbEntity
  8
0
100
AcDbLine
 10
72.8
 20
61.4
 30
0.0
 11
76.29999999999999
 21
60.0
 31
0.0
  0
LINE
  5
115
330
1E
100
AcDbEntity
  8
0
100
AcDbLine
 10
72.5
 20
61.0
 30
0.0
 11
76.09999999999999
 21
59.5
 31
0.0
  0
LINE
  5
116
330
1E
100
AcDbEntity
  8
0
100
AcDbLine
 10
80.0
 20
56.5
 30
0.0
 11
84.50000000000001
 21
57.1
 31
0.0
  0
LINE
  5
117
330
1E
100
AcDbEntity
  8
0
100
AcDbLine
 10
80.0
 20
59.5
 30
0.0
 11
83.7
 21
60.0
 31
0.0
  0
LINE
  5
118
330
1E
100
AcDbEntity
  8
0
100
AcDbLine
 10
80.0
 20
59.0
 30
0.0
 11
83.9
 21
59.5
 31
0.0
  0
LINE
  5
119
330
1E
100
AcDbEntity
  8
0
100
AcDbLine
 10
76.29999999999999
 20
60.0
 30
0.0
 11
80.0
 21
59.5
 31
0.0
  0
LINE
  5
11A
330
1E
100
AcDbEntity
  8
0
100
AcDbLine
 10
76.09999999999999
 20
59.5
 30
0.0
 11
80.0
 21
59.0
 31
0.0
  0
LINE
  5
11B
330
1E
100
AcDbEntity
  8
0
100
AcDbLine
 10
75.5
 20
57.1
 30
0.0
 11
80.0
 21
56.5
 31
0.0
  0
LINE
  5
11C
330
1E
100
AcDbEntity
  8
0
100
AcDbLine
 10
75.4
 20
56.7
 30
0.0
 11
80.0
 21
56.0
 31
0.0
  0
LINE
  5
11D
330
1E
100
AcDbEntity
  8
0
100
AcDbLine
 10
73.2
 20
48.5
 30
0.0
 11
80.0
 21
47.5
 31
0.0
  0
LINE
  5
11E
330
1E
100
AcDbEntity
  8
0
100
AcDbLine
 10
73.09999999999999
 20
48.0
 30
0.0
 11
80.0
 21
47.0
 31
0.0
  0
LINE
  5
11F
330
1E
100
AcDbEntity
  8
0
100
AcDbLine
 10
86.79999999999999
 20
48.5
 30
0.0
 11
91.0
 21
50.140625
 31
0.0
  0
LINE
  5
120
330
1E
100
AcDbEntity
  8
0
100
AcDbLine
 10
91.0
 20
5.807609999999999
 30
0.0
 11
91.0
 21
3.741669999999999
 31
0.0
  0
LINE
  5
121
330
1E
100
AcDbEntity
  8
0
100
AcDbLine
 10
91.0
 20
5.807609999999999
 30
0.0
 11
91.0
 21
8.5
 31
0.0
  0
LINE
  5
122
330
1E
100
AcDbEntity
  8
0
100
AcDbLine
 10
91.0
 20
3.741669999999999
 30
0.0
 11
91.0
 21
2.442959999999999
 31
0.0
  0
LINE
  5
123
330
1E
100
AcDbEntity
  8
0
100
AcDbLine
 10
91.0
 20
3.741669999999999
 30
0.0
 11
91.0
 21
5.807609999999999
 31
0.0
  0
LINE
  5
124
330
1E
100
AcDbEntity
  8
0
100
AcDbLine
 10
91.0
 20
2.442959999999999
 30
0.0
 11
91.0
 21
2.0
 31
0.0
  0
LINE
  5
125
330
1E
100
AcDbEntity
  8
0
100
AcDbLine
 10
91.0
 20
2.442959999999999
 30
0.0
 11
91.0
 21
3.741669999999999
 31
0.0
  0
LINE
  5
126
330
1E
100
AcDbEntity
  8
0
100
AcDbLine
 10
91.0
 20
2.44296000000001
 30
0.0
 11
91.0
 21
3.741670000000009
 31
0.0
  0
LINE
  5
127
330
1E
100
AcDbEntity
  8
0
100
AcDbLine
 10
91.0
 20
2.44296000000001
 30
0.0
 11
91.0
 21
2.00000000000001
 31
0.0
  0
LINE
  5
128
330
1E
100
AcDbEntity
  8
0
100
AcDbLine
 10
91.0
 20
8.5
 30
0.0
 11
91.0
 21
11.6354
 31
0.0
  0
LINE
  5
129
330
1E
100
AcDbEntity
  8
0
100
AcDbLine
 10
91.0
 20
8.5
 30
0.0
 11
91.0
 21
5.807609999999999
 31
0.0
  0
LINE
  5
12A
330
1E
100
AcDbEntity
  8
0
100
AcDbLine
 10
91.0
 20
5.807610000000009
 30
0.0
 11
91.0
 21
3.741670000000009
 31
0.0
  0
LINE
  5
12B
330
1E
100
AcDbEntity
  8
0
100
AcDbLine
 10
91.0
 20
5.807610000000009
 30
0.0
 11
91.0
 21
8.500000000000008
 31
0.0
  0
LINE
  5
12C
330
1E
100
AcDbEntity
  8
0
100
AcDbLine
 10
91.0
 20
3.741670000000009
 30
0.0
 11
91.0
 21
5.807610000000009
 31
0.0
  0
LINE
  5
12D
330
1E
100
AcDbEntity
  8
0
100
AcDbLine
 10
91.0
 20
3.741670000000009
 30
0.0
 11
91.0
 21
2.44296000000001
 31
0.0
  0
LINE
  5
12E
330
1E
100
AcDbEntity
  8
0
100
AcDbLine
 10
91.0
 20
11.6354
 30
0.0
 11
91.0
 21
15.0
 31
0.0
  0
LINE
  5
12F
330
1E
100
AcDbEntity
  8
0
100
AcDbLine
 10
91.0
 20
11.6354
 30
0.0
 11
91.0
 21
8.5
 31
0.0
  0
LINE
  5
130
330
1E
100
AcDbEntity
  8
0
100
AcDbLine
 10
91.0
 20
15.0
 30
0.0
 11
91.0
 21
69.0
 31
0.0
  0
LINE
  5
131
330
1E
100
AcDbEntity
  8
0
100
AcDbLine
 10
91.0
 20
15.0
 30
0.0
 11
91.0
 21
11.6354
 31
0.0
  0
LINE
  5
132
330
1E
100
AcDbEntity
  8
0
100
AcDbLine
 10
91.0
 20
11.6354
 30
0.0
 11
91.0
 21
8.500000000000008
 31
0.0
  0
LINE
  5
133
330
1E
100
AcDbEntity
  8
0
100
AcDbLine
 10
91.0
 20
11.6354
 30
0.0
 11
91.0
 21
15.0
 31
0.0
  0
LINE
  5
134
330
1E
100
AcDbEntity
  8
0
100
AcDbLine
 10
91.0
 20
8.500000000000008
 30
0.0
 11
91.0
 21
11.6354
 31
0.0
  0
LINE
  5
135
330
1E
100
AcDbEntity
  8
0
100
AcDbLine
 10
91.0
 20
8.500000000000008
 30
0.0
 11
91.0
 21
5.807610000000009
 31
0.0
  0
LINE
  5
136
330
1E
100
AcDbEntity
  8
0
100
AcDbLine
 10
91.0
 20
15.0
 30
0.0
 11
91.0
 21
69.0
 31
0.0
  0
LINE
  5
137
330
1E
100
AcDbEntity
  8
0
100
AcDbLine
 10
91.0
 20
15.0
 30
0.0
 11
91.0
 21
11.6354
 31
0.0
  0
LINE
  5
138
330
1E
100
AcDbEntity
  8
0
100
AcDbLine
 10
91.0
 20
2.00000000000001
 30
0.0
 11
91.0
 21
2.44296000000001
 31
0.0
  0
LINE
  5
139
330
1E
100
AcDbEntity
  8
0
100
AcDbLine
 10
91.0
 20
2.0
 30
0.0
 11
91.0
 21
2.442959999999999
 31
0.0
  0
LINE
  5
13A
330
1E
100
AcDbEntity
  8
0
100
AcDbLine
 10
91.072
 20
1.488
 30
0.0
 11
91.264
 21
1.008
 31
0.0
  0
LINE
  5
13B
330
1E
100
AcDbEntity
  8
0
100
AcDbLine
 10
91.264
 20
1.008
 30
0.0
 11
91.584
 21
0.584000000000001
 31
0.0
  0
LINE
  5
13C
330
1E
100
AcDbEntity
  8
0
100
AcDbLine
 10
92.00799999999999
 20
0.264000000000001
 30
0.0
 11
92.48800000000001
 21
0.0720000000000012
 31
0.0
  0
LINE
  5
13D
330
1E
100
AcDbEntity
  8
0
100
AcDbLine
 10
92.00799999999999
 20
0.264000000000001
 30
0.0
 11
92.48800000000001
 21
0.0720000000000012
 31
0.0
  0
LINE
  5
13E
330
1E
100
AcDbEntity
  8
0
100
AcDbLine
 10
93.512
 20
0.0720000000000012
 30
0.0
 11
93.992
 21
0.264000000000001
 31
0.0
  0
LINE
  5
13F
330
1E
100
AcDbEntity
  8
0
100
AcDbLine
 10
93.0
 20
0.0000000000000012
 30
0.0
 11
93.512
 21
0.0720000000000012
 31
0.0
  0
LINE
  5
140
330
1E
100
AcDbEntity
  8
0
100
AcDbLine
 10
95.0
 20
2.44296000000001
 30
0.0
 11
95.0
 21
2.00000000000001
 31
0.0
  0
LINE
  5
141
330
1E
100
AcDbEntity
  8
0
100
AcDbLine
 10
95.0
 20
2.44296000000001
 30
0.0
 11
95.0
 21
3.741670000000009
 31
0.0
  0
LINE
  5
142
330
1E
100
AcDbEntity
  8
0
100
AcDbLine
 10
95.0
 20
3.741670000000009
 30
0.0
 11
95.0
 21
5.807610000000009
 31
0.0
  0
LINE
  5
143
330
1E
100
AcDbEntity
  8
0
100
AcDbLine
 10
95.0
 20
3.741670000000009
 30
0.0
 11
95.0
 21
2.44296000000001
 31
0.0
  0
LINE
  5
144
330
1E
100
AcDbEntity
  8
0
100
AcDbLine
 10
95.0
 20
5.807610000000009
 30
0.0
 11
95.0
 21
3.741670000000009
 31
0.0
  0
LINE
  5
145
330
1E
100
AcDbEntity
  8
0
100
AcDbLine
 10
95.0
 20
5.807610000000009
 30
0.0
 11
95.0
 21
8.500000000000008
 31
0.0
  0
LINE
  5
146
330
1E
100
AcDbEntity
  8
0
100
AcDbLine
 10
95.0
 20
8.500000000000008
 30
0.0
 11
95.0
 21
11.6354
 31
0.0
  0
LINE
  5
147
330
1E
100
AcDbEntity
  8
0
100
AcDbLine
 10
95.0
 20
8.500000000000008
 30
0.0
 11
95.0
 21
5.807610000000009
 31
0.0
  0
LINE
  5
148
330
1E
100
AcDbEntity
  8
0
100
AcDbLine
 10
95.0
 20
11.6354
 30
0.0
 11
95.0
 21
15.0
 31
0.0
  0
LINE
  5
149
330
1E
100
AcDbEntity
  8
0
100
AcDbLine
 10
95.0
 20
11.6354
 30
0.0
 11
95.0
 21
8.500000000000008
 31
0.0
  0
LINE
  5
14A
330
1E
100
AcDbEntity
  8
0
100
AcDbLine
 10
95.0
 20
15.0
 30
0.0
 11
95.0
 21
69.0
 31
0.0
  0
LINE
  5
14B
330
1E
100
AcDbEntity
  8
0
100
AcDbLine
 10
95.0
 20
15.0
 30
0.0
 11
95.0
 21
11.6354
 31
0.0
  0
LINE
  5
14C
330
1E
100
AcDbEntity
  8
0
100
AcDbLine
 10
95.0
 20
2.00000000000001
 30
0.0
 11
95.0
 21
2.44296000000001
 31
0.0
  0
LINE
  5
14D
330
1E
100
AcDbEntity
  8
0
100
AcDbLine
 10
94.928
 20
1.488
 30
0.0
 11
95.0
 21
2.0
 31
0.0
  0
LINE
  5
14E
330
1E
100
AcDbEntity
  8
0
100
AcDbLine
 10
94.73600000000001
 20
1.008
 30
0.0
 11
94.928
 21
1.488
 31
0.0
  0
LINE
  5
14F
330
1E
100
AcDbEntity
  8
0
100
AcDbLine
 10
94.41599999999999
 20
0.584000000000001
 30
0.0
 11
94.73600000000001
 21
1.008
 31
0.0
  0
LINE
  5
150
330
1E
100
AcDbEntity
  8
0
100
AcDbLine
 10
93.992
 20
0.264000000000001
 30
0.0
 11
94.41599999999999
 21
0.584000000000001
 31
0.0
  0
LINE
  5
151
330
1E
100
AcDbEntity
  8
0
100
AcDbLine
 10
93.512
 20
0.0720000000000012
 30
0.0
 11
93.992
 21
0.264000000000001
 31
0.0
  0
LINE
  5
152
330
1E
100
AcDbEntity
  8
0
100
AcDbLine
 10
93.0
 20
0.0000000000000012
 30
0.0
 11
93.512
 21
0.0720000000000012
 31
0.0
  0
LINE
  5
153
330
1E
100
AcDbEntity
  8
0
100
AcDbLine
 10
92.48800000000001
 20
0.0720000000000012
 30
0.0
 11
93.0
 21
0.0000000000000012
 31
0.0
  0
LINE
  5
154
330
1E
100
AcDbEntity
  8
0
100
AcDbLine
 10
92.48800000000001
 20
0.0720000000000012
 30
0.0
 11
93.0
 21
0.0000000000000012
 31
0.0
  0
LINE
  5
155
330
1E
100
AcDbEntity
  8
0
100
AcDbLine
 10
95.0
 20
52.40727272727269
 30
0.0
 11
98.7
 21
55.3
 31
0.0
  0
LINE
  5
156
330
1E
100
AcDbEntity
  8
0
100
AcDbLine
 10
95.0
 20
51.8070175438597
 30
0.0
 11
99.1
 21
54.9
 31
0.0
  0
LINE
  5
157
330
1E
100
AcDbEntity
  8
0
100
AcDbLine
 10
86.90000000000001
 20
48.0
 30
0.0
 11
91.0
 21
49.64
 31
0.0
  0
LINE
  5
158
330
1E
100
AcDbEntity
  8
0
100
AcDbLine
 10
87.2
 20
61.4
 30
0.0
 11
90.20000000000001
 21
63.79999999999999
 31
0.0
  0
LINE
  5
159
330
1E
100
AcDbEntity
  8
0
100
AcDbLine
 10
83.7
 20
60.0
 30
0.0
 11
87.2
 21
61.4
 31
0.0
  0
LINE
  5
15A
330
1E
100
AcDbEntity
  8
0
100
AcDbLine
 10
88.7
 20
58.79999999999999
 30
0.0
 11
91.0
 21
60.5405405405405
 31
0.0
  0
LINE
  5
15B
330
1E
100
AcDbEntity
  8
0
100
AcDbLine
 10
84.50000000000001
 20
57.1
 30
0.0
 11
88.7
 21
58.79999999999999
 31
0.0
  0
LINE
  5
15C
330
1E
100
AcDbEntity
  8
0
100
AcDbLine
 10
88.9
 20
58.39999999999999
 30
0.0
 11
91.0
 21
60.0026315789474
 31
0.0
  0
LINE
  5
15D
330
1E
100
AcDbEntity
  8
0
100
AcDbLine
 10
90.20000000000001
 20
63.79999999999999
 30
0.0
 11
91.0
 21
64.8
 31
0.0
  0
LINE
  5
15E
330
1E
100
AcDbEntity
  8
0
100
AcDbLine
 10
95.0
 20
64.31379310344829
 30
0.0
 11
95.6
 21
65.09999999999999
 31
0.0
  0
LINE
  5
15F
330
1E
100
AcDbEntity
  8
0
100
AcDbLine
 10
98.7
 20
55.3
 30
0.0
 11
103.0
 21
60.8
 31
0.0
  0
LINE
  5
160
330
1E
100
AcDbEntity
  8
0
100
AcDbLine
 10
119.0
 20
0.0000000000000012
 30
0.0
 11
119.5119999999999
 21
0.0720000000000012
 31
0.0
  0
LINE
  5
161
330
1E
100
AcDbEntity
  8
0
100
AcDbLine
 10
118.008
 20
0.264000000000001
 30
0.0
 11
118.4879999999999
 21
0.0720000000000012
 31
0.0
  0
LINE
  5
162
330
1E
100
AcDbEntity
  8
0
100
AcDbLine
 10
118.008
 20
0.264000000000001
 30
0.0
 11
118.4879999999999
 21
0.0720000000000012
 31
0.0
  0
LINE
  5
163
330
1E
100
AcDbEntity
  8
0
100
AcDbLine
 10
118.4879999999999
 20
0.0720000000000012
 30
0.0
 11
119.0
 21
0.0000000000000012
 31
0.0
  0
LINE
  5
164
330
1E
100
AcDbEntity
  8
0
100
AcDbLine
 10
118.4879999999999
 20
0.0720000000000012
 30
0.0
 11
119.0
 21
0.0000000000000012
 31
0.0
  0
LINE
  5
165
330
1E
100
AcDbEntity
  8
0
100
AcDbLine
 10
119.5119999999999
 20
0.0720000000000012
 30
0.0
 11
119.992
 21
0.264000000000001
 31
0.0
  0
LINE
  5
166
330
1E
100
AcDbEntity
  8
0
100
AcDbLine
 10
119.992
 20
0.264000000000001
 30
0.0
 11
120.4159999999999
 21
0.584000000000001
 31
0.0
  0
LINE
  5
167
330
1E
100
AcDbEntity
  8
0
100
AcDbLine
 10
119.5119999999999
 20
0.0720000000000012
 30
0.0
 11
119.992
 21
0.264000000000001
 31
0.0
  0
LINE
  5
168
330
1E
100
AcDbEntity
  8
0
100
AcDbLine
 10
119.0
 20
0.0000000000000012
 30
0.0
 11
119.5119999999999
 21
0.0720000000000012
 31
0.0
  0
LINE
  5
169
330
1E
100
AcDbEntity
  8
0
100
AcDbLine
 10
117.2639999999999
 20
1.008
 30
0.0
 11
117.5839999999999
 21
0.584000000000001
 31
0.0
  0
LINE
  5
16A
330
1E
100
AcDbEntity
  8
0
100
AcDbLine
 10
117.5839999999999
 20
0.584000000000001
 30
0.0
 11
118.008
 21
0.264000000000001
 31
0.0
  0
LINE
  5
16B
330
1E
100
AcDbEntity
  8
0
100
AcDbLine
 10
120.7359999999999
 20
1.008
 30
0.0
 11
120.9279999999999
 21
1.488
 31
0.0
  0
LINE
  5
16C
330
1E
100
AcDbEntity
  8
0
100
AcDbLine
 10
120.4159999999999
 20
0.584000000000001
 30
0.0
 11
120.7359999999999
 21
1.008
 31
0.0
  0
LINE
  5
16D
330
1E
100
AcDbEntity
  8
0
100
AcDbLine
 10
117.0
 20
2.0
 30
0.0
 11
117.0719999999999
 21
1.488
 31
0.0
  0
LINE
  5
16E
330
1E
100
AcDbEntity
  8
0
100
AcDbLine
 10
117.0
 20
2.0
 30
0.0
 11
117.0
 21
2.442959999999999
 31
0.0
  0
LINE
  5
16F
330
1E
100
AcDbEntity
  8
0
100
AcDbLine
 10
117.0719999999999
 20
1.488
 30
0.0
 11
117.2639999999999
 21
1.008
 31
0.0
  0
LINE
  5
170
330
1E
100
AcDbEntity
  8
0
100
AcDbLine
 10
143.0
 20
2.0
 30
0.0
 11
143.0
 21
2.442959999999999
 31
0.0
  0
LINE
  5
171
330
1E
100
AcDbEntity
  8
0
100
AcDbLine
 10
117.0
 20
3.741669999999999
 30
0.0
 11
117.0
 21
2.442959999999999
 31
0.0
  0
LINE
  5
172
330
1E
100
AcDbEntity
  8
0
100
AcDbLine
 10
117.0
 20
3.741669999999999
 30
0.0
 11
117.0
 21
5.807609999999999
 31
0.0
  0
LINE
  5
173
330
1E
100
AcDbEntity
  8
0
100
AcDbLine
 10
117.0
 20
2.442959999999999
 30
0.0
 11
117.0
 21
3.741669999999999
 31
0.0
  0
LINE
  5
174
330
1E
100
AcDbEntity
  8
0
100
AcDbLine
 10
117.0
 20
2.442959999999999
 30
0.0
 11
117.0
 21
2.0
 31
0.0
  0
LINE
  5
175
330
1E
100
AcDbEntity
  8
0
100
AcDbLine
 10
117.0
 20
8.5
 30
0.0
 11
117.0
 21
11.6354
 31
0.0
  0
LINE
  5
176
330
1E
100
AcDbEntity
  8
0
100
AcDbLine
 10
117.0
 20
8.5
 30
0.0
 11
117.0
 21
5.807609999999999
 31
0.0
  0
LINE
  5
177
330
1E
100
AcDbEntity
  8
0
100
AcDbLine
 10
117.0
 20
5.807609999999999
 30
0.0
 11
117.0
 21
3.741669999999999
 31
0.0
  0
LINE
  5
178
330
1E
100
AcDbEntity
  8
0
100
AcDbLine
 10
117.0
 20
5.807609999999999
 30
0.0
 11
117.0
 21
8.5
 31
0.0
  0
LINE
  5
179
330
1E
100
AcDbEntity
  8
0
100
AcDbLine
 10
117.0
 20
5.807610000000009
 30
0.0
 11
117.0
 21
3.741670000000009
 31
0.0
  0
LINE
  5
17A
330
1E
100
AcDbEntity
  8
0
100
AcDbLine
 10
117.0
 20
5.807610000000009
 30
0.0
 11
117.0
 21
8.500000000000008
 31
0.0
  0
LINE
  5
17B
330
1E
100
AcDbEntity
  8
0
100
AcDbLine
 10
117.0
 20
3.741670000000009
 30
0.0
 11
117.0
 21
2.44296000000001
 31
0.0
  0
LINE
  5
17C
330
1E
100
AcDbEntity
  8
0
100
AcDbLine
 10
117.0
 20
3.741670000000009
 30
0.0
 11
117.0
 21
5.807610000000009
 31
0.0
  0
LINE
  5
17D
330
1E
100
AcDbEntity
  8
0
100
AcDbLine
 10
117.0
 20
2.44296000000001
 30
0.0
 11
117.0
 21
2.00000000000001
 31
0.0
  0
LINE
  5
17E
330
1E
100
AcDbEntity
  8
0
100
AcDbLine
 10
117.0
 20
2.44296000000001
 30
0.0
 11
117.0
 21
3.741670000000009
 31
0.0
  0
LINE
  5
17F
330
1E
100
AcDbEntity
  8
0
100
AcDbLine
 10
117.0
 20
11.6354
 30
0.0
 11
117.0
 21
8.5
 31
0.0
  0
LINE
  5
180
330
1E
100
AcDbEntity
  8
0
100
AcDbLine
 10
117.0
 20
11.6354
 30
0.0
 11
117.0
 21
15.0
 31
0.0
  0
LINE
  5
181
330
1E
100
AcDbEntity
  8
0
100
AcDbLine
 10
117.0
 20
15.0
 30
0.0
 11
117.0
 21
69.0
 31
0.0
  0
LINE
  5
182
330
1E
100
AcDbEntity
  8
0
100
AcDbLine
 10
117.0
 20
15.0
 30
0.0
 11
117.0
 21
11.6354
 31
0.0
  0
LINE
  5
183
330
1E
100
AcDbEntity
  8
0
100
AcDbLine
 10
117.0
 20
8.500000000000008
 30
0.0
 11
117.0
 21
11.6354
 31
0.0
  0
LINE
  5
184
330
1E
100
AcDbEntity
  8
0
100
AcDbLine
 10
117.0
 20
8.500000000000008
 30
0.0
 11
117.0
 21
5.807610000000009
 31
0.0
  0
LINE
  5
185
330
1E
100
AcDbEntity
  8
0
100
AcDbLine
 10
121.0
 20
5.807610000000009
 30
0.0
 11
121.0
 21
3.741670000000009
 31
0.0
  0
LINE
  5
186
330
1E
100
AcDbEntity
  8
0
100
AcDbLine
 10
121.0
 20
5.807610000000009
 30
0.0
 11
121.0
 21
8.500000000000008
 31
0.0
  0
LINE
  5
187
330
1E
100
AcDbEntity
  8
0
100
AcDbLine
 10
121.0
 20
3.741670000000009
 30
0.0
 11
121.0
 21
2.44296000000001
 31
0.0
  0
LINE
  5
188
330
1E
100
AcDbEntity
  8
0
100
AcDbLine
 10
121.0
 20
3.741670000000009
 30
0.0
 11
121.0
 21
5.807610000000009
 31
0.0
  0
LINE
  5
189
330
1E
100
AcDbEntity
  8
0
100
AcDbLine
 10
121.0
 20
2.44296000000001
 30
0.0
 11
121.0
 21
3.741670000000009
 31
0.0
  0
LINE
  5
18A
330
1E
100
AcDbEntity
  8
0
100
AcDbLine
 10
121.0
 20
2.44296000000001
 30
0.0
 11
121.0
 21
2.00000000000001
 31
0.0
  0
LINE
  5
18B
330
1E
100
AcDbEntity
  8
0
100
AcDbLine
 10
121.0
 20
11.6354
 30
0.0
 11
121.0
 21
8.500000000000008
 31
0.0
  0
LINE
  5
18C
330
1E
100
AcDbEntity
  8
0
100
AcDbLine
 10
121.0
 20
11.6354
 30
0.0
 11
121.0
 21
15.0
 31
0.0
  0
LINE
  5
18D
330
1E
100
AcDbEntity
  8
0
100
AcDbLine
 10
121.0
 20
8.500000000000008
 30
0.0
 11
121.0
 21
11.6354
 31
0.0
  0
LINE
  5
18E
330
1E
100
AcDbEntity
  8
0
100
AcDbLine
 10
121.0
 20
8.500000000000008
 30
0.0
 11
121.0
 21
5.807610000000009
 31
0.0
  0
LINE
  5
18F
330
1E
100
AcDbEntity
  8
0
100
AcDbLine
 10
117.0
 20
11.6354
 30
0.0
 11
117.0
 21
15.0
 31
0.0
  0
LINE
  5
190
330
1E
100
AcDbEntity
  8
0
100
AcDbLine
 10
117.0
 20
11.6354
 30
0.0
 11
117.0
 21
8.500000000000008
 31
0.0
  0
LINE
  5
191
330
1E
100
AcDbEntity
  8
0
100
AcDbLine
 10
117.0
 20
15.0
 30
0.0
 11
117.0
 21
69.0
 31
0.0
  0
LINE
  5
192
330
1E
100
AcDbEntity
  8
0
100
AcDbLine
 10
117.0
 20
15.0
 30
0.0
 11
117.0
 21
11.6354
 31
0.0
  0
LINE
  5
193
330
1E
100
AcDbEntity
  8
0
100
AcDbLine
 10
121.0
 20
15.0
 30
0.0
 11
121.0
 21
69.0
 31
0.0
  0
LINE
  5
194
330
1E
100
AcDbEntity
  8
0
100
AcDbLine
 10
121.0
 20
15.0
 30
0.0
 11
121.0
 21
11.6354
 31
0.0
  0
LINE
  5
195
330
1E
100
AcDbEntity
  8
0
100
AcDbLine
 10
117.0
 20
2.00000000000001
 30
0.0
 11
117.0
 21
2.44296000000001
 31
0.0
  0
LINE
  5
196
330
1E
100
AcDbEntity
  8
0
100
AcDbLine
 10
143.0
 20
3.741669999999999
 30
0.0
 11
143.0
 21
5.807609999999999
 31
0.0
  0
LINE
  5
197
330
1E
100
AcDbEntity
  8
0
100
AcDbLine
 10
143.0
 20
3.741669999999999
 30
0.0
 11
143.0
 21
2.442959999999999
 31
0.0
  0
LINE
  5
198
330
1E
100
AcDbEntity
  8
0
100
AcDbLine
 10
143.0
 20
5.807609999999999
 30
0.0
 11
143.0
 21
3.741669999999999
 31
0.0
  0
LINE
  5
199
330
1E
100
AcDbEntity
  8
0
100
AcDbLine
 10
143.0
 20
5.807609999999999
 30
0.0
 11
143.0
 21
8.5
 31
0.0
  0
LINE
  5
19A
330
1E
100
AcDbEntity
  8
0
100
AcDbLine
 10
143.0
 20
3.741669999999999
 30
0.0
 11
143.0
 21
2.442959999999999
 31
0.0
  0
LINE
  5
19B
330
1E
100
AcDbEntity
  8
0
100
AcDbLine
 10
143.0
 20
3.741669999999999
 30
0.0
 11
143.0
 21
5.807609999999999
 31
0.0
  0
LINE
  5
19C
330
1E
100
AcDbEntity
  8
0
100
AcDbLine
 10
143.0
 20
2.442959999999999
 30
0.0
 11
143.0
 21
2.0
 31
0.0
  0
LINE
  5
19D
330
1E
100
AcDbEntity
  8
0
100
AcDbLine
 10
143.0
 20
2.442959999999999
 30
0.0
 11
143.0
 21
3.741669999999999
 31
0.0
  0
LINE
  5
19E
330
1E
100
AcDbEntity
  8
0
100
AcDbLine
 10
143.0
 20
11.6354
 30
0.0
 11
143.0
 21
8.5
 31
0.0
  0
LINE
  5
19F
330
1E
100
AcDbEntity
  8
0
100
AcDbLine
 10
143.0
 20
11.6354
 30
0.0
 11
143.0
 21
15.0
 31
0.0
  0
LINE
  5
1A0
330
1E
100
AcDbEntity
  8
0
100
AcDbLine
 10
143.0
 20
8.5
 30
0.0
 11
143.0
 21
5.807609999999999
 31
0.0
  0
LINE
  5
1A1
330
1E
100
AcDbEntity
  8
0
100
AcDbLine
 10
143.0
 20
8.5
 30
0.0
 11
143.0
 21
11.6354
 31
0.0
  0
LINE
  5
1A2
330
1E
100
AcDbEntity
  8
0
100
AcDbLine
 10
143.0
 20
15.0
 30
0.0
 11
143.0
 21
69.0
 31
0.0
  0
LINE
  5
1A3
330
1E
100
AcDbEntity
  8
0
100
AcDbLine
 10
143.0
 20
15.0
 30
0.0
 11
143.0
 21
11.6354
 31
0.0
  0
LINE
  5
1A4
330
1E
100
AcDbEntity
  8
0
100
AcDbLine
 10
143.0
 20
11.6354
 30
0.0
 11
143.0
 21
15.0
 31
0.0
  0
LINE
  5
1A5
330
1E
100
AcDbEntity
  8
0
100
AcDbLine
 10
143.0
 20
11.6354
 30
0.0
 11
143.0
 21
8.500000000000008
 31
0.0
  0
LINE
  5
1A6
330
1E
100
AcDbEntity
  8
0
100
AcDbLine
 10
143.0
 20
5.807609999999999
 30
0.0
 11
143.0
 21
8.500000000000008
 31
0.0
  0
LINE
  5
1A7
330
1E
100
AcDbEntity
  8
0
100
AcDbLine
 10
143.0
 20
5.807609999999999
 30
0.0
 11
143.0
 21
3.741669999999999
 31
0.0
  0
LINE
  5
1A8
330
1E
100
AcDbEntity
  8
0
100
AcDbLine
 10
143.0
 20
8.500000000000008
 30
0.0
 11
143.0
 21
5.807609999999999
 31
0.0
  0
LINE
  5
1A9
330
1E
100
AcDbEntity
  8
0
100
AcDbLine
 10
143.0
 20
8.500000000000008
 30
0.0
 11
143.0
 21
11.6354
 31
0.0
  0
LINE
  5
1AA
330
1E
100
AcDbEntity
  8
0
100
AcDbLine
 10
143.0
 20
15.0
 30
0.0
 11
143.0
 21
69.0
 31
0.0
  0
LINE
  5
1AB
330
1E
100
AcDbEntity
  8
0
100
AcDbLine
 10
143.0
 20
15.0
 30
0.0
 11
143.0
 21
11.6354
 31
0.0
  0
LINE
  5
1AC
330
1E
100
AcDbEntity
  8
0
100
AcDbLine
 10
121.0
 20
2.00000000000001
 30
0.0
 11
121.0
 21
2.44296000000001
 31
0.0
  0
LINE
  5
1AD
330
1E
100
AcDbEntity
  8
0
100
AcDbLine
 10
143.0
 20
2.442959999999999
 30
0.0
 11
143.0
 21
2.0
 31
0.0
  0
LINE
  5
1AE
330
1E
100
AcDbEntity
  8
0
100
AcDbLine
 10
143.0
 20
2.442959999999999
 30
0.0
 11
143.0
 21
3.741669999999999
 31
0.0
  0
LINE
  5
1AF
330
1E
100
AcDbEntity
  8
0
100
AcDbLine
 10
143.0
 20
2.0
 30
0.0
 11
143.0719999999999
 21
1.488
 31
0.0
  0
LINE
  5
1B0
330
1E
100
AcDbEntity
  8
0
100
AcDbLine
 10
143.0
 20
2.0
 30
0.0
 11
143.0
 21
2.442959999999999
 31
0.0
  0
LINE
  5
1B1
330
1E
100
AcDbEntity
  8
0
100
AcDbLine
 10
143.0719999999999
 20
1.488
 30
0.0
 11
143.264
 21
1.008
 31
0.0
  0
LINE
  5
1B2
330
1E
100
AcDbEntity
  8
0
100
AcDbLine
 10
143.264
 20
1.008
 30
0.0
 11
143.5839999999999
 21
0.5840000000000022
 31
0.0
  0
LINE
  5
1B3
330
1E
100
AcDbEntity
  8
0
100
AcDbLine
 10
143.5839999999999
 20
0.5840000000000022
 30
0.0
 11
144.0079999999999
 21
0.264000000000002
 31
0.0
  0
LINE
  5
1B4
330
1E
100
AcDbEntity
  8
0
100
AcDbLine
 10
144.0079999999999
 20
0.264000000000002
 30
0.0
 11
144.4879999999999
 21
0.0720000000000023
 31
0.0
  0
LINE
  5
1B5
330
1E
100
AcDbEntity
  8
0
100
AcDbLine
 10
145.0
 20
0.0000000000000023
 30
0.0
 11
145.5119999999999
 21
0.0720000000000023
 31
0.0
  0
LINE
  5
1B6
330
1E
100
AcDbEntity
  8
0
100
AcDbLine
 10
147.0
 20
3.741669999999999
 30
0.0
 11
147.0
 21
2.442959999999999
 31
0.0
  0
LINE
  5
1B7
330
1E
100
AcDbEntity
  8
0
100
AcDbLine
 10
147.0
 20
3.741669999999999
 30
0.0
 11
147.0
 21
5.807609999999999
 31
0.0
  0
LINE
  5
1B8
330
1E
100
AcDbEntity
  8
0
100
AcDbLine
 10
147.0
 20
2.442959999999999
 30
0.0
 11
147.0
 21
3.741669999999999
 31
0.0
  0
LINE
  5
1B9
330
1E
100
AcDbEntity
  8
0
100
AcDbLine
 10
147.0
 20
2.442959999999999
 30
0.0
 11
147.0
 21
2.0
 31
0.0
  0
LINE
  5
1BA
330
1E
100
AcDbEntity
  8
0
100
AcDbLine
 10
147.0
 20
11.6354
 30
0.0
 11
147.0
 21
8.500000000000008
 31
0.0
  0
LINE
  5
1BB
330
1E
100
AcDbEntity
  8
0
100
AcDbLine
 10
147.0
 20
11.6354
 30
0.0
 11
147.0
 21
15.0
 31
0.0
  0
LINE
  5
1BC
330
1E
100
AcDbEntity
  8
0
100
AcDbLine
 10
147.0
 20
8.500000000000008
 30
0.0
 11
147.0
 21
5.807609999999999
 31
0.0
  0
LINE
  5
1BD
330
1E
100
AcDbEntity
  8
0
100
AcDbLine
 10
147.0
 20
8.500000000000008
 30
0.0
 11
147.0
 21
11.6354
 31
0.0
  0
LINE
  5
1BE
330
1E
100
AcDbEntity
  8
0
100
AcDbLine
 10
147.0
 20
5.807609999999999
 30
0.0
 11
147.0
 21
8.500000000000008
 31
0.0
  0
LINE
  5
1BF
330
1E
100
AcDbEntity
  8
0
100
AcDbLine
 10
147.0
 20
5.807609999999999
 30
0.0
 11
147.0
 21
3.741669999999999
 31
0.0
  0
LINE
  5
1C0
330
1E
100
AcDbEntity
  8
0
100
AcDbLine
 10
147.0
 20
15.0
 30
0.0
 11
147.0
 21
69.0
 31
0.0
  0
LINE
  5
1C1
330
1E
100
AcDbEntity
  8
0
100
AcDbLine
 10
147.0
 20
15.0
 30
0.0
 11
147.0
 21
11.6354
 31
0.0
  0
LINE
  5
1C2
330
1E
100
AcDbEntity
  8
0
100
AcDbLine
 10
147.0
 20
2.0
 30
0.0
 11
147.0
 21
2.442959999999999
 31
0.0
  0
LINE
  5
1C3
330
1E
100
AcDbEntity
  8
0
100
AcDbLine
 10
146.9279999999999
 20
1.488
 30
0.0
 11
147.0
 21
2.0
 31
0.0
  0
LINE
  5
1C4
330
1E
100
AcDbEntity
  8
0
100
AcDbLine
 10
146.736
 20
1.008
 30
0.0
 11
146.9279999999999
 21
1.488
 31
0.0
  0
LINE
  5
1C5
330
1E
100
AcDbEntity
  8
0
100
AcDbLine
 10
145.5119999999999
 20
0.0720000000000023
 30
0.0
 11
145.992
 21
0.264000000000002
 31
0.0
  0
LINE
  5
1C6
330
1E
100
AcDbEntity
  8
0
100
AcDbLine
 10
145.0
 20
0.0000000000000023
 30
0.0
 11
145.5119999999999
 21
0.0720000000000023
 31
0.0
  0
LINE
  5
1C7
330
1E
100
AcDbEntity
  8
0
100
AcDbLine
 10
144.4879999999999
 20
0.0720000000000023
 30
0.0
 11
145.0
 21
0.0000000000000023
 31
0.0
  0
LINE
  5
1C8
330
1E
100
AcDbEntity
  8
0
100
AcDbLine
 10
144.4879999999999
 20
0.0720000000000023
 30
0.0
 11
145.0
 21
0.0000000000000023
 31
0.0
  0
LINE
  5
1C9
330
1E
100
AcDbEntity
  8
0
100
AcDbLine
 10
103.0
 20
60.8
 30
0.0
 11
105.4999999999999
 21
67.2
 31
0.0
  0
LINE
  5
1CA
330
1E
100
AcDbEntity
  8
0
100
AcDbLine
 10
99.1
 20
54.9
 30
0.0
 11
103.4
 21
60.6
 31
0.0
  0
LINE
  5
1CB
330
1E
100
AcDbEntity
  8
0
100
AcDbLine
 10
82.59999999999999
 20
64.40000000000001
 30
0.0
 11
85.0
 21
65.3
 31
0.0
  0
LINE
  5
1CC
330
1E
100
AcDbEntity
  8
0
100
AcDbLine
 10
80.0
 20
64.0
 30
0.0
 11
82.59999999999999
 21
64.40000000000001
 31
0.0
  0
LINE
  5
1CD
330
1E
100
AcDbEntity
  8
0
100
AcDbLine
 10
72.8
 20
86.6
 30
0.0
 11
76.29999999999999
 21
88.0
 31
0.0
  0
LINE
  5
1CE
330
1E
100
AcDbEntity
  8
0
100
AcDbLine
 10
72.5
 20
87.0
 30
0.0
 11
76.09999999999999
 21
88.49999999999999
 31
0.0
  0
LINE
  5
1CF
330
1E
100
AcDbEntity
  8
0
100
AcDbLine
 10
73.2
 20
99.50000000000001
 30
0.0
 11
80.0
 21
100.5
 31
0.0
  0
LINE
  5
1D0
330
1E
100
AcDbEntity
  8
0
100
AcDbLine
 10
73.09999999999999
 20
100.0
 30
0.0
 11
80.0
 21
101.0
 31
0.0
  0
LINE
  5
1D1
330
1E
100
AcDbEntity
  8
0
100
AcDbLine
 10
72.9
 20
81.09999999999999
 30
0.0
 11
75.0
 21
82.70000000000001
 31
0.0
  0
LINE
  5
1D2
330
1E
100
AcDbEntity
  8
0
100
AcDbLine
 10
75.0
 20
82.70000000000001
 30
0.0
 11
77.40000000000001
 21
83.59999999999999
 31
0.0
  0
LINE
  5
1D3
330
1E
100
AcDbEntity
  8
0
100
AcDbLine
 10
72.9
 20
66.90000000000001
 30
0.0
 11
75.0
 21
65.3
 31
0.0
  0
LINE
  5
1D4
330
1E
100
AcDbEntity
  8
0
100
AcDbLine
 10
95.0
 20
65.03571428571429
 30
0.0
 11
95.20000000000001
 21
65.3
 31
0.0
  0
LINE
  5
1D5
330
1E
100
AcDbEntity
  8
0
100
AcDbLine
 10
95.20000000000001
 20
65.3
 30
0.0
 11
96.6976190476191
 21
69.0
 31
0.0
  0
LINE
  5
1D6
330
1E
100
AcDbEntity
  8
0
100
AcDbLine
 10
85.0
 20
82.70000000000001
 30
0.0
 11
87.09999999999999
 21
81.09999999999999
 31
0.0
  0
LINE
  5
1D7
330
1E
100
AcDbEntity
  8
0
100
AcDbLine
 10
82.59999999999999
 20
83.59999999999999
 30
0.0
 11
85.0
 21
82.70000000000001
 31
0.0
  0
LINE
  5
1D8
330
1E
100
AcDbEntity
  8
0
100
AcDbLine
 10
87.09999999999999
 20
81.09999999999999
 30
0.0
 11
88.7
 21
79.0
 31
0.0
  0
LINE
  5
1D9
330
1E
100
AcDbEntity
  8
0
100
AcDbLine
 10
80.0
 20
88.49999999999999
 30
0.0
 11
83.7
 21
88.0
 31
0.0
  0
LINE
  5
1DA
330
1E
100
AcDbEntity
  8
0
100
AcDbLine
 10
76.29999999999999
 20
88.0
 30
0.0
 11
80.0
 21
88.49999999999999
 31
0.0
  0
LINE
  5
1DB
330
1E
100
AcDbEntity
  8
0
100
AcDbLine
 10
76.09999999999999
 20
88.49999999999999
 30
0.0
 11
80.0
 21
89.0
 31
0.0
  0
LINE
  5
1DC
330
1E
100
AcDbEntity
  8
0
100
AcDbLine
 10
75.5
 20
90.90000000000001
 30
0.0
 11
80.0
 21
91.5
 31
0.0
  0
LINE
  5
1DD
330
1E
100
AcDbEntity
  8
0
100
AcDbLine
 10
80.0
 20
91.5
 30
0.0
 11
84.50000000000001
 21
90.90000000000001
 31
0.0
  0
LINE
  5
1DE
330
1E
100
AcDbEntity
  8
0
100
AcDbLine
 10
80.0
 20
100.5
 30
0.0
 11
86.79999999999999
 21
99.50000000000001
 31
0.0
  0
LINE
  5
1DF
330
1E
100
AcDbEntity
  8
0
100
AcDbLine
 10
80.0
 20
92.0
 30
0.0
 11
84.59999999999999
 21
91.3
 31
0.0
  0
LINE
  5
1E0
330
1E
100
AcDbEntity
  8
0
100
AcDbLine
 10
83.7
 20
88.0
 30
0.0
 11
87.2
 21
86.6
 31
0.0
  0
LINE
  5
1E1
330
1E
100
AcDbEntity
  8
0
100
AcDbLine
 10
84.50000000000001
 20
90.90000000000001
 30
0.0
 11
88.7
 21
89.19999999999999
 31
0.0
  0
LINE
  5
1E2
330
1E
100
AcDbEntity
  8
0
100
AcDbLine
 10
86.79999999999999
 20
99.50000000000001
 30
0.0
 11
93.2
 21
97.0
 31
0.0
  0
LINE
  5
1E3
330
1E
100
AcDbEntity
  8
0
100
AcDbLine
 10
80.0
 20
84.0
 30
0.0
 11
82.59999999999999
 21
83.59999999999999
 31
0.0
  0
LINE
  5
1E4
330
1E
100
AcDbEntity
  8
0
100
AcDbLine
 10
77.40000000000001
 20
83.59999999999999
 30
0.0
 11
80.0
 21
84.0
 31
0.0
  0
LINE
  5
1E5
330
1E
100
AcDbEntity
  8
0
100
AcDbLine
 10
87.2
 20
86.6
 30
0.0
 11
90.20000000000001
 21
84.19999999999999
 31
0.0
  0
LINE
  5
1E6
330
1E
100
AcDbEntity
  8
0
100
AcDbLine
 10
90.20000000000001
 20
84.19999999999999
 30
0.0
 11
92.59999999999999
 21
81.2
 31
0.0
  0
LINE
  5
1E7
330
1E
100
AcDbEntity
  8
0
100
AcDbLine
 10
91.0
 20
69.0
 30
0.0
 11
91.0
 21
15.0
 31
0.0
  0
LINE
  5
1E8
330
1E
100
AcDbEntity
  8
0
100
AcDbLine
 10
92.59999999999999
 20
81.2
 30
0.0
 11
93.48
 21
79.0
 31
0.0
  0
LINE
  5
1E9
330
1E
100
AcDbEntity
  8
0
100
AcDbLine
 10
93.0
 20
81.5
 30
0.0
 11
94.0416666666667
 21
79.0
 31
0.0
  0
LINE
  5
1EA
330
1E
100
AcDbEntity
  8
0
100
AcDbLine
 10
90.6
 20
84.59999999999999
 30
0.0
 11
93.0
 21
81.5
 31
0.0
  0
LINE
  5
1EB
330
1E
100
AcDbEntity
  8
0
100
AcDbLine
 10
92.4
 20
86.4
 30
0.0
 11
95.20000000000001
 21
82.70000000000001
 31
0.0
  0
LINE
  5
1EC
330
1E
100
AcDbEntity
  8
0
100
AcDbLine
 10
88.7
 20
89.19999999999999
 30
0.0
 11
92.4
 21
86.4
 31
0.0
  0
LINE
  5
1ED
330
1E
100
AcDbEntity
  8
0
100
AcDbLine
 10
88.9
 20
89.59999999999999
 30
0.0
 11
92.70000000000001
 21
86.69999999999999
 31
0.0
  0
LINE
  5
1EE
330
1E
100
AcDbEntity
  8
0
100
AcDbLine
 10
95.0
 20
69.0
 30
0.0
 11
107.4999999999999
 21
69.0
 31
0.0
  0
LINE
  5
1EF
330
1E
100
AcDbEntity
  8
0
100
AcDbLine
 10
95.0
 20
69.0
 30
0.0
 11
95.0
 21
15.0
 31
0.0
  0
LINE
  5
1F0
330
1E
100
AcDbEntity
  8
0
100
AcDbLine
 10
117.0
 20
69.0
 30
0.0
 11
117.0
 21
15.0
 31
0.0
  0
LINE
  5
1F1
330
1E
100
AcDbEntity
  8
0
100
AcDbLine
 10
143.0
 20
69.0
 30
0.0
 11
143.0
 21
15.0
 31
0.0
  0
LINE
  5
1F2
330
1E
100
AcDbEntity
  8
0
100
AcDbLine
 10
121.0
 20
69.0
 30
0.0
 11
131.25
 21
69.0
 31
0.0
  0
LINE
  5
1F3
330
1E
100
AcDbEntity
  8
0
100
AcDbLine
 10
131.25
 20
69.0
 30
0.0
 11
141.0879999999999
 21
69.0
 31
0.0
  0
LINE
  5
1F4
330
1E
100
AcDbEntity
  8
0
100
AcDbLine
 10
147.0
 20
69.0
 30
0.0
 11
148.6359999999999
 21
69.0
 31
0.0
  0
LINE
  5
1F5
330
1E
100
AcDbEntity
  8
0
100
AcDbLine
 10
141.0879999999999
 20
69.0
 30
0.0
 11
143.61993220339
 21
69.0
 31
0.0
  0
LINE
  5
1F6
330
1E
100
AcDbEntity
  8
0
100
AcDbLine
 10
141.0879999999999
 20
69.0
 30
0.0
 11
143.0
 21
69.0
 31
0.0
  0
LINE
  5
1F7
330
1E
100
AcDbEntity
  8
0
100
AcDbLine
 10
107.4999999999999
 20
69.0
 30
0.0
 11
117.0
 21
69.0
 31
0.0
  0
LINE
  5
1F8
330
1E
100
AcDbEntity
  8
0
100
AcDbLine
 10
148.6359999999999
 20
69.0
 30
0.0
 11
153.381
 21
69.0
 31
0.0
  0
LINE
  5
1F9
330
1E
100
AcDbEntity
  8
0
100
AcDbLine
 10
155.0
 20
69.0
 30
0.0
 11
156.28
 21
69.18000000000001
 31
0.0
  0
LINE
  5
1FA
330
1E
100
AcDbEntity
  8
0
100
AcDbLine
 10
117.0
 20
69.0
 30
0.0
 11
117.0
 21
15.0
 31
0.0
  0
LINE
  5
1FB
330
1E
100
AcDbEntity
  8
0
100
AcDbLine
 10
121.0
 20
69.0
 30
0.0
 11
121.0
 21
15.0
 31
0.0
  0
LINE
  5
1FC
330
1E
100
AcDbEntity
  8
0
100
AcDbLine
 10
147.0
 20
69.0
 30
0.0
 11
147.0
 21
15.0
 31
0.0
  0
LINE
  5
1FD
330
1E
100
AcDbEntity
  8
0
100
AcDbLine
 10
153.381
 20
69.0
 30
0.0
 11
155.0
 21
69.0
 31
0.0
  0
LINE
  5
1FE
330
1E
100
AcDbEntity
  8
0
100
AcDbLine
 10
156.28
 20
69.18000000000001
 30
0.0
 11
157.4799999999999
 21
69.66
 31
0.0
  0
LINE
  5
1FF
330
1E
100
AcDbEntity
  8
0
100
AcDbLine
 10
157.4799999999999
 20
69.66
 30
0.0
 11
158.5399999999999
 21
70.45999999999999
 31
0.0
  0
LINE
  5
200
330
1E
100
AcDbEntity
  8
0
100
AcDbLine
 10
158.5399999999999
 20
70.45999999999999
 30
0.0
 11
159.34
 21
71.52
 31
0.0
  0
LINE
  5
201
330
1E
100
AcDbEntity
  8
0
100
AcDbLine
 10
159.34
 20
71.52
 30
0.0
 11
159.82
 21
72.72
 31
0.0
  0
LINE
  5
202
330
1E
100
AcDbEntity
  8
0
100
AcDbLine
 10
159.82
 20
72.72
 30
0.0
 11
160.0
 21
74.0
 31
0.0
  0
LINE
  5
203
330
1E
100
AcDbEntity
  8
0
100
AcDbLine
 10
119.794
 20
79.0
 30
0.0
 11
131.25
 21
79.0
 31
0.0
  0
LINE
  5
204
330
1E
100
AcDbEntity
  8
0
100
AcDbLine
 10
141.0879999999999
 20
79.0
 30
0.0
 11
148.6359999999999
 21
79.0
 31
0.0
  0
LINE
  5
205
330
1E
100
AcDbEntity
  8
0
100
AcDbLine
 10
131.25
 20
79.0
 30
0.0
 11
141.0879999999999
 21
79.0
 31
0.0
  0
LINE
  5
206
330
1E
100
AcDbEntity
  8
0
100
AcDbLine
 10
107.4999999999999
 20
79.0
 30
0.0
 11
119.794
 21
79.0
 31
0.0
  0
LINE
  5
207
330
1E
100
AcDbEntity
  8
0
100
AcDbLine
 10
153.381
 20
79.0
 30
0.0
 11
155.0
 21
79.0
 31
0.0
  0
LINE
  5
208
330
1E
100
AcDbEntity
  8
0
100
AcDbLine
 10
148.6359999999999
 20
79.0
 30
0.0
 11
153.381
 21
79.0
 31
0.0
  0
LINE
  5
209
330
1E
100
AcDbEntity
  8
0
100
AcDbLine
 10
155.0
 20
79.0
 30
0.0
 11
156.28
 21
78.81999999999999
 31
0.0
  0
LINE
  5
20A
330
1E
100
AcDbEntity
  8
0
100
AcDbLine
 10
156.28
 20
78.81999999999999
 30
0.0
 11
157.4799999999999
 21
78.34
 31
0.0
  0
LINE
  5
20B
330
1E
100
AcDbEntity
  8
0
100
AcDbLine
 10
157.4799999999999
 20
78.34
 30
0.0
 11
158.5399999999999
 21
77.54000000000001
 31
0.0
  0
LINE
  5
20C
330
1E
100
AcDbEntity
  8
0
100
AcDbLine
 10
158.5399999999999
 20
77.54000000000001
 30
0.0
 11
159.34
 21
76.48
 31
0.0
  0
LINE
  5
20D
330
1E
100
AcDbEntity
  8
0
100
AcDbLine
 10
159.34
 20
76.48
 30
0.0
 11
159.82
 21
75.28
 31
0.0
  0
LINE
  5
20E
330
1E
100
AcDbEntity
  8
0
100
AcDbLine
 10
159.82
 20
75.28
 30
0.0
 11
160.0
 21
74.0
 31
0.0
  0
LINE
  5
20F
330
1E
100
AcDbEntity
  8
0
100
AcDbLine
 10
105.4999999999999
 20
80.8
 30
0.0
 11
105.764705882353
 21
79.0
 31
0.0
  0
LINE
  5
210
330
1E
100
AcDbEntity
  8
0
100
AcDbLine
 10
95.20000000000001
 20
82.70000000000001
 30
0.0
 11
96.6976190476191
 21
79.0
 31
0.0
  0
LINE
  5
211
330
1E
100
AcDbEntity
  8
0
100
AcDbLine
 10
95.6
 20
82.9
 30
0.0
 11
97.14186046511629
 21
79.0
 31
0.0
  0
LINE
  5
212
330
1E
100
AcDbEntity
  8
0
100
AcDbLine
 10
98.7
 20
92.70000000000001
 30
0.0
 11
103.0
 21
87.2
 31
0.0
  0
LINE
  5
213
330
1E
100
AcDbEntity
  8
0
100
AcDbLine
 10
103.0
 20
87.2
 30
0.0
 11
105.4999999999999
 21
80.8
 31
0.0
  0
LINE
  5
214
330
1E
100
AcDbEntity
  8
0
100
AcDbLine
 10
103.4
 20
87.4
 30
0.0
 11
106.0
 21
80.90000000000001
 31
0.0
  0
LINE
  5
215
330
1E
100
AcDbEntity
  8
0
100
AcDbLine
 10
106.0
 20
80.90000000000001
 30
0.0
 11
106.275362318841
 21
79.0
 31
0.0
  0
LINE
  5
216
330
1E
100
AcDbEntity
  8
0
100
AcDbLine
 10
93.2
 20
97.0
 30
0.0
 11
98.7
 21
92.70000000000001
 31
0.0
  0
LINE
  5
217
330
1E
100
AcDbEntity
  8
0
100
AcDbLine
 10
105.4999999999999
 20
67.2
 30
0.0
 11
105.764705882353
 21
69.0
 31
0.0
  0
LINE
  5
218
330
1E
100
AcDbEntity
  8
0
100
AcDbLine
 10
87.09999999999999
 20
66.90000000000001
 30
0.0
 11
88.7
 21
69.0
 31
0.0
  0
LINE
  5
219
330
1E
100
AcDbEntity
  8
0
100
AcDbLine
 10
85.0
 20
65.3
 30
0.0
 11
87.09999999999999
 21
66.90000000000001
 31
0.0
  0
LINE
  5
21A
330
1E
100
AcDbEntity
  8
0
100
AcDbLine
 10
75.0
 20
65.3
 30
0.0
 11
77.40000000000001
 21
64.40000000000001
 31
0.0
  0
LINE
  5
21B
330
1E
100
AcDbEntity
  8
0
100
AcDbLine
 10
77.40000000000001
 20
64.40000000000001
 30
0.0
 11
80.0
 21
64.0
 31
0.0
  0
LINE
  5
21C
330
1E
100
AcDbEntity
  8
0
100
AcDbLine
 10
71.29999999999999
 20
69.0
 30
0.0
 11
72.9
 21
66.90000000000001
 31
0.0
  0
LINE
  5
221
330
1E
100
AcDbEntity
  8
0
100
AcDbLine
 10
86.90000000000001
 20
48.0
 30
0.0
 11
80.0
 21
47.0
 31
0.0
  0
LINE
  5
222
330
1E
100
AcDbEntity
  8
0
100
AcDbLine
 10
88.9
 20
58.39999999999999
 30
0.0
 11
84.71779990219516
 21
56.76216081007035
 31
0.0
  0
LINE
  5
223
330
1E
100
AcDbEntity
  8
0
100
AcDbLine
 10
84.71779990219516
 20
56.76216081007035
 30
0.0
 11
80.0
 21
56.0
 31
0.0
  0
LINE
  5
224
330
1E
100
AcDbEntity
  8
0
100
AcDbLine
 10
103.4
 20
60.6
 30
0.0
 11
105.9030870617113
 21
67.07289957530602
 31
0.0
  0
LINE
  5
225
330
1E
100
AcDbEntity
  8
0
100
AcDbLine
 10
105.9030870617113
 20
67.07289957530602
 30
0.0
 11
106.2360294069995
 21
68.95831843862331
 31
0.0
  0
LINE
  5
226
330
1E
100
AcDbEntity
  8
0
100
AcDbLine
 10
97.19110841456092
 20
68.95831843862331
 30
0.0
 11
95.6
 21
65.09999999999999
 31
0.0
  0
LINE
  5
227
330
1E
100
AcDbEntity
  8
0
100
AcDbLine
 10
90.94844891977102
 20
64.13386419079714
 30
0.0
 11
90.42129090401358
 21
63.44069553286519
 31
0.0
  0
LINE
  5
228
330
1E
100
AcDbEntity
  8
0
100
AcDbLine
 10
90.42129090401358
 20
63.44069553286519
 30
0.0
 11
87.53579468180323
 21
61.13937538000342
 31
0.0
  0
LINE
  5
229
330
1E
100
AcDbEntity
  8
0
100
AcDbLine
 10
87.53579468180323
 20
61.13937538000342
 30
0.0
 11
83.9
 21
59.5
 31
0.0
  0
LINE
  5
22A
330
1E
100
AcDbEntity
  8
0
100
AcDbLine
 10
75.4
 20
56.7
 30
0.0
 11
71.17941074036031
 21
58.41521257343922
 31
0.0
  0
LINE
  5
22B
330
1E
100
AcDbEntity
  8
0
100
AcDbLine
 10
71.17941074036031
 20
58.41521257343922
 30
0.0
 11
69.0171766906463
 21
59.99316476230998
 31
0.0
  0
LINE
  5
22C
330
1E
100
AcDbEntity
  8
0
100
AcDbLine
 10
64.95556962961035
 20
64.59300060810071
 30
0.0
 11
64.40000000000001
 21
65.09999999999999
 31
0.0
  0
LINE
  5
22D
330
1E
100
AcDbEntity
  8
0
100
AcDbLine
 10
80.0
 20
101.0
 30
0.0
 11
86.98014686861979
 21
99.99643573847757
 31
0.0
  0
LINE
  5
22E
330
1E
100
AcDbEntity
  8
0
100
AcDbLine
 10
86.98014686861979
 20
99.99643573847757
 30
0.0
 11
93.39532192320275
 21
97.60114733929137
 31
0.0
  0
LINE
  5
22F
330
1E
100
AcDbEntity
  8
0
100
AcDbLine
 10
93.39532192320275
 20
97.60114733929137
 30
0.0
 11
99.03503625690218
 21
93.12759394279154
 31
0.0
  0
LINE
  5
230
330
1E
100
AcDbEntity
  8
0
100
AcDbLine
 10
99.03503625690218
 20
93.12759394279154
 30
0.0
 11
103.4
 21
87.4
 31
0.0
  0
LINE
  5
231
330
1E
100
AcDbEntity
  8
0
100
AcDbLine
 10
88.9
 20
89.59999999999999
 30
0.0
 11
84.59999999999999
 21
91.3
 31
0.0
  0
LINE
  5
232
330
1E
100
AcDbEntity
  8
0
100
AcDbLine
 10
92.70000000000001
 20
86.69999999999999
 30
0.0
 11
95.6
 21
82.9
 31
0.0
  0
LINE
  5
233
330
1E
100
AcDbEntity
  8
0
100
AcDbLine
 10
90.6
 20
84.59999999999999
 30
0.0
 11
87.57936627035808
 21
87.03369847753519
 31
0.0
  0
LINE
  5
234
330
1E
100
AcDbEntity
  8
0
100
AcDbLine
 10
87.57936627035808
 20
87.03369847753519
 30
0.0
 11
83.77255958754545
 21
88.61881572386151
 31
0.0
  0
LINE
  5
235
330
1E
100
AcDbEntity
  8
0
100
AcDbLine
 10
83.77255958754545
 20
88.61881572386151
 30
0.0
 11
80.0
 21
89.0
 31
0.0
  0
LINE
  5
236
330
1E
100
AcDbEntity
  8
0
100
AcDbLine
 10
80.0
 20
92.0
 30
0.0
 11
75.4
 21
91.3
 31
0.0
  0
LINE
  5
237
330
1E
100
AcDbEntity
  8
0
100
AcDbLine
 10
71.09999999999999
 20
89.59999999999999
 30
0.0
 11
67.3
 21
86.69999999999999
 31
0.0
  0
LINE
  5
238
330
1E
100
AcDbEntity
  8
0
100
AcDbLine
 10
64.40000000000001
 20
82.9
 30
0.0
 11
62.75561165091159
 21
78.99121567354356
 31
0.0
  0
ENDSEC
  0
SECTION
  2
OBJECTS
  0
DICTIONARY
  5
C
330
0
100
AcDbDictionary
281
     1
  3
ACAD_GROUP
350
D
  3
ACAD_LAYOUT
350
19
  3
ACAD_MLINESTYLE
350
16
  3
ACAD_PLOTSETTINGS
350
18
  3
ACAD_PLOTSTYLENAME
350
E
  3
AcDbVariableDictionary
350
239
  0
DICTIONARY
  5
D
102
{ACAD_REACTORS
330
C
102
}
330
C
100
AcDbDictionary
281
     1
  0
DICTIONARY
  5
19
102
{ACAD_REACTORS
330
C
102
}
330
C
100
AcDbDictionary
281
     1
  3
Layout1
350
1D
  3
Model
350
21
  0
DICTIONARY
  5
16
102
{ACAD_REACTORS
330
C
102
}
330
C
100
AcDbDictionary
281
     1
  3
Standard
350
17
  0
DICTIONARY
  5
18
102
{ACAD_REACTORS
330
C
102
}
330
C
100
AcDbDictionary
281
     1
  0
ACDBDICTIONARYWDFLT
  5
E
102
{ACAD_REACTORS
330
C
102
}
330
C
100
AcDbDictionary
281
     1
  3
Normal
350
F
100
AcDbDictionaryWithDefault
340
F
  0
DICTIONARY
  5
239
102
{ACAD_REACTORS
330
C
102
}
330
C
100
AcDbDictionary
281
     1
  3
DIMASSOC
350
23A
  0
LAYOUT
  5
1D
102
{ACAD_REACTORS
330
19
102
}
330
19
100
AcDbPlotSettings
  1

  2
hp deskjet 980c series
  4

  6

 40
0.0
 41
0.0
 42
0.0
 43
0.0
 44
0.0
 45
0.0
 46
0.0
 47
0.0
 48
0.0
 49
0.0
140
0.0
141
0.0
142
1.0
143
1.0
 70
   688
 72
     0
 73
     0
 74
     5
  7

 75
    16
147
1.0
148
0.0
149
0.0
100
AcDbLayout
  1
Layout1
 70
     1
 71
     1
 10
0.0
 20
0.0
 11
12.0
 21
9.0
 12
0.0
 22
0.0
 32
0.0
 14
1.000000000000000E+20
 24
1.000000000000000E+20
 34
1.000000000000000E+20
 15
-1.000000000000000E+20
 25
-1.000000000000000E+20
 35
-1.000000000000000E+20
146
0.0
 13
0.0
 23
0.0
 33
0.0
 16
1.0
 26
0.0
 36
0.0
 17
0.0
 27
1.0
 37
0.0
 76
     0
330
1A
  0
LAYOUT
  5
21
102
{ACAD_REACTORS
330
19
102
}
330
19
100
AcDbPlotSettings
  1

  2
hp deskjet 980c series
  4

  6

 40
0.0
 41
0.0
 42
0.0
 43
0.0
 44
0.0
 45
0.0
 46
0.0
 47
0.0
 48
0.0
 49
0.0
140
0.0
141
0.0
142
1.0
143
1.0
 70
  1712
 72
     0
 73
     0
 74
     0
  7

 75
     0
147
1.0
148
0.0
149
0.0
100
AcDbLayout
  1
Model
 70
     1
 71
     0
 10
0.0
 20
0.0
 11
12.0
 21
9.0
 12
0.0
 22
0.0
 32
0.0
 14
0.0
 24
0.0
 34
0.0
 15
0.0
 25
0.0
 35
0.0
146
0.0
 13
0.0
 23
0.0
 33
0.0
 16
1.0
 26
0.0
 36
0.0
 17
0.0
 27
1.0
 37
0.0
 76
     0
330
1E
  0
MLINESTYLE
  5
17
102
{ACAD_REACTORS
330
16
102
}
330
16
100
AcDbMlineStyle
  2
STANDARD
 70
     0
  3

 62
   256
 51
90.0
 52
90.0
 71
     2
 49
0.5
 62
   256
  6
BYLAYER
 49
-0.5
 62
   256
  6
BYLAYER
  0
ACDBPLACEHOLDER
  5
F
102
{ACAD_REACTORS
330
E
102
}
330
E
  0
DICTIONARYVAR
  5
23A
102
{ACAD_REACTORS
330
239
102
}
330
239
100
DictionaryVariables
280
     0
  1
1
  0
ENDSEC
  0
EOF
