  0
SECTION
  2
HEADER
  9
$ACADVER
  1
AC1015
  9
$ACADMAINTVER
 70
    13
  9
$DWGCODEPAGE
  3
ANSI_1252
  9
$INSBASE
 10
0.0
 20
0.0
 30
0.0
  9
$EXTMIN
 10
-0.0000000000000024
 20
-0.0000000000000078
 30
0.0
  9
$EXTMAX
 10
175.9906049286956
 20
176.0
 30
0.0
  9
$LIMMIN
 10
0.0
 20
0.0
  9
$LIMMAX
 10
12.0
 20
9.0
  9
$ORTHOMODE
 70
     0
  9
$REGENMODE
 70
     1
  9
$FILLMODE
 70
     1
  9
$QTEXTMODE
 70
     0
  9
$MIRRTEXT
 70
     1
  9
$LTSCALE
 40
1.0
  9
$ATTMODE
 70
     1
  9
$TEXTSIZE
 40
0.2
  9
$TRACEWID
 40
0.05
  9
$TEXTSTYLE
  7
Standard
  9
$CLAYER
  8
0
  9
$CELTYPE
  6
Continuous
  9
$CECOLOR
 62
   256
  9
$CELTSCALE
 40
1.0
  9
$DISPSILH
 70
     0
  9
$DIMSCALE
 40
1.0
  9
$DIMASZ
 40
0.18
  9
$DIMEXO
 40
0.0625
  9
$DIMDLI
 40
0.38
  9
$DIMRND
 40
0.0
  9
$DIMDLE
 40
0.0
  9
$DIMEXE
 40
0.18
  9
$DIMTP
 40
0.0
  9
$DIMTM
 40
0.0
  9
$DIMTXT
 40
0.18
  9
$DIMCEN
 40
0.09
  9
$DIMTSZ
 40
0.0
  9
$DIMTOL
 70
     0
  9
$DIMLIM
 70
     0
  9
$DIMTIH
 70
     1
  9
$DIMTOH
 70
     1
  9
$DIMSE1
 70
     0
  9
$DIMSE2
 70
     0
  9
$DIMTAD
 70
     0
  9
$DIMZIN
 70
     0
  9
$DIMBLK
  1

  9
$DIMASO
 70
     1
  9
$DIMSHO
 70
     1
  9
$DIMPOST
  1

  9
$DIMAPOST
  1

  9
$DIMALT
 70
     0
  9
$DIMALTD
 70
     2
  9
$DIMALTF
 40
25.4
  9
$DIMLFAC
 40
1.0
  9
$DIMTOFL
 70
     0
  9
$DIMTVP
 40
0.0
  9
$DIMTIX
 70
     0
  9
$DIMSOXD
 70
     0
  9
$DIMSAH
 70
     0
  9
$DIMBLK1
  1

  9
$DIMBLK2
  1

  9
$DIMSTYLE
  2
Standard
  9
$DIMCLRD
 70
     0
  9
$DIMCLRE
 70
     0
  9
$DIMCLRT
 70
     0
  9
$DIMTFAC
 40
1.0
  9
$DIMGAP
 40
0.09
  9
$DIMJUST
 70
     0
  9
$DIMSD1
 70
     0
  9
$DIMSD2
 70
     0
  9
$DIMTOLJ
 70
     1
  9
$DIMTZIN
 70
     0
  9
$DIMALTZ
 70
     0
  9
$DIMALTTZ
 70
     0
  9
$DIMUPT
 70
     0
  9
$DIMDEC
 70
     4
  9
$DIMTDEC
 70
     4
  9
$DIMALTU
 70
     2
  9
$DIMALTTD
 70
     2
  9
$DIMTXSTY
  7
Standard
  9
$DIMAUNIT
 70
     0
  9
$DIMADEC
 70
     0
  9
$DIMALTRND
 40
0.0
  9
$DIMAZIN
 70
     0
  9
$DIMDSEP
 70
    46
  9
$DIMATFIT
 70
     3
  9
$DIMFRAC
 70
     0
  9
$DIMLDRBLK
  1

  9
$DIMLUNIT
 70
     2
  9
$DIMLWD
 70
    -2
  9
$DIMLWE
 70
    -2
  9
$DIMTMOVE
 70
     0
  9
$LUNITS
 70
     2
  9
$LUPREC
 70
     4
  9
$SKETCHINC
 40
0.1
  9
$FILLETRAD
 40
0.0
  9
$AUNITS
 70
     0
  9
$AUPREC
 70
     0
  9
$MENU
  1
.
  9
$ELEVATION
 40
0.0
  9
$PELEVATION
 40
0.0
  9
$THICKNESS
 40
0.0
  9
$LIMCHECK
 70
     0
  9
$CHAMFERA
 40
0.0
  9
$CHAMFERB
 40
0.0
  9
$CHAMFERC
 40
0.0
  9
$CHAMFERD
 40
0.0
  9
$SKPOLY
 70
     0
  9
$TDCREATE
 40
2454749.777480278
  9
$TDUCREATE
 40
2454749.694146944
  9
$TDUPDATE
 40
2454749.782855717
  9
$TDUUPDATE
 40
2454749.699522384
  9
$TDINDWG
 40
0.0053756250
  9
$TDUSRTIMER
 40
0.0053756250
  9
$USRTIMER
 70
     1
  9
$ANGBASE
 50
0.0
  9
$ANGDIR
 70
     0
  9
$PDMODE
 70
     0
  9
$PDSIZE
 40
0.0
  9
$PLINEWID
 40
0.0
  9
$SPLFRAME
 70
     0
  9
$SPLINETYPE
 70
     6
  9
$SPLINESEGS
 70
     8
  9
$HANDSEED
  5
33B
  9
$SURFTAB1
 70
     6
  9
$SURFTAB2
 70
     6
  9
$SURFTYPE
 70
     6
  9
$SURFU
 70
     6
  9
$SURFV
 70
     6
  9
$UCSBASE
  2

  9
$UCSNAME
  2

  9
$UCSORG
 10
0.0
 20
0.0
 30
0.0
  9
$UCSXDIR
 10
1.0
 20
0.0
 30
0.0
  9
$UCSYDIR
 10
0.0
 20
1.0
 30
0.0
  9
$UCSORTHOREF
  2

  9
$UCSORTHOVIEW
 70
     1
  9
$UCSORGTOP
 10
0.0
 20
0.0
 30
0.0
  9
$UCSORGBOTTOM
 10
0.0
 20
0.0
 30
0.0
  9
$UCSORGLEFT
 10
0.0
 20
0.0
 30
0.0
  9
$UCSORGRIGHT
 10
0.0
 20
0.0
 30
0.0
  9
$UCSORGFRONT
 10
0.0
 20
0.0
 30
0.0
  9
$UCSORGBACK
 10
0.0
 20
0.0
 30
0.0
  9
$PUCSBASE
  2

  9
$PUCSNAME
  2

  9
$PUCSORG
 10
0.0
 20
0.0
 30
0.0
  9
$PUCSXDIR
 10
1.0
 20
0.0
 30
0.0
  9
$PUCSYDIR
 10
0.0
 20
1.0
 30
0.0
  9
$PUCSORTHOREF
  2

  9
$PUCSORTHOVIEW
 70
     0
  9
$PUCSORGTOP
 10
0.0
 20
0.0
 30
0.0
  9
$PUCSORGBOTTOM
 10
0.0
 20
0.0
 30
0.0
  9
$PUCSORGLEFT
 10
0.0
 20
0.0
 30
0.0
  9
$PUCSORGRIGHT
 10
0.0
 20
0.0
 30
0.0
  9
$PUCSORGFRONT
 10
0.0
 20
0.0
 30
0.0
  9
$PUCSORGBACK
 10
0.0
 20
0.0
 30
0.0
  9
$USERI1
 70
     0
  9
$USERI2
 70
     0
  9
$USERI3
 70
     0
  9
$USERI4
 70
     0
  9
$USERI5
 70
     0
  9
$USERR1
 40
0.0
  9
$USERR2
 40
0.0
  9
$USERR3
 40
0.0
  9
$USERR4
 40
0.0
  9
$USERR5
 40
0.0
  9
$WORLDVIEW
 70
     1
  9
$SHADEDGE
 70
     3
  9
$SHADEDIF
 70
    70
  9
$TILEMODE
 70
     1
  9
$MAXACTVP
 70
    64
  9
$PINSBASE
 10
0.0
 20
0.0
 30
0.0
  9
$PLIMCHECK
 70
     0
  9
$PEXTMIN
 10
1.000000000000000E+20
 20
1.000000000000000E+20
 30
1.000000000000000E+20
  9
$PEXTMAX
 10
-1.000000000000000E+20
 20
-1.000000000000000E+20
 30
-1.000000000000000E+20
  9
$PLIMMIN
 10
0.0
 20
0.0
  9
$PLIMMAX
 10
12.0
 20
9.0
  9
$UNITMODE
 70
     0
  9
$VISRETAIN
 70
     1
  9
$PLINEGEN
 70
     0
  9
$PSLTSCALE
 70
     1
  9
$TREEDEPTH
 70
  3020
  9
$CMLSTYLE
  2
Standard
  9
$CMLJUST
 70
     0
  9
$CMLSCALE
 40
1.0
  9
$PROXYGRAPHICS
 70
     1
  9
$MEASUREMENT
 70
     0
  9
$CELWEIGHT
370
    -1
  9
$ENDCAPS
280
     0
  9
$JOINSTYLE
280
     0
  9
$LWDISPLAY
290
     0
  9
$INSUNITS
 70
     0
  9
$HYPERLINKBASE
  1

  9
$STYLESHEET
  1

  9
$XEDIT
290
     1
  9
$CEPSNTYPE
380
     0
  9
$PSTYLEMODE
290
     1
  9
$FINGERPRINTGUID
  2
{6D5CA602-6F01-487A-A72A-F74B7038E2FB}
  9
$VERSIONGUID
  2
{202361EB-15C6-453A-8780-DB7F056B29E4}
  9
$EXTNAMES
290
     1
  9
$PSVPSCALE
 40
0.0
  9
$OLESTARTUP
290
     0
  0
ENDSEC
  0
SECTION
  2
CLASSES
  0
CLASS
  1
ACDBDICTIONARYWDFLT
  2
AcDbDictionaryWithDefault
  3
AutoCAD 2000
 90
        0
280
     0
281
     0
  0
CLASS
  1
ACDBPLACEHOLDER
  2
AcDbPlaceHolder
  3
AutoCAD 2000
 90
        0
280
     0
281
     0
  0
CLASS
  1
LAYOUT
  2
AcDbLayout
  3
AutoCAD 2000
 90
        0
280
     0
281
     0
  0
CLASS
  1
DICTIONARYVAR
  2
AcDbDictionaryVar
  3
AutoCAD 2000
 90
        0
280
     0
281
     0
  0
ENDSEC
  0
SECTION
  2
TABLES
  0
TABLE
  2
VPORT
  5
8
330
0
100
AcDbSymbolTable
 70
     2
  0
VPORT
  5
33A
330
8
100
AcDbSymbolTableRecord
100
AcDbViewportTableRecord
  2
*Active
 70
     0
 10
0.0
 20
0.0
 11
1.0
 21
1.0
 12
87.99530246434784
 22
87.99999999999998
 13
0.0
 23
0.0
 14
1.0
 24
1.0
 15
0.0
 25
0.0
 16
0.0
 26
0.0
 36
1.0
 17
0.0
 27
0.0
 37
0.0
 40
177.3503836317135
 41
2.078104993597951
 42
50.0
 43
0.0
 44
0.0
 50
0.0
 51
0.0
 71
     0
 72
   100
 73
     1
 74
     3
 75
     0
 76
     0
 77
     0
 78
     0
281
     0
 65
     1
110
0.0
120
0.0
130
0.0
111
1.0
121
0.0
131
0.0
112
0.0
122
1.0
132
0.0
 79
     1
146
0.0
  0
ENDTAB
  0
TABLE
  2
LTYPE
  5
5
330
0
100
AcDbSymbolTable
 70
     1
  0
LTYPE
  5
13
330
5
100
AcDbSymbolTableRecord
100
AcDbLinetypeTableRecord
  2
ByBlock
 70
     0
  3

 72
    65
 73
     0
 40
0.0
  0
LTYPE
  5
14
330
5
100
AcDbSymbolTableRecord
100
AcDbLinetypeTableRecord
  2
ByLayer
 70
     0
  3

 72
    65
 73
     0
 40
0.0
  0
LTYPE
  5
15
330
5
100
AcDbSymbolTableRecord
100
AcDbLinetypeTableRecord
  2
Continuous
 70
     0
  3
Solid line
 72
    65
 73
     0
 40
0.0
  0
ENDTAB
  0
TABLE
  2
LAYER
  5
2
330
0
100
AcDbSymbolTable
 70
     1
  0
LAYER
  5
10
330
2
100
AcDbSymbolTableRecord
100
AcDbLayerTableRecord
  2
0
 70
     0
 62
     7
  6
Continuous
370
    -3
390
F
  0
ENDTAB
  0
TABLE
  2
STYLE
  5
3
330
0
100
AcDbSymbolTable
 70
     1
  0
STYLE
  5
11
330
3
100
AcDbSymbolTableRecord
100
AcDbTextStyleTableRecord
  2
Standard
 70
     0
 40
0.0
 41
1.0
 50
0.0
 71
     0
 42
0.2
  3
txt
  4

  0
ENDTAB
  0
TABLE
  2
VIEW
  5
6
330
0
100
AcDbSymbolTable
 70
     0
  0
ENDTAB
  0
TABLE
  2
UCS
  5
7
330
0
100
AcDbSymbolTable
 70
     0
  0
ENDTAB
  0
TABLE
  2
APPID
  5
9
330
0
100
AcDbSymbolTable
 70
     1
  0
APPID
  5
12
330
9
100
AcDbSymbolTableRecord
100
AcDbRegAppTableRecord
  2
ACAD
 70
     0
  0
ENDTAB
  0
TABLE
  2
DIMSTYLE
  5
A
330
0
100
AcDbSymbolTable
 70
     1
100
AcDbDimStyleTable
 71
     0
  0
DIMSTYLE
105
310
330
A
100
AcDbSymbolTableRecord
100
AcDbDimStyleTableRecord
  2
Standard
 70
     0
340
11
  0
ENDTAB
  0
TABLE
  2
BLOCK_RECORD
  5
1
330
0
100
AcDbSymbolTable
 70
     0
  0
BLOCK_RECORD
  5
1E
330
1
100
AcDbSymbolTableRecord
100
AcDbBlockTableRecord
  2
*Model_Space
340
21
  0
BLOCK_RECORD
  5
1A
330
1
100
AcDbSymbolTableRecord
100
AcDbBlockTableRecord
  2
*Paper_Space
340
1D
  0
ENDTAB
  0
ENDSEC
  0
SECTION
  2
BLOCKS
  0
BLOCK
  5
1F
330
1E
100
AcDbEntity
  8
0
100
AcDbBlockBegin
  2
*Model_Space
 70
     0
 10
0.0
 20
0.0
 30
0.0
  3
*Model_Space
  1

  0
ENDBLK
  5
20
330
1E
100
AcDbEntity
  8
0
100
AcDbBlockEnd
  0
BLOCK
  5
1B
330
1A
100
AcDbEntity
 67
     1
  8
0
100
AcDbBlockBegin
  2
*Paper_Space
 70
     0
 10
0.0
 20
0.0
 30
0.0
  3
*Paper_Space
  1

  0
ENDBLK
  5
1C
330
1A
100
AcDbEntity
 67
     1
  8
0
100
AcDbBlockEnd
  0
ENDSEC
  0
SECTION
  2
ENTITIES
  0
LINE
  5
22
330
1E
100
AcDbEntity
  8
0
100
AcDbLine
 10
88.0
 20
-0.0000000000000078
 30
0.0
 11
99.50000000000001
 21
0.8999999999999921
 31
0.0
  0
LINE
  5
23
330
1E
100
AcDbEntity
  8
0
100
AcDbLine
 10
88.0
 20
-0.0000000000000078
 30
0.0
 11
99.50000000000001
 21
0.8999999999999921
 31
0.0
  0
LINE
  5
24
330
1E
100
AcDbEntity
  8
0
100
AcDbLine
 10
32.9
 20
32.9
 30
0.0
 11
40.6
 21
26.2
 31
0.0
  0
LINE
  5
25
330
1E
100
AcDbEntity
  8
0
100
AcDbLine
 10
40.6
 20
26.2
 30
0.0
 11
49.2
 21
20.4
 31
0.0
  0
LINE
  5
26
330
1E
100
AcDbEntity
  8
0
100
AcDbLine
 10
49.2
 20
20.4
 30
0.0
 11
58.2
 21
16.1
 31
0.0
  0
LINE
  5
27
330
1E
100
AcDbEntity
  8
0
100
AcDbLine
 10
34.5
 20
18.3
 30
0.0
 11
44.2
 21
11.8
 31
0.0
  0
LINE
  5
28
330
1E
100
AcDbEntity
  8
0
100
AcDbLine
 10
98.1
 20
10.8
 30
0.0
 11
108.0999999999999
 21
12.8
 31
0.0
  0
LINE
  5
29
330
1E
100
AcDbEntity
  8
0
100
AcDbLine
 10
88.0
 20
9.999999999999991
 30
0.0
 11
98.1
 21
10.8
 31
0.0
  0
LINE
  5
2A
330
1E
100
AcDbEntity
  8
0
100
AcDbLine
 10
121.5999999999999
 20
6.89999999999999
 30
0.0
 11
131.8
 21
11.8
 31
0.0
  0
LINE
  5
2B
330
1E
100
AcDbEntity
  8
0
100
AcDbLine
 10
67.9
 20
30.89999999999999
 30
0.0
 11
73.79999999999999
 21
26.3
 31
0.0
  0
LINE
  5
2C
330
1E
100
AcDbEntity
  8
0
100
AcDbLine
 10
67.2
 20
30.2
 30
0.0
 11
73.3
 21
25.5
 31
0.0
  0
LINE
  5
2D
330
1E
100
AcDbEntity
  8
0
100
AcDbLine
 10
66.79999999999999
 20
29.8
 30
0.0
 11
73.09999999999999
 21
25.0
 31
0.0
  0
LINE
  5
2E
330
1E
100
AcDbEntity
  8
0
100
AcDbLine
 10
58.2
 20
16.1
 30
0.0
 11
67.9
 21
12.8
 31
0.0
  0
LINE
  5
2F
330
1E
100
AcDbEntity
  8
0
100
AcDbLine
 10
80.29999999999999
 20
22.1
 30
0.0
 11
88.0
 21
21.0
 31
0.0
  0
LINE
  5
30
330
1E
100
AcDbEntity
  8
0
100
AcDbLine
 10
80.90000000000001
 20
24.5
 30
0.0
 11
86.4565217391304
 21
23.7173913043478
 31
0.0
  0
LINE
  5
31
330
1E
100
AcDbEntity
  8
0
100
AcDbLine
 10
74.29999999999999
 20
27.2
 30
0.0
 11
80.90000000000001
 21
24.5
 31
0.0
  0
LINE
  5
34
330
1E
100
AcDbEntity
  8
0
100
AcDbLine
 10
73.79999999999999
 20
26.3
 30
0.0
 11
80.7
 21
23.5
 31
0.0
  0
LINE
  5
35
330
1E
100
AcDbEntity
  8
0
100
AcDbLine
 10
80.7
 20
23.5
 30
0.0
 11
86.66338028169009
 21
22.6830985915493
 31
0.0
  0
LINE
  5
36
330
1E
100
AcDbEntity
  8
0
100
AcDbLine
 10
73.3
 20
25.5
 30
0.0
 11
80.4
 21
22.6
 31
0.0
  0
LINE
  5
37
330
1E
100
AcDbEntity
  8
0
100
AcDbLine
 10
80.4
 20
22.6
 30
0.0
 11
88.0
 21
21.49999999999999
 31
0.0
  0
LINE
  5
38
330
1E
100
AcDbEntity
  8
0
100
AcDbLine
 10
73.09999999999999
 20
25.0
 30
0.0
 11
80.29999999999999
 21
22.1
 31
0.0
  0
LINE
  5
39
330
1E
100
AcDbEntity
  8
0
100
AcDbLine
 10
68.59999999999999
 20
31.6
 30
0.0
 11
74.29999999999999
 21
27.2
 31
0.0
  0
LINE
  5
3A
330
1E
100
AcDbEntity
  8
0
100
AcDbLine
 10
82.70000000000001
 20
31.2
 30
0.0
 11
85.7906145783707
 21
30.7918056217246
 31
0.0
  0
LINE
  5
3B
330
1E
100
AcDbEntity
  8
0
100
AcDbLine
 10
82.9
 20
31.69999999999999
 30
0.0
 11
85.75185735512629
 21
31.308568598316
 31
0.0
  0
LINE
  5
3C
330
1E
100
AcDbEntity
  8
0
100
AcDbLine
 10
86.0
 20
28.0
 30
0.0
 11
86.2
 21
25.0
 31
0.0
  0
LINE
  5
43
330
1E
100
AcDbEntity
  8
0
100
AcDbLine
 10
86.2
 20
25.0
 30
0.0
 11
86.69999999999999
 21
22.5
 31
0.0
  0
LINE
  5
44
330
1E
100
AcDbEntity
  8
0
100
AcDbLine
 10
86.69999999999999
 20
22.5
 30
0.0
 11
87.2
 21
22.0
 31
0.0
  0
LINE
  5
45
330
1E
100
AcDbEntity
  8
0
100
AcDbLine
 10
88.0
 20
21.49999999999999
 30
0.0
 11
95.6
 21
22.6
 31
0.0
  0
LINE
  5
46
330
1E
100
AcDbEntity
  8
0
100
AcDbLine
 10
88.0
 20
21.0
 30
0.0
 11
95.7
 21
22.1
 31
0.0
  0
LINE
  5
47
330
1E
100
AcDbEntity
  8
0
100
AcDbLine
 10
88.8
 20
22.0
 30
0.0
 11
88.8
 21
22.3562
 31
0.0
  0
LINE
  5
48
330
1E
100
AcDbEntity
  8
0
100
AcDbLine
 10
88.8
 20
22.0
 30
0.0
 11
89.29999999999999
 21
22.5
 31
0.0
  0
LINE
  5
49
330
1E
100
AcDbEntity
  8
0
100
AcDbLine
 10
88.0
 20
22.0
 30
0.0
 11
88.8
 21
22.0
 31
0.0
  0
LINE
  5
4A
330
1E
100
AcDbEntity
  8
0
100
AcDbLine
 10
87.2
 20
28.0229
 30
0.0
 11
87.2
 21
26.12519999999999
 31
0.0
  0
LINE
  5
4B
330
1E
100
AcDbEntity
  8
0
100
AcDbLine
 10
87.2
 20
26.12519999999999
 30
0.0
 11
87.2
 21
28.0229
 31
0.0
  0
LINE
  5
4C
330
1E
100
AcDbEntity
  8
0
100
AcDbLine
 10
87.2
 20
26.12519999999999
 30
0.0
 11
87.2
 21
24.6253
 31
0.0
  0
LINE
  5
4D
330
1E
100
AcDbEntity
  8
0
100
AcDbLine
 10
87.2
 20
24.6253
 30
0.0
 11
87.2
 21
26.12519999999999
 31
0.0
  0
LINE
  5
4E
330
1E
100
AcDbEntity
  8
0
100
AcDbLine
 10
87.2
 20
24.6253
 30
0.0
 11
87.2
 21
23.5292
 31
0.0
  0
LINE
  5
4F
330
1E
100
AcDbEntity
  8
0
100
AcDbLine
 10
87.2
 20
23.5292
 30
0.0
 11
87.2
 21
24.6253
 31
0.0
  0
LINE
  5
50
330
1E
100
AcDbEntity
  8
0
100
AcDbLine
 10
87.2
 20
23.5292
 30
0.0
 11
87.2
 21
22.87539999999999
 31
0.0
  0
LINE
  5
51
330
1E
100
AcDbEntity
  8
0
100
AcDbLine
 10
87.2
 20
22.87539999999999
 30
0.0
 11
87.2
 21
23.5292
 31
0.0
  0
LINE
  5
52
330
1E
100
AcDbEntity
  8
0
100
AcDbLine
 10
87.2
 20
22.87539999999999
 30
0.0
 11
87.2
 21
22.3562
 31
0.0
  0
LINE
  5
53
330
1E
100
AcDbEntity
  8
0
100
AcDbLine
 10
88.8
 20
26.12519999999999
 30
0.0
 11
88.8
 21
24.6253
 31
0.0
  0
LINE
  5
54
330
1E
100
AcDbEntity
  8
0
100
AcDbLine
 10
88.8
 20
26.12519999999999
 30
0.0
 11
88.8
 21
28.0229
 31
0.0
  0
LINE
  5
55
330
1E
100
AcDbEntity
  8
0
100
AcDbLine
 10
88.8
 20
24.6253
 30
0.0
 11
88.8
 21
23.5292
 31
0.0
  0
LINE
  5
56
330
1E
100
AcDbEntity
  8
0
100
AcDbLine
 10
88.8
 20
24.6253
 30
0.0
 11
88.8
 21
26.12519999999999
 31
0.0
  0
LINE
  5
57
330
1E
100
AcDbEntity
  8
0
100
AcDbLine
 10
88.8
 20
23.5292
 30
0.0
 11
88.8
 21
22.87539999999999
 31
0.0
  0
LINE
  5
58
330
1E
100
AcDbEntity
  8
0
100
AcDbLine
 10
88.8
 20
23.5292
 30
0.0
 11
88.8
 21
24.6253
 31
0.0
  0
LINE
  5
59
330
1E
100
AcDbEntity
  8
0
100
AcDbLine
 10
88.8
 20
22.87539999999999
 30
0.0
 11
88.8
 21
22.3562
 31
0.0
  0
LINE
  5
5A
330
1E
100
AcDbEntity
  8
0
100
AcDbLine
 10
88.8
 20
22.87539999999999
 30
0.0
 11
88.8
 21
23.5292
 31
0.0
  0
LINE
  5
5C
330
1E
100
AcDbEntity
  8
0
100
AcDbLine
 10
89.5434782608695
 20
23.7173913043478
 30
0.0
 11
95.09999999999999
 21
24.5
 31
0.0
  0
LINE
  5
5D
330
1E
100
AcDbEntity
  8
0
100
AcDbLine
 10
95.29999999999999
 20
23.5
 30
0.0
 11
102.2
 21
26.3
 31
0.0
  0
LINE
  5
5E
330
1E
100
AcDbEntity
  8
0
100
AcDbLine
 10
89.3366197183098
 20
22.6830985915493
 30
0.0
 11
95.29999999999999
 21
23.5
 31
0.0
  0
LINE
  5
5F
330
1E
100
AcDbEntity
  8
0
100
AcDbLine
 10
95.6
 20
22.6
 30
0.0
 11
102.7
 21
25.5
 31
0.0
  0
LINE
  5
60
330
1E
100
AcDbEntity
  8
0
100
AcDbLine
 10
89.29999999999999
 20
22.5
 30
0.0
 11
89.8
 21
25.0
 31
0.0
  0
LINE
  5
62
330
1E
100
AcDbEntity
  8
0
100
AcDbLine
 10
95.09999999999999
 20
24.5
 30
0.0
 11
101.7
 21
27.2
 31
0.0
  0
LINE
  5
63
330
1E
100
AcDbEntity
  8
0
100
AcDbLine
 10
101.7
 20
27.2
 30
0.0
 11
107.4
 21
31.6
 31
0.0
  0
LINE
  5
64
330
1E
100
AcDbEntity
  8
0
100
AcDbLine
 10
102.2
 20
26.3
 30
0.0
 11
108.0999999999999
 21
30.89999999999999
 31
0.0
  0
LINE
  5
65
330
1E
100
AcDbEntity
  8
0
100
AcDbLine
 10
102.7
 20
25.5
 30
0.0
 11
108.8
 21
30.2
 31
0.0
  0
LINE
  5
66
330
1E
100
AcDbEntity
  8
0
100
AcDbLine
 10
89.8
 20
25.0
 30
0.0
 11
90.0
 21
28.0
 31
0.0
  0
LINE
  5
6B
330
1E
100
AcDbEntity
  8
0
100
AcDbLine
 10
88.8
 20
22.3562
 30
0.0
 11
88.8
 21
22.0
 31
0.0
  0
LINE
  5
6C
330
1E
100
AcDbEntity
  8
0
100
AcDbLine
 10
88.8
 20
22.3562
 30
0.0
 11
88.8
 21
22.87539999999999
 31
0.0
  0
LINE
  5
6D
330
1E
100
AcDbEntity
  8
0
100
AcDbLine
 10
90.20938542162928
 20
30.7918056217246
 30
0.0
 11
93.3
 21
31.2
 31
0.0
  0
LINE
  5
6E
330
1E
100
AcDbEntity
  8
0
100
AcDbLine
 10
90.24814264487369
 20
31.308568598316
 30
0.0
 11
93.1
 21
31.69999999999999
 31
0.0
  0
LINE
  5
6F
330
1E
100
AcDbEntity
  8
0
100
AcDbLine
 10
89.1
 20
31.998
 30
0.0
 11
90.14639999999999
 21
35.54209999999999
 31
0.0
  0
LINE
  5
70
330
1E
100
AcDbEntity
  8
0
100
AcDbLine
 10
88.8
 20
28.0229
 30
0.0
 11
89.1
 21
31.998
 31
0.0
  0
LINE
  5
71
330
1E
100
AcDbEntity
  8
0
100
AcDbLine
 10
88.8
 20
28.0229
 30
0.0
 11
88.8
 21
26.12519999999999
 31
0.0
  0
LINE
  5
72
330
1E
100
AcDbEntity
  8
0
100
AcDbLine
 10
93.3
 20
31.2
 30
0.0
 11
98.2
 21
33.2
 31
0.0
  0
LINE
  5
73
330
1E
100
AcDbEntity
  8
0
100
AcDbLine
 10
93.1
 20
31.69999999999999
 30
0.0
 11
97.9
 21
33.7
 31
0.0
  0
LINE
  5
74
330
1E
100
AcDbEntity
  8
0
100
AcDbLine
 10
107.4
 20
31.6
 30
0.0
 11
111.8
 21
37.29999999999999
 31
0.0
  0
LINE
  5
75
330
1E
100
AcDbEntity
  8
0
100
AcDbLine
 10
108.0999999999999
 20
30.89999999999999
 30
0.0
 11
112.7
 21
36.79999999999999
 31
0.0
  0
LINE
  5
76
330
1E
100
AcDbEntity
  8
0
100
AcDbLine
 10
90.29999999999999
 20
32.0
 30
0.0
 11
91.2296
 21
34.88609999999999
 31
0.0
  0
LINE
  5
77
330
1E
100
AcDbEntity
  8
0
100
AcDbLine
 10
90.0
 20
28.0
 30
0.0
 11
90.29999999999999
 21
32.0
 31
0.0
  0
LINE
  5
78
330
1E
100
AcDbEntity
  8
0
100
AcDbLine
 10
87.2
 20
22.3562
 30
0.0
 11
87.2
 21
22.87539999999999
 31
0.0
  0
LINE
  5
79
330
1E
100
AcDbEntity
  8
0
100
AcDbLine
 10
87.2
 20
22.3562
 30
0.0
 11
87.2
 21
22.0
 31
0.0
  0
LINE
  5
7A
330
1E
100
AcDbEntity
  8
0
100
AcDbLine
 10
87.2
 20
22.0
 30
0.0
 11
88.0
 21
22.0
 31
0.0
  0
LINE
  5
7B
330
1E
100
AcDbEntity
  8
0
100
AcDbLine
 10
87.2
 20
22.0
 30
0.0
 11
87.2
 21
22.3562
 31
0.0
  0
LINE
  5
7C
330
1E
100
AcDbEntity
  8
0
100
AcDbLine
 10
86.90000000000001
 20
31.998
 30
0.0
 11
87.2
 21
28.0229
 31
0.0
  0
LINE
  5
7D
330
1E
100
AcDbEntity
  8
0
100
AcDbLine
 10
77.8
 20
33.2
 30
0.0
 11
82.70000000000001
 21
31.2
 31
0.0
  0
LINE
  5
7E
330
1E
100
AcDbEntity
  8
0
100
AcDbLine
 10
98.2
 20
33.2
 30
0.0
 11
102.4999999999999
 21
36.5
 31
0.0
  0
LINE
  5
7F
330
1E
100
AcDbEntity
  8
0
100
AcDbLine
 10
97.9
 20
33.7
 30
0.0
 11
102.0999999999999
 21
36.89999999999999
 31
0.0
  0
LINE
  5
80
330
1E
100
AcDbEntity
  8
0
100
AcDbLine
 10
78.09999999999999
 20
33.7
 30
0.0
 11
82.9
 21
31.69999999999999
 31
0.0
  0
LINE
  5
81
330
1E
100
AcDbEntity
  8
0
100
AcDbLine
 10
85.7
 20
32.0
 30
0.0
 11
86.0
 21
28.0
 31
0.0
  0
LINE
  5
82
330
1E
100
AcDbEntity
  8
0
100
AcDbLine
 10
108.8
 20
30.2
 30
0.0
 11
113.5
 21
36.29999999999999
 31
0.0
  0
LINE
  5
83
330
1E
100
AcDbEntity
  8
0
100
AcDbLine
 10
143.1
 20
32.9
 30
0.0
 11
149.8
 21
40.6
 31
0.0
  0
LINE
  5
84
330
1E
100
AcDbEntity
  8
0
100
AcDbLine
 10
135.4
 20
26.2
 30
0.0
 11
143.1
 21
32.9
 31
0.0
  0
LINE
  5
85
330
1E
100
AcDbEntity
  8
0
100
AcDbLine
 10
126.8
 20
20.4
 30
0.0
 11
135.4
 21
26.2
 31
0.0
  0
LINE
  5
86
330
1E
100
AcDbEntity
  8
0
100
AcDbLine
 10
117.7999999999999
 20
16.1
 30
0.0
 11
126.8
 21
20.4
 31
0.0
  0
LINE
  5
87
330
1E
100
AcDbEntity
  8
0
100
AcDbLine
 10
108.0999999999999
 20
12.8
 30
0.0
 11
117.7999999999999
 21
16.1
 31
0.0
  0
LINE
  5
88
330
1E
100
AcDbEntity
  8
0
100
AcDbLine
 10
131.8
 20
11.8
 30
0.0
 11
141.5
 21
18.3
 31
0.0
  0
LINE
  5
89
330
1E
100
AcDbEntity
  8
0
100
AcDbLine
 10
67.9
 20
12.8
 30
0.0
 11
77.9
 21
10.8
 31
0.0
  0
LINE
  5
8A
330
1E
100
AcDbEntity
  8
0
100
AcDbLine
 10
77.9
 20
10.8
 30
0.0
 11
88.0
 21
9.999999999999991
 31
0.0
  0
LINE
  5
8B
330
1E
100
AcDbEntity
  8
0
100
AcDbLine
 10
54.4
 20
6.89999999999999
 30
0.0
 11
65.3
 21
3.19999999999999
 31
0.0
  0
LINE
  5
8C
330
1E
100
AcDbEntity
  8
0
100
AcDbLine
 10
76.5
 20
0.8999999999999921
 30
0.0
 11
88.0
 21
-0.0000000000000078
 31
0.0
  0
LINE
  5
8D
330
1E
100
AcDbEntity
  8
0
100
AcDbLine
 10
76.5
 20
0.8999999999999921
 30
0.0
 11
88.0
 21
-0.0000000000000078
 31
0.0
  0
LINE
  5
8E
330
1E
100
AcDbEntity
  8
0
100
AcDbLine
 10
25.89999999999999
 20
25.89999999999999
 30
0.0
 11
34.5
 21
18.3
 31
0.0
  0
LINE
  5
8F
330
1E
100
AcDbEntity
  8
0
100
AcDbLine
 10
91.2296
 20
34.88609999999999
 30
0.0
 11
92.7508
 21
37.6072
 31
0.0
  0
LINE
  5
90
330
1E
100
AcDbEntity
  8
0
100
AcDbLine
 10
73.5
 20
36.5
 30
0.0
 11
77.8
 21
33.2
 31
0.0
  0
LINE
  5
91
330
1E
100
AcDbEntity
  8
0
100
AcDbLine
 10
73.9
 20
36.89999999999999
 30
0.0
 11
78.09999999999999
 21
33.7
 31
0.0
  0
LINE
  5
92
330
1E
100
AcDbEntity
  8
0
100
AcDbLine
 10
64.2
 20
37.29999999999999
 30
0.0
 11
68.59999999999999
 21
31.6
 31
0.0
  0
LINE
  5
94
330
1E
100
AcDbEntity
  8
0
100
AcDbLine
 10
63.3
 20
36.79999999999999
 30
0.0
 11
67.9
 21
30.89999999999999
 31
0.0
  0
LINE
  5
95
330
1E
100
AcDbEntity
  8
0
100
AcDbLine
 10
62.5
 20
36.29999999999999
 30
0.0
 11
67.2
 21
30.2
 31
0.0
  0
LINE
  5
96
330
1E
100
AcDbEntity
  8
0
100
AcDbLine
 10
82.0
 20
40.5777
 30
0.0
 11
84.0098
 21
38.296
 31
0.0
  0
LINE
  5
97
330
1E
100
AcDbEntity
  8
0
100
AcDbLine
 10
81.4
 20
39.6
 30
0.0
 11
83.2492
 21
37.6072
 31
0.0
  0
LINE
  5
98
330
1E
100
AcDbEntity
  8
0
100
AcDbLine
 10
90.14639999999999
 20
35.54209999999999
 30
0.0
 11
91.9902
 21
38.296
 31
0.0
  0
LINE
  5
99
330
1E
100
AcDbEntity
  8
0
100
AcDbLine
 10
102.0999999999999
 20
36.89999999999999
 30
0.0
 11
105.2999999999999
 21
41.1
 31
0.0
  0
LINE
  5
9A
330
1E
100
AcDbEntity
  8
0
100
AcDbLine
 10
111.8
 20
37.29999999999999
 30
0.0
 11
114.5
 21
43.89999999999999
 31
0.0
  0
LINE
  5
9B
330
1E
100
AcDbEntity
  8
0
100
AcDbLine
 10
112.7
 20
36.79999999999999
 30
0.0
 11
115.5
 21
43.7
 31
0.0
  0
LINE
  5
9C
330
1E
100
AcDbEntity
  8
0
100
AcDbLine
 10
113.5
 20
36.29999999999999
 30
0.0
 11
116.4
 21
43.39999999999999
 31
0.0
  0
LINE
  5
9D
330
1E
100
AcDbEntity
  8
0
100
AcDbLine
 10
114.0
 20
36.1
 30
0.0
 11
116.9
 21
43.3
 31
0.0
  0
LINE
  5
9E
330
1E
100
AcDbEntity
  8
0
100
AcDbLine
 10
102.4999999999999
 20
36.5
 30
0.0
 11
105.8
 21
40.8
 31
0.0
  0
LINE
  5
9F
330
1E
100
AcDbEntity
  8
0
100
AcDbLine
 10
88.0
 20
40.49999999999999
 30
0.0
 11
90.7
 21
40.89999999999999
 31
0.0
  0
LINE
  5
A0
330
1E
100
AcDbEntity
  8
0
100
AcDbLine
 10
94.0
 20
40.5777
 30
0.0
 11
96.5
 21
42.5
 31
0.0
  0
LINE
  5
A1
330
1E
100
AcDbEntity
  8
0
100
AcDbLine
 10
94.59999999999999
 20
39.6
 30
0.0
 11
97.3
 21
41.7
 31
0.0
  0
LINE
  5
A2
330
1E
100
AcDbEntity
  8
0
100
AcDbLine
 10
91.9902
 20
38.296
 30
0.0
 11
94.0
 21
40.5777
 31
0.0
  0
LINE
  5
A3
330
1E
100
AcDbEntity
  8
0
100
AcDbLine
 10
92.7508
 20
37.6072
 30
0.0
 11
94.59999999999999
 21
39.6
 31
0.0
  0
LINE
  5
A4
330
1E
100
AcDbEntity
  8
0
100
AcDbLine
 10
84.0098
 20
38.296
 30
0.0
 11
85.85359999999999
 21
35.54209999999999
 31
0.0
  0
LINE
  5
A5
330
1E
100
AcDbEntity
  8
0
100
AcDbLine
 10
85.85359999999999
 20
35.54209999999999
 30
0.0
 11
86.90000000000001
 21
31.998
 31
0.0
  0
LINE
  5
A6
330
1E
100
AcDbEntity
  8
0
100
AcDbLine
 10
83.2492
 20
37.6072
 30
0.0
 11
84.7704
 21
34.88609999999999
 31
0.0
  0
LINE
  5
A7
330
1E
100
AcDbEntity
  8
0
100
AcDbLine
 10
84.7704
 20
34.88609999999999
 30
0.0
 11
85.7
 21
32.0
 31
0.0
  0
LINE
  5
A8
330
1E
100
AcDbEntity
  8
0
100
AcDbLine
 10
149.8
 20
40.6
 30
0.0
 11
155.6
 21
49.2
 31
0.0
  0
LINE
  5
A9
330
1E
100
AcDbEntity
  8
0
100
AcDbLine
 10
59.1
 20
43.3
 30
0.0
 11
62.0
 21
36.1
 31
0.0
  0
LINE
  5
AA
330
1E
100
AcDbEntity
  8
0
100
AcDbLine
 10
60.5
 20
43.7
 30
0.0
 11
63.3
 21
36.79999999999999
 31
0.0
  0
LINE
  5
AB
330
1E
100
AcDbEntity
  8
0
100
AcDbLine
 10
59.6830985915493
 20
49.6633802816901
 30
0.0
 11
60.5
 21
43.7
 31
0.0
  0
LINE
  5
AC
330
1E
100
AcDbEntity
  8
0
100
AcDbLine
 10
59.6
 20
43.39999999999999
 30
0.0
 11
62.5
 21
36.29999999999999
 31
0.0
  0
LINE
  5
AD
330
1E
100
AcDbEntity
  8
0
100
AcDbLine
 10
59.5
 20
49.7
 30
0.0
 11
62.0
 21
49.2
 31
0.0
  0
LINE
  5
AF
330
1E
100
AcDbEntity
  8
0
100
AcDbLine
 10
61.5
 20
43.89999999999999
 30
0.0
 11
64.2
 21
37.29999999999999
 31
0.0
  0
LINE
  5
B0
330
1E
100
AcDbEntity
  8
0
100
AcDbLine
 10
60.7173913043478
 20
49.4565217391304
 30
0.0
 11
61.5
 21
43.89999999999999
 31
0.0
  0
LINE
  5
B2
330
1E
100
AcDbEntity
  8
0
100
AcDbLine
 10
62.0
 20
49.2
 30
0.0
 11
65.0
 21
49.0
 31
0.0
  0
LINE
  5
B5
330
1E
100
AcDbEntity
  8
0
100
AcDbLine
 10
68.2
 20
45.7
 30
0.0
 11
70.2
 21
40.8
 31
0.0
  0
LINE
  5
B6
330
1E
100
AcDbEntity
  8
0
100
AcDbLine
 10
68.7
 20
45.89999999999999
 30
0.0
 11
70.7
 21
41.1
 31
0.0
  0
LINE
  5
B7
330
1E
100
AcDbEntity
  8
0
100
AcDbLine
 10
68.308568598316
 20
48.7518573551263
 30
0.0
 11
68.7
 21
45.89999999999999
 31
0.0
  0
LINE
  5
B8
330
1E
100
AcDbEntity
  8
0
100
AcDbLine
 10
67.7918056217246
 20
48.79061457837071
 30
0.0
 11
68.2
 21
45.7
 31
0.0
  0
LINE
  5
B9
330
1E
100
AcDbEntity
  8
0
100
AcDbLine
 10
70.7
 20
41.1
 30
0.0
 11
73.9
 21
36.89999999999999
 31
0.0
  0
LINE
  5
BA
330
1E
100
AcDbEntity
  8
0
100
AcDbLine
 10
70.2
 20
40.8
 30
0.0
 11
73.5
 21
36.5
 31
0.0
  0
LINE
  5
BB
330
1E
100
AcDbEntity
  8
0
100
AcDbLine
 10
79.5
 20
42.5
 30
0.0
 11
82.0
 21
40.5777
 31
0.0
  0
LINE
  5
BC
330
1E
100
AcDbEntity
  8
0
100
AcDbLine
 10
78.7
 20
41.7
 30
0.0
 11
81.4
 21
39.6
 31
0.0
  0
LINE
  5
BD
330
1E
100
AcDbEntity
  8
0
100
AcDbLine
 10
77.57769999999999
 20
45.0
 30
0.0
 11
79.5
 21
42.5
 31
0.0
  0
LINE
  5
BE
330
1E
100
AcDbEntity
  8
0
100
AcDbLine
 10
76.6
 20
44.4
 30
0.0
 11
78.7
 21
41.7
 31
0.0
  0
LINE
  5
BF
330
1E
100
AcDbEntity
  8
0
100
AcDbLine
 10
78.9
 20
45.8
 30
0.0
 11
80.6
 21
43.6
 31
0.0
  0
LINE
  5
C0
330
1E
100
AcDbEntity
  8
0
100
AcDbLine
 10
105.8
 20
40.8
 30
0.0
 11
107.8
 21
45.7
 31
0.0
  0
LINE
  5
C1
330
1E
100
AcDbEntity
  8
0
100
AcDbLine
 10
90.7
 20
40.89999999999999
 30
0.0
 11
93.2
 21
41.9
 31
0.0
  0
LINE
  5
C2
330
1E
100
AcDbEntity
  8
0
100
AcDbLine
 10
80.6
 20
43.6
 30
0.0
 11
82.79999999999999
 21
41.9
 31
0.0
  0
LINE
  5
C3
330
1E
100
AcDbEntity
  8
0
100
AcDbLine
 10
96.5
 20
42.5
 30
0.0
 11
98.4223
 21
45.0
 31
0.0
  0
LINE
  5
C4
330
1E
100
AcDbEntity
  8
0
100
AcDbLine
 10
105.2999999999999
 20
41.1
 30
0.0
 11
107.2999999999999
 21
45.89999999999999
 31
0.0
  0
LINE
  5
C5
330
1E
100
AcDbEntity
  8
0
100
AcDbLine
 10
97.3
 20
41.7
 30
0.0
 11
99.40000000000001
 21
44.4
 31
0.0
  0
LINE
  5
C6
330
1E
100
AcDbEntity
  8
0
100
AcDbLine
 10
95.4
 20
43.6
 30
0.0
 11
97.1
 21
45.8
 31
0.0
  0
LINE
  5
C8
330
1E
100
AcDbEntity
  8
0
100
AcDbLine
 10
114.5
 20
43.89999999999999
 30
0.0
 11
115.282608695652
 21
49.4565217391304
 31
0.0
  0
LINE
  5
C9
330
1E
100
AcDbEntity
  8
0
100
AcDbLine
 10
115.5
 20
43.7
 30
0.0
 11
116.316901408451
 21
49.6633802816901
 31
0.0
  0
LINE
  5
CA
330
1E
100
AcDbEntity
  8
0
100
AcDbLine
 10
116.4
 20
43.39999999999999
 30
0.0
 11
117.5
 21
51.0
 31
0.0
  0
LINE
  5
CB
330
1E
100
AcDbEntity
  8
0
100
AcDbLine
 10
107.2999999999999
 20
45.89999999999999
 30
0.0
 11
107.691431401684
 21
48.7518573551263
 31
0.0
  0
LINE
  5
CC
330
1E
100
AcDbEntity
  8
0
100
AcDbLine
 10
107.8
 20
45.7
 30
0.0
 11
108.208194378275
 21
48.79061457837071
 31
0.0
  0
LINE
  5
CD
330
1E
100
AcDbEntity
  8
0
100
AcDbLine
 10
98.4223
 20
45.0
 30
0.0
 11
100.7039999999999
 21
47.0098
 31
0.0
  0
LINE
  5
CE
330
1E
100
AcDbEntity
  8
0
100
AcDbLine
 10
99.40000000000001
 20
44.4
 30
0.0
 11
101.3929999999999
 21
46.2492
 31
0.0
  0
LINE
  5
CF
330
1E
100
AcDbEntity
  8
0
100
AcDbLine
 10
97.1
 20
45.8
 30
0.0
 11
98.1
 21
48.3
 31
0.0
  0
LINE
  5
D1
330
1E
100
AcDbEntity
  8
0
100
AcDbLine
 10
93.2
 20
41.9
 30
0.0
 11
95.4
 21
43.6
 31
0.0
  0
LINE
  5
D2
330
1E
100
AcDbEntity
  8
0
100
AcDbLine
 10
100.7039999999999
 20
47.0098
 30
0.0
 11
103.458
 21
48.8536
 31
0.0
  0
LINE
  5
D3
330
1E
100
AcDbEntity
  8
0
100
AcDbLine
 10
101.3929999999999
 20
46.2492
 30
0.0
 11
104.1139999999999
 21
47.7704
 31
0.0
  0
LINE
  5
D4
330
1E
100
AcDbEntity
  8
0
100
AcDbLine
 10
82.79999999999999
 20
41.9
 30
0.0
 11
85.29999999999999
 21
40.89999999999999
 31
0.0
  0
LINE
  5
D5
330
1E
100
AcDbEntity
  8
0
100
AcDbLine
 10
85.29999999999999
 20
40.89999999999999
 30
0.0
 11
88.0
 21
40.49999999999999
 31
0.0
  0
LINE
  5
D6
330
1E
100
AcDbEntity
  8
0
100
AcDbLine
 10
104.1139999999999
 20
47.7704
 30
0.0
 11
107.0
 21
48.7
 31
0.0
  0
LINE
  5
D7
330
1E
100
AcDbEntity
  8
0
100
AcDbLine
 10
75.29600000000001
 20
47.0098
 30
0.0
 11
77.57769999999999
 21
45.0
 31
0.0
  0
LINE
  5
D8
330
1E
100
AcDbEntity
  8
0
100
AcDbLine
 10
74.60720000000001
 20
46.2492
 30
0.0
 11
76.6
 21
44.4
 31
0.0
  0
LINE
  5
D9
330
1E
100
AcDbEntity
  8
0
100
AcDbLine
 10
98.1
 20
48.3
 30
0.0
 11
98.50000000000001
 21
51.0
 31
0.0
  0
LINE
  5
DA
330
1E
100
AcDbEntity
  8
0
100
AcDbLine
 10
103.458
 20
48.8536
 30
0.0
 11
107.002
 21
49.9
 31
0.0
  0
LINE
  5
DB
330
1E
100
AcDbEntity
  8
0
100
AcDbLine
 10
111.0
 20
49.0
 30
0.0
 11
114.0
 21
49.2
 31
0.0
  0
LINE
  5
DC
330
1E
100
AcDbEntity
  8
0
100
AcDbLine
 10
107.0
 20
48.7
 30
0.0
 11
111.0
 21
49.0
 31
0.0
  0
LINE
  5
DD
330
1E
100
AcDbEntity
  8
0
100
AcDbLine
 10
77.9
 20
48.3
 30
0.0
 11
78.9
 21
45.8
 31
0.0
  0
LINE
  5
DE
330
1E
100
AcDbEntity
  8
0
100
AcDbLine
 10
72.5421
 20
48.8536
 30
0.0
 11
75.29600000000001
 21
47.0098
 31
0.0
  0
LINE
  5
DF
330
1E
100
AcDbEntity
  8
0
100
AcDbLine
 10
71.8861
 20
47.7704
 30
0.0
 11
74.60720000000001
 21
46.2492
 31
0.0
  0
LINE
  5
E0
330
1E
100
AcDbEntity
  8
0
100
AcDbLine
 10
69.0
 20
48.7
 30
0.0
 11
71.8861
 21
47.7704
 31
0.0
  0
LINE
  5
E4
330
1E
100
AcDbEntity
  8
0
100
AcDbLine
 10
114.0
 20
49.2
 30
0.0
 11
116.5
 21
49.7
 31
0.0
  0
LINE
  5
E5
330
1E
100
AcDbEntity
  8
0
100
AcDbLine
 10
116.5
 20
49.7
 30
0.0
 11
117.0
 21
50.2
 31
0.0
  0
LINE
  5
E6
330
1E
100
AcDbEntity
  8
0
100
AcDbLine
 10
107.002
 20
49.9
 30
0.0
 11
110.977
 21
50.2
 31
0.0
  0
LINE
  5
E7
330
1E
100
AcDbEntity
  8
0
100
AcDbLine
 10
110.977
 20
50.2
 30
0.0
 11
112.8749999999999
 21
50.2
 31
0.0
  0
LINE
  5
E8
330
1E
100
AcDbEntity
  8
0
100
AcDbLine
 10
112.8749999999999
 20
50.2
 30
0.0
 11
114.375
 21
50.2
 31
0.0
  0
LINE
  5
E9
330
1E
100
AcDbEntity
  8
0
100
AcDbLine
 10
114.375
 20
50.2
 30
0.0
 11
115.471
 21
50.2
 31
0.0
  0
LINE
  5
EA
330
1E
100
AcDbEntity
  8
0
100
AcDbLine
 10
115.471
 20
50.2
 30
0.0
 11
116.125
 21
50.2
 31
0.0
  0
LINE
  5
EB
330
1E
100
AcDbEntity
  8
0
100
AcDbLine
 10
116.125
 20
50.2
 30
0.0
 11
116.6439999999999
 21
50.2
 31
0.0
  0
LINE
  5
EC
330
1E
100
AcDbEntity
  8
0
100
AcDbLine
 10
116.6439999999999
 20
50.2
 30
0.0
 11
117.0
 21
50.2
 31
0.0
  0
LINE
  5
ED
330
1E
100
AcDbEntity
  8
0
100
AcDbLine
 10
117.0
 20
50.2
 30
0.0
 11
117.0
 21
51.0
 31
0.0
  0
LINE
  5
EE
330
1E
100
AcDbEntity
  8
0
100
AcDbLine
 10
68.998
 20
49.9
 30
0.0
 11
72.5421
 21
48.8536
 31
0.0
  0
LINE
  5
EF
330
1E
100
AcDbEntity
  8
0
100
AcDbLine
 10
65.02290000000001
 20
50.2
 30
0.0
 11
68.998
 21
49.9
 31
0.0
  0
LINE
  5
F0
330
1E
100
AcDbEntity
  8
0
100
AcDbLine
 10
65.0
 20
49.0
 30
0.0
 11
69.0
 21
48.7
 31
0.0
  0
LINE
  5
F1
330
1E
100
AcDbEntity
  8
0
100
AcDbLine
 10
63.1252
 20
50.2
 30
0.0
 11
65.02290000000001
 21
50.2
 31
0.0
  0
LINE
  5
F2
330
1E
100
AcDbEntity
  8
0
100
AcDbLine
 10
61.6253
 20
50.2
 30
0.0
 11
63.1252
 21
50.2
 31
0.0
  0
LINE
  5
F3
330
1E
100
AcDbEntity
  8
0
100
AcDbLine
 10
60.5292
 20
50.2
 30
0.0
 11
61.6253
 21
50.2
 31
0.0
  0
LINE
  5
F4
330
1E
100
AcDbEntity
  8
0
100
AcDbLine
 10
59.8754
 20
50.2
 30
0.0
 11
60.5292
 21
50.2
 31
0.0
  0
LINE
  5
F5
330
1E
100
AcDbEntity
  8
0
100
AcDbLine
 10
59.3562
 20
50.2
 30
0.0
 11
59.8754
 21
50.2
 31
0.0
  0
LINE
  5
F6
330
1E
100
AcDbEntity
  8
0
100
AcDbLine
 10
58.5
 20
51.0
 30
0.0
 11
59.6
 21
43.39999999999999
 31
0.0
  0
LINE
  5
F7
330
1E
100
AcDbEntity
  8
0
100
AcDbLine
 10
58.5
 20
51.0
 30
0.0
 11
59.6
 21
58.6
 31
0.0
  0
LINE
  5
F8
330
1E
100
AcDbEntity
  8
0
100
AcDbLine
 10
58.0
 20
51.0
 30
0.0
 11
59.1
 21
43.3
 31
0.0
  0
LINE
  5
F9
330
1E
100
AcDbEntity
  8
0
100
AcDbLine
 10
58.0
 20
51.0
 30
0.0
 11
59.1
 21
58.7
 31
0.0
  0
LINE
  5
FA
330
1E
100
AcDbEntity
  8
0
100
AcDbLine
 10
63.1252
 20
51.79999999999999
 30
0.0
 11
65.02290000000001
 21
51.79999999999999
 31
0.0
  0
LINE
  5
FB
330
1E
100
AcDbEntity
  8
0
100
AcDbLine
 10
61.6253
 20
51.79999999999999
 30
0.0
 11
63.1252
 21
51.79999999999999
 31
0.0
  0
LINE
  5
FC
330
1E
100
AcDbEntity
  8
0
100
AcDbLine
 10
60.5292
 20
51.79999999999999
 30
0.0
 11
61.6253
 21
51.79999999999999
 31
0.0
  0
LINE
  5
FD
330
1E
100
AcDbEntity
  8
0
100
AcDbLine
 10
59.8754
 20
51.79999999999999
 30
0.0
 11
60.5292
 21
51.79999999999999
 31
0.0
  0
LINE
  5
FE
330
1E
100
AcDbEntity
  8
0
100
AcDbLine
 10
59.3562
 20
51.79999999999999
 30
0.0
 11
59.8754
 21
51.79999999999999
 31
0.0
  0
LINE
  5
100
330
1E
100
AcDbEntity
  8
0
100
AcDbLine
 10
59.6830985915493
 20
52.33661971830979
 30
0.0
 11
60.5
 21
58.3
 31
0.0
  0
LINE
  5
102
330
1E
100
AcDbEntity
  8
0
100
AcDbLine
 10
60.7173913043478
 20
52.54347826086959
 30
0.0
 11
61.5
 21
58.1
 31
0.0
  0
LINE
  5
105
330
1E
100
AcDbEntity
  8
0
100
AcDbLine
 10
61.5
 20
58.1
 30
0.0
 11
64.2
 21
64.7
 31
0.0
  0
LINE
  5
106
330
1E
100
AcDbEntity
  8
0
100
AcDbLine
 10
62.0
 20
52.8
 30
0.0
 11
65.0
 21
53.0
 31
0.0
  0
LINE
  5
107
330
1E
100
AcDbEntity
  8
0
100
AcDbLine
 10
59.5
 20
52.3
 30
0.0
 11
62.0
 21
52.8
 31
0.0
  0
LINE
  5
108
330
1E
100
AcDbEntity
  8
0
100
AcDbLine
 10
59.0
 20
51.79999999999999
 30
0.0
 11
59.0
 21
51.0
 31
0.0
  0
LINE
  5
109
330
1E
100
AcDbEntity
  8
0
100
AcDbLine
 10
59.0
 20
51.79999999999999
 30
0.0
 11
59.5
 21
52.3
 31
0.0
  0
LINE
  5
10A
330
1E
100
AcDbEntity
  8
0
100
AcDbLine
 10
59.0
 20
51.79999999999999
 30
0.0
 11
59.3562
 21
51.79999999999999
 31
0.0
  0
LINE
  5
10B
330
1E
100
AcDbEntity
  8
0
100
AcDbLine
 10
68.308568598316
 20
53.2481426448737
 30
0.0
 11
68.7
 21
56.1
 31
0.0
  0
LINE
  5
10C
330
1E
100
AcDbEntity
  8
0
100
AcDbLine
 10
67.7918056217246
 20
53.20938542162929
 30
0.0
 11
68.2
 21
56.29999999999999
 31
0.0
  0
LINE
  5
10D
330
1E
100
AcDbEntity
  8
0
100
AcDbLine
 10
72.5421
 20
53.1464
 30
0.0
 11
75.29600000000001
 21
54.9902
 31
0.0
  0
LINE
  5
10E
330
1E
100
AcDbEntity
  8
0
100
AcDbLine
 10
68.998
 20
52.1
 30
0.0
 11
72.5421
 21
53.1464
 31
0.0
  0
LINE
  5
10F
330
1E
100
AcDbEntity
  8
0
100
AcDbLine
 10
65.02290000000001
 20
51.79999999999999
 30
0.0
 11
68.998
 21
52.1
 31
0.0
  0
LINE
  5
110
330
1E
100
AcDbEntity
  8
0
100
AcDbLine
 10
68.2
 20
56.29999999999999
 30
0.0
 11
70.2
 21
61.2
 31
0.0
  0
LINE
  5
111
330
1E
100
AcDbEntity
  8
0
100
AcDbLine
 10
68.7
 20
56.1
 30
0.0
 11
70.7
 21
60.89999999999999
 31
0.0
  0
LINE
  5
112
330
1E
100
AcDbEntity
  8
0
100
AcDbLine
 10
75.29600000000001
 20
54.9902
 30
0.0
 11
77.57769999999999
 21
57.0
 31
0.0
  0
LINE
  5
113
330
1E
100
AcDbEntity
  8
0
100
AcDbLine
 10
76.6
 20
57.6
 30
0.0
 11
78.7
 21
60.3
 31
0.0
  0
LINE
  5
114
330
1E
100
AcDbEntity
  8
0
100
AcDbLine
 10
74.60720000000001
 20
55.75079999999999
 30
0.0
 11
76.6
 21
57.6
 31
0.0
  0
LINE
  5
115
330
1E
100
AcDbEntity
  8
0
100
AcDbLine
 10
71.8861
 20
54.22959999999999
 30
0.0
 11
74.60720000000001
 21
55.75079999999999
 31
0.0
  0
LINE
  5
116
330
1E
100
AcDbEntity
  8
0
100
AcDbLine
 10
69.0
 20
53.3
 30
0.0
 11
71.8861
 21
54.22959999999999
 31
0.0
  0
LINE
  5
117
330
1E
100
AcDbEntity
  8
0
100
AcDbLine
 10
65.0
 20
53.0
 30
0.0
 11
69.0
 21
53.3
 31
0.0
  0
LINE
  5
118
330
1E
100
AcDbEntity
  8
0
100
AcDbLine
 10
59.0
 20
51.0
 30
0.0
 11
59.0
 21
50.2
 31
0.0
  0
LINE
  5
119
330
1E
100
AcDbEntity
  8
0
100
AcDbLine
 10
59.0
 20
51.0
 30
0.0
 11
59.0
 21
51.79999999999999
 31
0.0
  0
LINE
  5
11A
330
1E
100
AcDbEntity
  8
0
100
AcDbLine
 10
77.9
 20
53.7
 30
0.0
 11
78.9
 21
56.2
 31
0.0
  0
LINE
  5
11B
330
1E
100
AcDbEntity
  8
0
100
AcDbLine
 10
98.1
 20
53.7
 30
0.0
 11
98.50000000000001
 21
51.0
 31
0.0
  0
LINE
  5
11C
330
1E
100
AcDbEntity
  8
0
100
AcDbLine
 10
103.458
 20
53.1464
 30
0.0
 11
107.002
 21
52.1
 31
0.0
  0
LINE
  5
11D
330
1E
100
AcDbEntity
  8
0
100
AcDbLine
 10
77.57769999999999
 20
57.0
 30
0.0
 11
79.5
 21
59.5
 31
0.0
  0
LINE
  5
11E
330
1E
100
AcDbEntity
  8
0
100
AcDbLine
 10
78.9
 20
56.2
 30
0.0
 11
80.6
 21
58.39999999999999
 31
0.0
  0
LINE
  5
11F
330
1E
100
AcDbEntity
  8
0
100
AcDbLine
 10
98.4223
 20
57.0
 30
0.0
 11
100.7039999999999
 21
54.9902
 31
0.0
  0
LINE
  5
120
330
1E
100
AcDbEntity
  8
0
100
AcDbLine
 10
99.40000000000001
 20
57.6
 30
0.0
 11
101.3929999999999
 21
55.75079999999999
 31
0.0
  0
LINE
  5
121
330
1E
100
AcDbEntity
  8
0
100
AcDbLine
 10
97.1
 20
56.2
 30
0.0
 11
98.1
 21
53.7
 31
0.0
  0
LINE
  5
122
330
1E
100
AcDbEntity
  8
0
100
AcDbLine
 10
100.7039999999999
 20
54.9902
 30
0.0
 11
103.458
 21
53.1464
 31
0.0
  0
LINE
  5
123
330
1E
100
AcDbEntity
  8
0
100
AcDbLine
 10
101.3929999999999
 20
55.75079999999999
 30
0.0
 11
104.1139999999999
 21
54.22959999999999
 31
0.0
  0
LINE
  5
124
330
1E
100
AcDbEntity
  8
0
100
AcDbLine
 10
104.1139999999999
 20
54.22959999999999
 30
0.0
 11
107.0
 21
53.3
 31
0.0
  0
LINE
  5
125
330
1E
100
AcDbEntity
  8
0
100
AcDbLine
 10
110.977
 20
51.79999999999999
 30
0.0
 11
112.8749999999999
 21
51.79999999999999
 31
0.0
  0
LINE
  5
126
330
1E
100
AcDbEntity
  8
0
100
AcDbLine
 10
112.8749999999999
 20
51.79999999999999
 30
0.0
 11
114.375
 21
51.79999999999999
 31
0.0
  0
LINE
  5
127
330
1E
100
AcDbEntity
  8
0
100
AcDbLine
 10
114.375
 20
51.79999999999999
 30
0.0
 11
115.471
 21
51.79999999999999
 31
0.0
  0
LINE
  5
128
330
1E
100
AcDbEntity
  8
0
100
AcDbLine
 10
115.471
 20
51.79999999999999
 30
0.0
 11
116.125
 21
51.79999999999999
 31
0.0
  0
LINE
  5
129
330
1E
100
AcDbEntity
  8
0
100
AcDbLine
 10
116.125
 20
51.79999999999999
 30
0.0
 11
116.6439999999999
 21
51.79999999999999
 31
0.0
  0
LINE
  5
12A
330
1E
100
AcDbEntity
  8
0
100
AcDbLine
 10
116.6439999999999
 20
51.79999999999999
 30
0.0
 11
117.0
 21
51.79999999999999
 31
0.0
  0
LINE
  5
12B
330
1E
100
AcDbEntity
  8
0
100
AcDbLine
 10
117.0
 20
51.79999999999999
 30
0.0
 11
117.0
 21
51.0
 31
0.0
  0
LINE
  5
12F
330
1E
100
AcDbEntity
  8
0
100
AcDbLine
 10
107.8
 20
56.29999999999999
 30
0.0
 11
108.208194378275
 21
53.20938542162929
 31
0.0
  0
LINE
  5
130
330
1E
100
AcDbEntity
  8
0
100
AcDbLine
 10
107.2999999999999
 20
56.1
 30
0.0
 11
107.691431401684
 21
53.2481426448737
 31
0.0
  0
LINE
  5
131
330
1E
100
AcDbEntity
  8
0
100
AcDbLine
 10
114.5
 20
58.1
 30
0.0
 11
115.282608695652
 21
52.54347826086959
 31
0.0
  0
LINE
  5
133
330
1E
100
AcDbEntity
  8
0
100
AcDbLine
 10
111.0
 20
53.0
 30
0.0
 11
114.0
 21
52.8
 31
0.0
  0
LINE
  5
134
330
1E
100
AcDbEntity
  8
0
100
AcDbLine
 10
114.0
 20
52.8
 30
0.0
 11
116.5
 21
52.3
 31
0.0
  0
LINE
  5
135
330
1E
100
AcDbEntity
  8
0
100
AcDbLine
 10
116.5
 20
52.3
 30
0.0
 11
117.0
 21
51.79999999999999
 31
0.0
  0
LINE
  5
136
330
1E
100
AcDbEntity
  8
0
100
AcDbLine
 10
107.002
 20
52.1
 30
0.0
 11
110.977
 21
51.79999999999999
 31
0.0
  0
LINE
  5
137
330
1E
100
AcDbEntity
  8
0
100
AcDbLine
 10
107.0
 20
53.3
 30
0.0
 11
111.0
 21
53.0
 31
0.0
  0
LINE
  5
138
330
1E
100
AcDbEntity
  8
0
100
AcDbLine
 10
117.0
 20
51.0
 30
0.0
 11
117.0
 21
50.2
 31
0.0
  0
LINE
  5
139
330
1E
100
AcDbEntity
  8
0
100
AcDbLine
 10
117.0
 20
51.0
 30
0.0
 11
117.0
 21
51.79999999999999
 31
0.0
  0
LINE
  5
13A
330
1E
100
AcDbEntity
  8
0
100
AcDbLine
 10
77.5
 20
51.0
 30
0.0
 11
77.9
 21
48.3
 31
0.0
  0
LINE
  5
13B
330
1E
100
AcDbEntity
  8
0
100
AcDbLine
 10
77.5
 20
51.0
 30
0.0
 11
77.9
 21
53.7
 31
0.0
  0
LINE
  5
13C
330
1E
100
AcDbEntity
  8
0
100
AcDbLine
 10
59.0
 20
50.2
 30
0.0
 11
59.0
 21
51.0
 31
0.0
  0
LINE
  5
13D
330
1E
100
AcDbEntity
  8
0
100
AcDbLine
 10
59.0
 20
50.2
 30
0.0
 11
59.3562
 21
50.2
 31
0.0
  0
LINE
  5
13E
330
1E
100
AcDbEntity
  8
0
100
AcDbLine
 10
59.0
 20
50.2
 30
0.0
 11
59.5
 21
49.7
 31
0.0
  0
LINE
  5
13F
330
1E
100
AcDbEntity
  8
0
100
AcDbLine
 10
155.6
 20
49.2
 30
0.0
 11
159.9
 21
58.2
 31
0.0
  0
LINE
  5
140
330
1E
100
AcDbEntity
  8
0
100
AcDbLine
 10
159.9
 20
58.2
 30
0.0
 11
163.1999999999999
 21
67.9
 31
0.0
  0
LINE
  5
141
330
1E
100
AcDbEntity
  8
0
100
AcDbLine
 10
169.1
 20
54.4
 30
0.0
 11
172.8
 21
65.3
 31
0.0
  0
LINE
  5
142
330
1E
100
AcDbEntity
  8
0
100
AcDbLine
 10
26.2
 20
40.6
 30
0.0
 11
32.9
 21
32.9
 31
0.0
  0
LINE
  5
143
330
1E
100
AcDbEntity
  8
0
100
AcDbLine
 10
20.4
 20
49.2
 30
0.0
 11
26.2
 21
40.6
 31
0.0
  0
LINE
  5
144
330
1E
100
AcDbEntity
  8
0
100
AcDbLine
 10
60.5
 20
58.3
 30
0.0
 11
63.3
 21
65.2
 31
0.0
  0
LINE
  5
145
330
1E
100
AcDbEntity
  8
0
100
AcDbLine
 10
59.6
 20
58.6
 30
0.0
 11
62.5
 21
65.7
 31
0.0
  0
LINE
  5
146
330
1E
100
AcDbEntity
  8
0
100
AcDbLine
 10
59.1
 20
58.7
 30
0.0
 11
62.0
 21
65.9
 31
0.0
  0
LINE
  5
147
330
1E
100
AcDbEntity
  8
0
100
AcDbLine
 10
79.5
 20
59.5
 30
0.0
 11
82.0
 21
61.4223
 31
0.0
  0
LINE
  5
148
330
1E
100
AcDbEntity
  8
0
100
AcDbLine
 10
70.2
 20
61.2
 30
0.0
 11
73.5
 21
65.5
 31
0.0
  0
LINE
  5
149
330
1E
100
AcDbEntity
  8
0
100
AcDbLine
 10
70.7
 20
60.89999999999999
 30
0.0
 11
73.9
 21
65.09999999999999
 31
0.0
  0
LINE
  5
14A
330
1E
100
AcDbEntity
  8
0
100
AcDbLine
 10
78.7
 20
60.3
 30
0.0
 11
81.4
 21
62.4
 31
0.0
  0
LINE
  5
14C
330
1E
100
AcDbEntity
  8
0
100
AcDbLine
 10
80.6
 20
58.39999999999999
 30
0.0
 11
82.79999999999999
 21
60.1
 31
0.0
  0
LINE
  5
14D
330
1E
100
AcDbEntity
  8
0
100
AcDbLine
 10
82.79999999999999
 20
60.1
 30
0.0
 11
85.29999999999999
 21
61.1
 31
0.0
  0
LINE
  5
14E
330
1E
100
AcDbEntity
  8
0
100
AcDbLine
 10
82.0
 20
61.4223
 30
0.0
 11
84.0098
 21
63.704
 31
0.0
  0
LINE
  5
14F
330
1E
100
AcDbEntity
  8
0
100
AcDbLine
 10
81.4
 20
62.4
 30
0.0
 11
83.2492
 21
64.3928
 31
0.0
  0
LINE
  5
150
330
1E
100
AcDbEntity
  8
0
100
AcDbLine
 10
115.5
 20
58.3
 30
0.0
 11
116.316901408451
 21
52.33661971830979
 31
0.0
  0
LINE
  5
151
330
1E
100
AcDbEntity
  8
0
100
AcDbLine
 10
85.29999999999999
 20
61.1
 30
0.0
 11
88.0
 21
61.5
 31
0.0
  0
LINE
  5
152
330
1E
100
AcDbEntity
  8
0
100
AcDbLine
 10
94.0
 20
61.4223
 30
0.0
 11
96.5
 21
59.5
 31
0.0
  0
LINE
  5
153
330
1E
100
AcDbEntity
  8
0
100
AcDbLine
 10
93.2
 20
60.1
 30
0.0
 11
95.4
 21
58.39999999999999
 31
0.0
  0
LINE
  5
154
330
1E
100
AcDbEntity
  8
0
100
AcDbLine
 10
90.7
 20
61.1
 30
0.0
 11
93.2
 21
60.1
 31
0.0
  0
LINE
  5
155
330
1E
100
AcDbEntity
  8
0
100
AcDbLine
 10
91.9902
 20
63.704
 30
0.0
 11
94.0
 21
61.4223
 31
0.0
  0
LINE
  5
156
330
1E
100
AcDbEntity
  8
0
100
AcDbLine
 10
94.59999999999999
 20
62.4
 30
0.0
 11
97.3
 21
60.3
 31
0.0
  0
LINE
  5
157
330
1E
100
AcDbEntity
  8
0
100
AcDbLine
 10
92.7508
 20
64.3928
 30
0.0
 11
94.59999999999999
 21
62.4
 31
0.0
  0
LINE
  5
158
330
1E
100
AcDbEntity
  8
0
100
AcDbLine
 10
88.0
 20
61.5
 30
0.0
 11
90.7
 21
61.1
 31
0.0
  0
LINE
  5
159
330
1E
100
AcDbEntity
  8
0
100
AcDbLine
 10
116.4
 20
58.6
 30
0.0
 11
117.5
 21
51.0
 31
0.0
  0
LINE
  5
15A
330
1E
100
AcDbEntity
  8
0
100
AcDbLine
 10
116.9
 20
58.7
 30
0.0
 11
118.0
 21
51.0
 31
0.0
  0
LINE
  5
15B
330
1E
100
AcDbEntity
  8
0
100
AcDbLine
 10
96.5
 20
59.5
 30
0.0
 11
98.4223
 21
57.0
 31
0.0
  0
LINE
  5
15C
330
1E
100
AcDbEntity
  8
0
100
AcDbLine
 10
105.8
 20
61.2
 30
0.0
 11
107.8
 21
56.29999999999999
 31
0.0
  0
LINE
  5
15D
330
1E
100
AcDbEntity
  8
0
100
AcDbLine
 10
105.2999999999999
 20
60.89999999999999
 30
0.0
 11
107.2999999999999
 21
56.1
 31
0.0
  0
LINE
  5
15E
330
1E
100
AcDbEntity
  8
0
100
AcDbLine
 10
97.3
 20
60.3
 30
0.0
 11
99.40000000000001
 21
57.6
 31
0.0
  0
LINE
  5
160
330
1E
100
AcDbEntity
  8
0
100
AcDbLine
 10
95.4
 20
58.39999999999999
 30
0.0
 11
97.1
 21
56.2
 31
0.0
  0
LINE
  5
161
330
1E
100
AcDbEntity
  8
0
100
AcDbLine
 10
84.0098
 20
63.704
 30
0.0
 11
85.85359999999999
 21
66.45789999999999
 31
0.0
  0
LINE
  5
162
330
1E
100
AcDbEntity
  8
0
100
AcDbLine
 10
111.8
 20
64.7
 30
0.0
 11
114.5
 21
58.1
 31
0.0
  0
LINE
  5
163
330
1E
100
AcDbEntity
  8
0
100
AcDbLine
 10
102.0999999999999
 20
65.09999999999999
 30
0.0
 11
105.2999999999999
 21
60.89999999999999
 31
0.0
  0
LINE
  5
164
330
1E
100
AcDbEntity
  8
0
100
AcDbLine
 10
73.9
 20
65.09999999999999
 30
0.0
 11
78.09999999999999
 21
68.3
 31
0.0
  0
LINE
  5
166
330
1E
100
AcDbEntity
  8
0
100
AcDbLine
 10
112.7
 20
65.2
 30
0.0
 11
115.5
 21
58.3
 31
0.0
  0
LINE
  5
167
330
1E
100
AcDbEntity
  8
0
100
AcDbLine
 10
64.2
 20
64.7
 30
0.0
 11
68.59999999999999
 21
70.4
 31
0.0
  0
LINE
  5
168
330
1E
100
AcDbEntity
  8
0
100
AcDbLine
 10
63.3
 20
65.2
 30
0.0
 11
67.9
 21
71.09999999999999
 31
0.0
  0
LINE
  5
169
330
1E
100
AcDbEntity
  8
0
100
AcDbLine
 10
83.2492
 20
64.3928
 30
0.0
 11
84.7704
 21
67.1139
 31
0.0
  0
LINE
  5
16A
330
1E
100
AcDbEntity
  8
0
100
AcDbLine
 10
172.8
 20
65.3
 30
0.0
 11
175.0999999999999
 21
76.5
 31
0.0
  0
LINE
  5
16B
330
1E
100
AcDbEntity
  8
0
100
AcDbLine
 10
16.1
 20
58.2
 30
0.0
 11
20.4
 21
49.2
 31
0.0
  0
LINE
  5
16C
330
1E
100
AcDbEntity
  8
0
100
AcDbLine
 10
18.3
 20
34.5
 30
0.0
 11
25.89999999999999
 21
25.89999999999999
 31
0.0
  0
LINE
  5
16D
330
1E
100
AcDbEntity
  8
0
100
AcDbLine
 10
6.9
 20
54.4
 30
0.0
 11
11.8
 21
44.2
 31
0.0
  0
LINE
  5
16E
330
1E
100
AcDbEntity
  8
0
100
AcDbLine
 10
0.8999999999999978
 20
99.50000000000001
 30
0.0
 11
3.2
 21
110.6999999999999
 31
0.0
  0
LINE
  5
16F
330
1E
100
AcDbEntity
  8
0
100
AcDbLine
 10
73.5
 20
65.5
 30
0.0
 11
77.8
 21
68.79999999999999
 31
0.0
  0
LINE
  5
170
330
1E
100
AcDbEntity
  8
0
100
AcDbLine
 10
62.5
 20
65.7
 30
0.0
 11
67.2
 21
71.79999999999999
 31
0.0
  0
LINE
  5
171
330
1E
100
AcDbEntity
  8
0
100
AcDbLine
 10
62.0
 20
65.9
 30
0.0
 11
66.79999999999999
 21
72.2
 31
0.0
  0
LINE
  5
172
330
1E
100
AcDbEntity
  8
0
100
AcDbLine
 10
85.85359999999999
 20
66.45789999999999
 30
0.0
 11
86.90000000000001
 21
70.00199999999999
 31
0.0
  0
LINE
  5
173
330
1E
100
AcDbEntity
  8
0
100
AcDbLine
 10
84.7704
 20
67.1139
 30
0.0
 11
85.7
 21
70.0
 31
0.0
  0
LINE
  5
174
330
1E
100
AcDbEntity
  8
0
100
AcDbLine
 10
102.4999999999999
 20
65.5
 30
0.0
 11
105.8
 21
61.2
 31
0.0
  0
LINE
  5
175
330
1E
100
AcDbEntity
  8
0
100
AcDbLine
 10
113.5
 20
65.7
 30
0.0
 11
116.4
 21
58.6
 31
0.0
  0
LINE
  5
176
330
1E
100
AcDbEntity
  8
0
100
AcDbLine
 10
114.0
 20
65.9
 30
0.0
 11
116.9
 21
58.7
 31
0.0
  0
LINE
  5
177
330
1E
100
AcDbEntity
  8
0
100
AcDbLine
 10
90.14639999999999
 20
66.45789999999999
 30
0.0
 11
91.9902
 21
63.704
 31
0.0
  0
LINE
  5
178
330
1E
100
AcDbEntity
  8
0
100
AcDbLine
 10
91.2296
 20
67.1139
 30
0.0
 11
92.7508
 21
64.3928
 31
0.0
  0
LINE
  5
179
330
1E
100
AcDbEntity
  8
0
100
AcDbLine
 10
163.1999999999999
 20
67.9
 30
0.0
 11
165.1999999999999
 21
77.9
 31
0.0
  0
LINE
  5
17A
330
1E
100
AcDbEntity
  8
0
100
AcDbLine
 10
77.8
 20
68.79999999999999
 30
0.0
 11
82.70000000000001
 21
70.8
 31
0.0
  0
LINE
  5
17B
330
1E
100
AcDbEntity
  8
0
100
AcDbLine
 10
78.09999999999999
 20
68.3
 30
0.0
 11
82.9
 21
70.3
 31
0.0
  0
LINE
  5
17C
330
1E
100
AcDbEntity
  8
0
100
AcDbLine
 10
82.70000000000001
 20
70.8
 30
0.0
 11
85.7906145783707
 21
71.20819437827541
 31
0.0
  0
LINE
  5
17D
330
1E
100
AcDbEntity
  8
0
100
AcDbLine
 10
82.9
 20
70.3
 30
0.0
 11
85.75185735512629
 21
70.69143140168399
 31
0.0
  0
LINE
  5
17E
330
1E
100
AcDbEntity
  8
0
100
AcDbLine
 10
68.59999999999999
 20
70.4
 30
0.0
 11
74.29999999999999
 21
74.8
 31
0.0
  0
LINE
  5
17F
330
1E
100
AcDbEntity
  8
0
100
AcDbLine
 10
67.9
 20
71.09999999999999
 30
0.0
 11
73.79999999999999
 21
75.7
 31
0.0
  0
LINE
  5
180
330
1E
100
AcDbEntity
  8
0
100
AcDbLine
 10
67.2
 20
71.79999999999999
 30
0.0
 11
73.3
 21
76.5
 31
0.0
  0
LINE
  5
181
330
1E
100
AcDbEntity
  8
0
100
AcDbLine
 10
66.79999999999999
 20
72.2
 30
0.0
 11
73.09999999999999
 21
77.0
 31
0.0
  0
LINE
  5
182
330
1E
100
AcDbEntity
  8
0
100
AcDbLine
 10
87.2
 20
73.9771
 30
0.0
 11
87.2
 21
75.87479999999999
 31
0.0
  0
LINE
  5
183
330
1E
100
AcDbEntity
  8
0
100
AcDbLine
 10
86.90000000000001
 20
70.00199999999999
 30
0.0
 11
87.2
 21
73.9771
 31
0.0
  0
LINE
  5
184
330
1E
100
AcDbEntity
  8
0
100
AcDbLine
 10
85.7
 20
70.0
 30
0.0
 11
86.0
 21
74.0
 31
0.0
  0
LINE
  5
185
330
1E
100
AcDbEntity
  8
0
100
AcDbLine
 10
90.20938542162928
 20
71.20819437827541
 30
0.0
 11
93.3
 21
70.8
 31
0.0
  0
LINE
  5
186
330
1E
100
AcDbEntity
  8
0
100
AcDbLine
 10
90.24814264487369
 20
70.69143140168399
 30
0.0
 11
93.1
 21
70.3
 31
0.0
  0
LINE
  5
187
330
1E
100
AcDbEntity
  8
0
100
AcDbLine
 10
89.1
 20
70.00199999999999
 30
0.0
 11
90.14639999999999
 21
66.45789999999999
 31
0.0
  0
LINE
  5
188
330
1E
100
AcDbEntity
  8
0
100
AcDbLine
 10
86.0
 20
74.0
 30
0.0
 11
86.2
 21
77.0
 31
0.0
  0
LINE
  5
189
330
1E
100
AcDbEntity
  8
0
100
AcDbLine
 10
88.8
 20
73.9771
 30
0.0
 11
89.1
 21
70.00199999999999
 31
0.0
  0
LINE
  5
18A
330
1E
100
AcDbEntity
  8
0
100
AcDbLine
 10
88.8
 20
73.9771
 30
0.0
 11
88.8
 21
75.87479999999999
 31
0.0
  0
LINE
  5
18B
330
1E
100
AcDbEntity
  8
0
100
AcDbLine
 10
98.2
 20
68.79999999999999
 30
0.0
 11
102.4999999999999
 21
65.5
 31
0.0
  0
LINE
  5
18C
330
1E
100
AcDbEntity
  8
0
100
AcDbLine
 10
97.9
 20
68.3
 30
0.0
 11
102.0999999999999
 21
65.09999999999999
 31
0.0
  0
LINE
  5
18D
330
1E
100
AcDbEntity
  8
0
100
AcDbLine
 10
93.3
 20
70.8
 30
0.0
 11
98.2
 21
68.79999999999999
 31
0.0
  0
LINE
  5
18E
330
1E
100
AcDbEntity
  8
0
100
AcDbLine
 10
93.1
 20
70.3
 30
0.0
 11
97.9
 21
68.3
 31
0.0
  0
LINE
  5
18F
330
1E
100
AcDbEntity
  8
0
100
AcDbLine
 10
107.4
 20
70.4
 30
0.0
 11
111.8
 21
64.7
 31
0.0
  0
LINE
  5
191
330
1E
100
AcDbEntity
  8
0
100
AcDbLine
 10
108.0999999999999
 20
71.09999999999999
 30
0.0
 11
112.7
 21
65.2
 31
0.0
  0
LINE
  5
192
330
1E
100
AcDbEntity
  8
0
100
AcDbLine
 10
108.8
 20
71.79999999999999
 30
0.0
 11
113.5
 21
65.7
 31
0.0
  0
LINE
  5
193
330
1E
100
AcDbEntity
  8
0
100
AcDbLine
 10
90.29999999999999
 20
70.0
 30
0.0
 11
91.2296
 21
67.1139
 31
0.0
  0
LINE
  5
194
330
1E
100
AcDbEntity
  8
0
100
AcDbLine
 10
74.29999999999999
 20
74.8
 30
0.0
 11
80.90000000000001
 21
77.5
 31
0.0
  0
LINE
  5
196
330
1E
100
AcDbEntity
  8
0
100
AcDbLine
 10
73.79999999999999
 20
75.7
 30
0.0
 11
80.7
 21
78.5
 31
0.0
  0
LINE
  5
197
330
1E
100
AcDbEntity
  8
0
100
AcDbLine
 10
73.3
 20
76.5
 30
0.0
 11
80.4
 21
79.40000000000001
 31
0.0
  0
LINE
  5
198
330
1E
100
AcDbEntity
  8
0
100
AcDbLine
 10
86.2
 20
77.0
 30
0.0
 11
86.69999999999999
 21
79.5
 31
0.0
  0
LINE
  5
19C
330
1E
100
AcDbEntity
  8
0
100
AcDbLine
 10
87.2
 20
75.87479999999999
 30
0.0
 11
87.2
 21
77.3747
 31
0.0
  0
LINE
  5
19D
330
1E
100
AcDbEntity
  8
0
100
AcDbLine
 10
87.2
 20
75.87479999999999
 30
0.0
 11
87.2
 21
73.9771
 31
0.0
  0
LINE
  5
19E
330
1E
100
AcDbEntity
  8
0
100
AcDbLine
 10
80.90000000000001
 20
77.5
 30
0.0
 11
86.4565217391304
 21
78.2826086956522
 31
0.0
  0
LINE
  5
19F
330
1E
100
AcDbEntity
  8
0
100
AcDbLine
 10
84.0
 20
78.44444444444441
 30
0.0
 11
84.0
 21
82.7529
 31
0.0
  0
LINE
  5
1A0
330
1E
100
AcDbEntity
  8
0
100
AcDbLine
 10
80.7
 20
78.5
 30
0.0
 11
84.0
 21
78.95205479452051
 31
0.0
  0
LINE
  5
1A4
330
1E
100
AcDbEntity
  8
0
100
AcDbLine
 10
87.2
 20
77.3747
 30
0.0
 11
87.2
 21
78.4708
 31
0.0
  0
LINE
  5
1A5
330
1E
100
AcDbEntity
  8
0
100
AcDbLine
 10
87.2
 20
77.3747
 30
0.0
 11
87.2
 21
75.87479999999999
 31
0.0
  0
LINE
  5
1A6
330
1E
100
AcDbEntity
  8
0
100
AcDbLine
 10
87.2
 20
78.4708
 30
0.0
 11
87.2
 21
79.1246
 31
0.0
  0
LINE
  5
1A7
330
1E
100
AcDbEntity
  8
0
100
AcDbLine
 10
87.2
 20
78.4708
 30
0.0
 11
87.2
 21
77.3747
 31
0.0
  0
LINE
  5
1A8
330
1E
100
AcDbEntity
  8
0
100
AcDbLine
 10
80.4
 20
79.40000000000001
 30
0.0
 11
84.0
 21
79.9210526315789
 31
0.0
  0
LINE
  5
1A9
330
1E
100
AcDbEntity
  8
0
100
AcDbLine
 10
86.69999999999999
 20
79.5
 30
0.0
 11
87.2
 21
80.0
 31
0.0
  0
LINE
  5
1AA
330
1E
100
AcDbEntity
  8
0
100
AcDbLine
 10
87.2
 20
79.1246
 30
0.0
 11
87.2
 21
79.6438
 31
0.0
  0
LINE
  5
1AB
330
1E
100
AcDbEntity
  8
0
100
AcDbLine
 10
87.2
 20
79.1246
 30
0.0
 11
87.2
 21
78.4708
 31
0.0
  0
LINE
  5
1AC
330
1E
100
AcDbEntity
  8
0
100
AcDbLine
 10
87.2
 20
79.6438
 30
0.0
 11
87.2
 21
80.0
 31
0.0
  0
LINE
  5
1AD
330
1E
100
AcDbEntity
  8
0
100
AcDbLine
 10
87.2
 20
79.6438
 30
0.0
 11
87.2
 21
79.1246
 31
0.0
  0
LINE
  5
1AE
330
1E
100
AcDbEntity
  8
0
100
AcDbLine
 10
88.0
 20
83.0
 30
0.0
 11
89.008
 21
83.0
 31
0.0
  0
LINE
  5
1AF
330
1E
100
AcDbEntity
  8
0
100
AcDbLine
 10
86.99200000000001
 20
83.0
 30
0.0
 11
88.0
 21
83.0
 31
0.0
  0
LINE
  5
1B0
330
1E
100
AcDbEntity
  8
0
100
AcDbLine
 10
86.06399999999998
 20
83.0
 30
0.0
 11
86.99200000000001
 21
83.0
 31
0.0
  0
LINE
  5
1B1
330
1E
100
AcDbEntity
  8
0
100
AcDbLine
 10
85.24799999999999
 20
83.0
 30
0.0
 11
86.06399999999998
 21
83.0
 31
0.0
  0
LINE
  5
1B2
330
1E
100
AcDbEntity
  8
0
100
AcDbLine
 10
84.624
 20
83.0
 30
0.0
 11
85.24799999999999
 21
83.0
 31
0.0
  0
LINE
  5
1B3
330
1E
100
AcDbEntity
  8
0
100
AcDbLine
 10
84.23999999999999
 20
83.0
 30
0.0
 11
84.624
 21
83.0
 31
0.0
  0
LINE
  5
1B4
330
1E
100
AcDbEntity
  8
0
100
AcDbLine
 10
84.09600000000001
 20
83.0
 30
0.0
 11
84.23999999999999
 21
83.0
 31
0.0
  0
LINE
  5
1B5
330
1E
100
AcDbEntity
  8
0
100
AcDbLine
 10
84.0
 20
82.7529
 30
0.0
 11
84.0
 21
78.44444444444441
 31
0.0
  0
LINE
  5
1B6
330
1E
100
AcDbEntity
  8
0
100
AcDbLine
 10
84.0
 20
82.7529
 30
0.0
 11
84.09600000000001
 21
83.0
 31
0.0
  0
LINE
  5
1B7
330
1E
100
AcDbEntity
  8
0
100
AcDbLine
 10
87.2
 20
80.0
 30
0.0
 11
88.0
 21
80.0
 31
0.0
  0
LINE
  5
1B8
330
1E
100
AcDbEntity
  8
0
100
AcDbLine
 10
87.2
 20
80.0
 30
0.0
 11
87.2
 21
79.6438
 31
0.0
  0
LINE
  5
1B9
330
1E
100
AcDbEntity
  8
0
100
AcDbLine
 10
88.8
 20
75.87479999999999
 30
0.0
 11
88.8
 21
73.9771
 31
0.0
  0
LINE
  5
1BA
330
1E
100
AcDbEntity
  8
0
100
AcDbLine
 10
88.8
 20
75.87479999999999
 30
0.0
 11
88.8
 21
77.3747
 31
0.0
  0
LINE
  5
1BB
330
1E
100
AcDbEntity
  8
0
100
AcDbLine
 10
88.8
 20
77.3747
 30
0.0
 11
88.8
 21
75.87479999999999
 31
0.0
  0
LINE
  5
1BC
330
1E
100
AcDbEntity
  8
0
100
AcDbLine
 10
88.8
 20
77.3747
 30
0.0
 11
88.8
 21
78.4708
 31
0.0
  0
LINE
  5
1BD
330
1E
100
AcDbEntity
  8
0
100
AcDbLine
 10
88.8
 20
78.4708
 30
0.0
 11
88.8
 21
77.3747
 31
0.0
  0
LINE
  5
1BE
330
1E
100
AcDbEntity
  8
0
100
AcDbLine
 10
88.8
 20
78.4708
 30
0.0
 11
88.8
 21
79.1246
 31
0.0
  0
LINE
  5
1C5
330
1E
100
AcDbEntity
  8
0
100
AcDbLine
 10
88.8
 20
79.1246
 30
0.0
 11
88.8
 21
78.4708
 31
0.0
  0
LINE
  5
1C6
330
1E
100
AcDbEntity
  8
0
100
AcDbLine
 10
88.8
 20
79.1246
 30
0.0
 11
88.8
 21
79.6438
 31
0.0
  0
LINE
  5
1C7
330
1E
100
AcDbEntity
  8
0
100
AcDbLine
 10
88.8
 20
79.6438
 30
0.0
 11
88.8
 21
79.1246
 31
0.0
  0
LINE
  5
1C8
330
1E
100
AcDbEntity
  8
0
100
AcDbLine
 10
88.8
 20
79.6438
 30
0.0
 11
88.8
 21
80.0
 31
0.0
  0
LINE
  5
1C9
330
1E
100
AcDbEntity
  8
0
100
AcDbLine
 10
101.7
 20
74.8
 30
0.0
 11
107.4
 21
70.4
 31
0.0
  0
LINE
  5
1CB
330
1E
100
AcDbEntity
  8
0
100
AcDbLine
 10
102.2
 20
75.7
 30
0.0
 11
108.0999999999999
 21
71.09999999999999
 31
0.0
  0
LINE
  5
1CC
330
1E
100
AcDbEntity
  8
0
100
AcDbLine
 10
102.7
 20
76.5
 30
0.0
 11
108.8
 21
71.79999999999999
 31
0.0
  0
LINE
  5
1CD
330
1E
100
AcDbEntity
  8
0
100
AcDbLine
 10
95.09999999999999
 20
77.5
 30
0.0
 11
101.7
 21
74.8
 31
0.0
  0
LINE
  5
1CE
330
1E
100
AcDbEntity
  8
0
100
AcDbLine
 10
89.5434782608696
 20
78.2826086956522
 30
0.0
 11
95.09999999999999
 21
77.5
 31
0.0
  0
LINE
  5
1D1
330
1E
100
AcDbEntity
  8
0
100
AcDbLine
 10
92.0
 20
78.44444444444441
 30
0.0
 11
92.0
 21
82.7529
 31
0.0
  0
LINE
  5
1D2
330
1E
100
AcDbEntity
  8
0
100
AcDbLine
 10
95.29999999999999
 20
78.5
 30
0.0
 11
102.2
 21
75.7
 31
0.0
  0
LINE
  5
1D3
330
1E
100
AcDbEntity
  8
0
100
AcDbLine
 10
92.0
 20
78.95205479452051
 30
0.0
 11
95.29999999999999
 21
78.5
 31
0.0
  0
LINE
  5
1D4
330
1E
100
AcDbEntity
  8
0
100
AcDbLine
 10
95.6
 20
79.40000000000001
 30
0.0
 11
102.7
 21
76.5
 31
0.0
  0
LINE
  5
1D5
330
1E
100
AcDbEntity
  8
0
100
AcDbLine
 10
92.0
 20
79.9210526315789
 30
0.0
 11
95.6
 21
79.40000000000001
 31
0.0
  0
LINE
  5
1D6
330
1E
100
AcDbEntity
  8
0
100
AcDbLine
 10
95.7
 20
79.90000000000001
 30
0.0
 11
102.9
 21
77.0
 31
0.0
  0
LINE
  5
1D7
330
1E
100
AcDbEntity
  8
0
100
AcDbLine
 10
89.8
 20
77.0
 30
0.0
 11
90.0
 21
74.0
 31
0.0
  0
LINE
  5
1D8
330
1E
100
AcDbEntity
  8
0
100
AcDbLine
 10
89.29999999999999
 20
79.5
 30
0.0
 11
89.8
 21
77.0
 31
0.0
  0
LINE
  5
1D9
330
1E
100
AcDbEntity
  8
0
100
AcDbLine
 10
89.008
 20
83.0
 30
0.0
 11
89.936
 21
83.0
 31
0.0
  0
LINE
  5
1DA
330
1E
100
AcDbEntity
  8
0
100
AcDbLine
 10
89.936
 20
83.0
 30
0.0
 11
90.752
 21
83.0
 31
0.0
  0
LINE
  5
1DB
330
1E
100
AcDbEntity
  8
0
100
AcDbLine
 10
90.752
 20
83.0
 30
0.0
 11
91.376
 21
83.0
 31
0.0
  0
LINE
  5
1DC
330
1E
100
AcDbEntity
  8
0
100
AcDbLine
 10
91.376
 20
83.0
 30
0.0
 11
91.76
 21
83.0
 31
0.0
  0
LINE
  5
1DD
330
1E
100
AcDbEntity
  8
0
100
AcDbLine
 10
92.0
 20
82.7529
 30
0.0
 11
92.0
 21
78.44444444444441
 31
0.0
  0
LINE
  5
1DE
330
1E
100
AcDbEntity
  8
0
100
AcDbLine
 10
91.76
 20
83.0
 30
0.0
 11
91.904
 21
83.0
 31
0.0
  0
LINE
  5
1DF
330
1E
100
AcDbEntity
  8
0
100
AcDbLine
 10
91.904
 20
83.0
 30
0.0
 11
92.0
 21
82.7529
 31
0.0
  0
LINE
  5
1E0
330
1E
100
AcDbEntity
  8
0
100
AcDbLine
 10
92.0
 20
80.4285714285714
 30
0.0
 11
95.7
 21
79.90000000000001
 31
0.0
  0
LINE
  5
1E1
330
1E
100
AcDbEntity
  8
0
100
AcDbLine
 10
88.8
 20
80.0
 30
0.0
 11
89.29999999999999
 21
79.5
 31
0.0
  0
LINE
  5
1E2
330
1E
100
AcDbEntity
  8
0
100
AcDbLine
 10
88.8
 20
80.0
 30
0.0
 11
88.8
 21
79.6438
 31
0.0
  0
LINE
  5
1E3
330
1E
100
AcDbEntity
  8
0
100
AcDbLine
 10
88.0
 20
80.0
 30
0.0
 11
88.8
 21
80.0
 31
0.0
  0
LINE
  5
1E4
330
1E
100
AcDbEntity
  8
0
100
AcDbLine
 10
90.0
 20
74.0
 30
0.0
 11
90.29999999999999
 21
70.0
 31
0.0
  0
LINE
  5
1E5
330
1E
100
AcDbEntity
  8
0
100
AcDbLine
 10
165.1999999999999
 20
77.9
 30
0.0
 11
166.0
 21
88.0
 31
0.0
  0
LINE
  5
1E6
330
1E
100
AcDbEntity
  8
0
100
AcDbLine
 10
12.8
 20
67.9
 30
0.0
 11
16.1
 21
58.2
 31
0.0
  0
LINE
  5
1E7
330
1E
100
AcDbEntity
  8
0
100
AcDbLine
 10
10.8
 20
77.9
 30
0.0
 11
12.8
 21
67.9
 31
0.0
  0
LINE
  5
1E8
330
1E
100
AcDbEntity
  8
0
100
AcDbLine
 10
12.8
 20
108.0999999999999
 30
0.0
 11
16.1
 21
117.7999999999999
 31
0.0
  0
LINE
  5
1E9
330
1E
100
AcDbEntity
  8
0
100
AcDbLine
 10
10.8
 20
98.1
 30
0.0
 11
12.8
 21
108.0999999999999
 31
0.0
  0
LINE
  5
1EA
330
1E
100
AcDbEntity
  8
0
100
AcDbLine
 10
16.1
 20
117.7999999999999
 30
0.0
 11
20.4
 21
126.8
 31
0.0
  0
LINE
  5
1EB
330
1E
100
AcDbEntity
  8
0
100
AcDbLine
 10
11.8
 20
131.8
 30
0.0
 11
18.3
 21
141.5
 31
0.0
  0
LINE
  5
1EC
330
1E
100
AcDbEntity
  8
0
100
AcDbLine
 10
6.9
 20
121.5999999999999
 30
0.0
 11
11.8
 21
131.8
 31
0.0
  0
LINE
  5
1ED
330
1E
100
AcDbEntity
  8
0
100
AcDbLine
 10
26.2
 20
135.4
 30
0.0
 11
32.9
 21
143.1
 31
0.0
  0
LINE
  5
1EE
330
1E
100
AcDbEntity
  8
0
100
AcDbLine
 10
20.4
 20
126.8
 30
0.0
 11
26.2
 21
135.4
 31
0.0
  0
LINE
  5
1EF
330
1E
100
AcDbEntity
  8
0
100
AcDbLine
 10
18.3
 20
141.5
 30
0.0
 11
25.89999999999999
 21
150.0999999999999
 31
0.0
  0
LINE
  5
1F0
330
1E
100
AcDbEntity
  8
0
100
AcDbLine
 10
3.2
 20
110.6999999999999
 30
0.0
 11
6.9
 21
121.5999999999999
 31
0.0
  0
LINE
  5
1F1
330
1E
100
AcDbEntity
  8
0
100
AcDbLine
 10
32.9
 20
143.1
 30
0.0
 11
40.6
 21
149.8
 31
0.0
  0
LINE
  5
1F2
330
1E
100
AcDbEntity
  8
0
100
AcDbLine
 10
40.6
 20
149.8
 30
0.0
 11
49.2
 21
155.6
 31
0.0
  0
LINE
  5
1F3
330
1E
100
AcDbEntity
  8
0
100
AcDbLine
 10
49.2
 20
155.6
 30
0.0
 11
58.2
 21
159.9
 31
0.0
  0
LINE
  5
1F4
330
1E
100
AcDbEntity
  8
0
100
AcDbLine
 10
58.2
 20
159.9
 30
0.0
 11
67.9
 21
163.1999999999999
 31
0.0
  0
LINE
  5
1F5
330
1E
100
AcDbEntity
  8
0
100
AcDbLine
 10
75.27
 20
112.27
 30
0.0
 11
79.00669999999999
 21
109.357
 31
0.0
  0
LINE
  5
1F6
330
1E
100
AcDbEntity
  8
0
100
AcDbLine
 10
74.8267
 20
111.827
 30
0.0
 11
78.68999999999999
 21
108.85
 31
0.0
  0
LINE
  5
1F7
330
1E
100
AcDbEntity
  8
0
100
AcDbLine
 10
75.7133
 20
112.7129999999999
 30
0.0
 11
79.3233
 21
109.927
 31
0.0
  0
LINE
  5
1FA
330
1E
100
AcDbEntity
  8
0
100
AcDbLine
 10
69.3167
 20
125.0
 30
0.0
 11
70.0133
 21
120.187
 31
0.0
  0
LINE
  5
1FB
330
1E
100
AcDbEntity
  8
0
100
AcDbLine
 10
69.3167
 20
125.0
 30
0.0
 11
70.0133
 21
129.813
 31
0.0
  0
LINE
  5
1FE
330
1E
100
AcDbEntity
  8
0
100
AcDbLine
 10
72.9267
 20
116.3229999999999
 30
0.0
 11
75.7133
 21
112.7129999999999
 31
0.0
  0
LINE
  5
1FF
330
1E
100
AcDbEntity
  8
0
100
AcDbLine
 10
72.3567
 20
116.007
 30
0.0
 11
75.27
 21
112.27
 31
0.0
  0
LINE
  5
200
330
1E
100
AcDbEntity
  8
0
100
AcDbLine
 10
71.84999999999999
 20
115.69
 30
0.0
 11
74.8267
 21
111.827
 31
0.0
  0
LINE
  5
201
330
1E
100
AcDbEntity
  8
0
100
AcDbLine
 10
70.58329999999999
 20
129.6229999999999
 30
0.0
 11
72.3567
 21
133.993
 31
0.0
  0
LINE
  5
202
330
1E
100
AcDbEntity
  8
0
100
AcDbLine
 10
70.0133
 20
129.813
 30
0.0
 11
71.84999999999999
 21
134.3099999999999
 31
0.0
  0
LINE
  5
203
330
1E
100
AcDbEntity
  8
0
100
AcDbLine
 10
71.2167
 20
129.497
 30
0.0
 11
72.9267
 21
133.677
 31
0.0
  0
LINE
  5
205
330
1E
100
AcDbEntity
  8
0
100
AcDbLine
 10
72.9267
 20
133.677
 30
0.0
 11
75.7133
 21
137.287
 31
0.0
  0
LINE
  5
206
330
1E
100
AcDbEntity
  8
0
100
AcDbLine
 10
72.3567
 20
133.993
 30
0.0
 11
75.27
 21
137.7299999999999
 31
0.0
  0
LINE
  5
207
330
1E
100
AcDbEntity
  8
0
100
AcDbLine
 10
71.84999999999999
 20
134.3099999999999
 30
0.0
 11
74.8267
 21
138.173
 31
0.0
  0
LINE
  5
208
330
1E
100
AcDbEntity
  8
0
100
AcDbLine
 10
75.0
 20
125.137
 30
0.0
 11
75.49240000000001
 21
121.7539999999999
 31
0.0
  0
LINE
  5
209
330
1E
100
AcDbEntity
  8
0
100
AcDbLine
 10
75.0
 20
125.137
 30
0.0
 11
75.49240000000001
 21
128.521
 31
0.0
  0
LINE
  5
20A
330
1E
100
AcDbEntity
  8
0
100
AcDbLine
 10
74.8267
 20
138.173
 30
0.0
 11
78.68999999999999
 21
141.15
 31
0.0
  0
LINE
  5
20C
330
1E
100
AcDbEntity
  8
0
100
AcDbLine
 10
76.18179999999999
 20
125.137
 30
0.0
 11
76.5758
 21
122.052
 31
0.0
  0
LINE
  5
20D
330
1E
100
AcDbEntity
  8
0
100
AcDbLine
 10
76.18179999999999
 20
125.137
 30
0.0
 11
76.5758
 21
128.2229999999999
 31
0.0
  0
LINE
  5
20E
330
1E
100
AcDbEntity
  8
0
100
AcDbLine
 10
75.49240000000001
 20
121.7539999999999
 30
0.0
 11
76.7727
 21
118.569
 31
0.0
  0
LINE
  5
20F
330
1E
100
AcDbEntity
  8
0
100
AcDbLine
 10
75.49240000000001
 20
128.521
 30
0.0
 11
76.7727
 21
131.706
 31
0.0
  0
LINE
  5
211
330
1E
100
AcDbEntity
  8
0
100
AcDbLine
 10
75.7133
 20
137.287
 30
0.0
 11
79.3233
 21
140.0729999999999
 31
0.0
  0
LINE
  5
212
330
1E
100
AcDbEntity
  8
0
100
AcDbLine
 10
75.27
 20
137.7299999999999
 30
0.0
 11
79.00669999999999
 21
140.643
 31
0.0
  0
LINE
  5
215
330
1E
100
AcDbEntity
  8
0
100
AcDbLine
 10
71.2167
 20
120.5029999999999
 30
0.0
 11
72.9267
 21
116.3229999999999
 31
0.0
  0
LINE
  5
216
330
1E
100
AcDbEntity
  8
0
100
AcDbLine
 10
70.58329999999999
 20
125.0
 30
0.0
 11
71.2167
 21
120.5029999999999
 31
0.0
  0
LINE
  5
217
330
1E
100
AcDbEntity
  8
0
100
AcDbLine
 10
70.58329999999999
 20
125.0
 30
0.0
 11
71.2167
 21
129.497
 31
0.0
  0
LINE
  5
218
330
1E
100
AcDbEntity
  8
0
100
AcDbLine
 10
70.58329999999999
 20
120.377
 30
0.0
 11
72.3567
 21
116.007
 31
0.0
  0
LINE
  5
219
330
1E
100
AcDbEntity
  8
0
100
AcDbLine
 10
69.95
 20
125.0
 30
0.0
 11
70.58329999999999
 21
120.377
 31
0.0
  0
LINE
  5
21A
330
1E
100
AcDbEntity
  8
0
100
AcDbLine
 10
69.95
 20
125.0
 30
0.0
 11
70.58329999999999
 21
129.6229999999999
 31
0.0
  0
LINE
  5
21B
330
1E
100
AcDbEntity
  8
0
100
AcDbLine
 10
70.0133
 20
120.187
 30
0.0
 11
71.84999999999999
 21
115.69
 31
0.0
  0
LINE
  5
21E
330
1E
100
AcDbEntity
  8
0
100
AcDbLine
 10
67.9
 20
163.1999999999999
 30
0.0
 11
77.9
 21
165.1999999999999
 31
0.0
  0
LINE
  5
21F
330
1E
100
AcDbEntity
  8
0
100
AcDbLine
 10
65.3
 20
172.8
 30
0.0
 11
76.5
 21
175.0999999999999
 31
0.0
  0
LINE
  5
220
330
1E
100
AcDbEntity
  8
0
100
AcDbLine
 10
88.0
 20
106.95
 30
0.0
 11
92.6233
 21
107.583
 31
0.0
  0
LINE
  5
221
330
1E
100
AcDbEntity
  8
0
100
AcDbLine
 10
88.0
 20
106.317
 30
0.0
 11
92.8133
 21
107.013
 31
0.0
  0
LINE
  5
222
330
1E
100
AcDbEntity
  8
0
100
AcDbLine
 10
92.8133
 20
107.013
 30
0.0
 11
97.31000000000001
 21
108.85
 31
0.0
  0
LINE
  5
224
330
1E
100
AcDbEntity
  8
0
100
AcDbLine
 10
88.0
 20
107.583
 30
0.0
 11
92.4967
 21
108.217
 31
0.0
  0
LINE
  5
225
330
1E
100
AcDbEntity
  8
0
100
AcDbLine
 10
92.6233
 20
107.583
 30
0.0
 11
96.99330000000001
 21
109.357
 31
0.0
  0
LINE
  5
226
330
1E
100
AcDbEntity
  8
0
100
AcDbLine
 10
83.37670000000001
 20
107.583
 30
0.0
 11
88.0
 21
106.95
 31
0.0
  0
LINE
  5
227
330
1E
100
AcDbEntity
  8
0
100
AcDbLine
 10
83.1867
 20
107.013
 30
0.0
 11
88.0
 21
106.317
 31
0.0
  0
LINE
  5
229
330
1E
100
AcDbEntity
  8
0
100
AcDbLine
 10
83.50329999999999
 20
108.217
 30
0.0
 11
88.0
 21
107.583
 31
0.0
  0
LINE
  5
22A
330
1E
100
AcDbEntity
  8
0
100
AcDbLine
 10
79.3233
 20
109.927
 30
0.0
 11
83.50329999999999
 21
108.217
 31
0.0
  0
LINE
  5
22B
330
1E
100
AcDbEntity
  8
0
100
AcDbLine
 10
79.00669999999999
 20
109.357
 30
0.0
 11
83.37670000000001
 21
107.583
 31
0.0
  0
LINE
  5
22C
330
1E
100
AcDbEntity
  8
0
100
AcDbLine
 10
78.68999999999999
 20
108.85
 30
0.0
 11
83.1867
 21
107.013
 31
0.0
  0
LINE
  5
22D
330
1E
100
AcDbEntity
  8
0
100
AcDbLine
 10
82.09090000000001
 20
114.787
 30
0.0
 11
84.94699999999999
 21
113.592
 31
0.0
  0
LINE
  5
22F
330
1E
100
AcDbEntity
  8
0
100
AcDbLine
 10
79.6288
 20
116.6779999999999
 30
0.0
 11
82.09090000000001
 21
114.787
 31
0.0
  0
LINE
  5
231
330
1E
100
AcDbEntity
  8
0
100
AcDbLine
 10
80.7121
 20
117.772
 30
0.0
 11
82.87879999999999
 21
116.081
 31
0.0
  0
LINE
  5
232
330
1E
100
AcDbEntity
  8
0
100
AcDbLine
 10
82.87879999999999
 20
116.081
 30
0.0
 11
85.3409
 21
115.0849999999999
 31
0.0
  0
LINE
  5
233
330
1E
100
AcDbEntity
  8
0
100
AcDbLine
 10
78.8409
 20
115.882
 30
0.0
 11
81.5
 21
113.7909999999999
 31
0.0
  0
LINE
  5
234
330
1E
100
AcDbEntity
  8
0
100
AcDbLine
 10
81.5
 20
113.7909999999999
 30
0.0
 11
84.65149999999999
 21
112.4979999999999
 31
0.0
  0
LINE
  5
237
330
1E
100
AcDbEntity
  8
0
100
AcDbLine
 10
92.4967
 20
108.217
 30
0.0
 11
96.67670000000001
 21
109.927
 31
0.0
  0
LINE
  5
238
330
1E
100
AcDbEntity
  8
0
100
AcDbLine
 10
84.94699999999999
 20
113.592
 30
0.0
 11
88.0
 21
113.1939999999999
 31
0.0
  0
LINE
  5
23A
330
1E
100
AcDbEntity
  8
0
100
AcDbLine
 10
84.65149999999999
 20
112.4979999999999
 30
0.0
 11
88.0
 21
112.0
 31
0.0
  0
LINE
  5
23B
330
1E
100
AcDbEntity
  8
0
100
AcDbLine
 10
88.0
 20
113.1939999999999
 30
0.0
 11
91.05299999999999
 21
113.592
 31
0.0
  0
LINE
  5
23C
330
1E
100
AcDbEntity
  8
0
100
AcDbLine
 10
88.0
 20
112.0
 30
0.0
 11
91.3485
 21
112.4979999999999
 31
0.0
  0
LINE
  5
23E
330
1E
100
AcDbEntity
  8
0
100
AcDbLine
 10
85.3409
 20
115.0849999999999
 30
0.0
 11
88.0
 21
114.687
 31
0.0
  0
LINE
  5
23F
330
1E
100
AcDbEntity
  8
0
100
AcDbLine
 10
88.0
 20
114.687
 30
0.0
 11
90.6591
 21
115.0849999999999
 31
0.0
  0
LINE
  5
240
330
1E
100
AcDbEntity
  8
0
100
AcDbLine
 10
93.90909999999999
 20
114.787
 30
0.0
 11
96.37120000000001
 21
116.6779999999999
 31
0.0
  0
LINE
  5
241
330
1E
100
AcDbEntity
  8
0
100
AcDbLine
 10
91.05299999999999
 20
113.592
 30
0.0
 11
93.90909999999999
 21
114.787
 31
0.0
  0
LINE
  5
242
330
1E
100
AcDbEntity
  8
0
100
AcDbLine
 10
91.3485
 20
112.4979999999999
 30
0.0
 11
94.50000000000001
 21
113.7909999999999
 31
0.0
  0
LINE
  5
245
330
1E
100
AcDbEntity
  8
0
100
AcDbLine
 10
93.1212
 20
116.081
 30
0.0
 11
95.28789999999998
 21
117.772
 31
0.0
  0
LINE
  5
246
330
1E
100
AcDbEntity
  8
0
100
AcDbLine
 10
90.6591
 20
115.0849999999999
 30
0.0
 11
93.1212
 21
116.081
 31
0.0
  0
LINE
  5
247
330
1E
100
AcDbEntity
  8
0
100
AcDbLine
 10
96.37120000000001
 20
116.6779999999999
 30
0.0
 11
98.24240000000001
 21
119.1659999999999
 31
0.0
  0
LINE
  5
248
330
1E
100
AcDbEntity
  8
0
100
AcDbLine
 10
94.50000000000001
 20
113.7909999999999
 30
0.0
 11
97.1591
 21
115.882
 31
0.0
  0
LINE
  5
249
330
1E
100
AcDbEntity
  8
0
100
AcDbLine
 10
95.28789999999998
 20
117.772
 30
0.0
 11
96.9621
 21
119.962
 31
0.0
  0
LINE
  5
24E
330
1E
100
AcDbEntity
  8
0
100
AcDbLine
 10
96.67670000000001
 20
109.927
 30
0.0
 11
100.287
 21
112.7129999999999
 31
0.0
  0
LINE
  5
24F
330
1E
100
AcDbEntity
  8
0
100
AcDbLine
 10
97.1591
 20
115.882
 30
0.0
 11
99.22730000000001
 21
118.569
 31
0.0
  0
LINE
  5
252
330
1E
100
AcDbEntity
  8
0
100
AcDbLine
 10
96.99330000000001
 20
109.357
 30
0.0
 11
100.73
 21
112.27
 31
0.0
  0
LINE
  5
253
330
1E
100
AcDbEntity
  8
0
100
AcDbLine
 10
100.287
 20
112.7129999999999
 30
0.0
 11
103.0729999999999
 21
116.3229999999999
 31
0.0
  0
LINE
  5
254
330
1E
100
AcDbEntity
  8
0
100
AcDbLine
 10
100.73
 20
112.27
 30
0.0
 11
103.6429999999999
 21
116.007
 31
0.0
  0
LINE
  5
255
330
1E
100
AcDbEntity
  8
0
100
AcDbLine
 10
101.1729999999999
 20
111.827
 30
0.0
 11
104.15
 21
115.69
 31
0.0
  0
LINE
  5
256
330
1E
100
AcDbEntity
  8
0
100
AcDbLine
 10
103.0729999999999
 20
116.3229999999999
 30
0.0
 11
104.7829999999999
 21
120.5029999999999
 31
0.0
  0
LINE
  5
258
330
1E
100
AcDbEntity
  8
0
100
AcDbLine
 10
103.6429999999999
 20
116.007
 30
0.0
 11
105.417
 21
120.377
 31
0.0
  0
LINE
  5
259
330
1E
100
AcDbEntity
  8
0
100
AcDbLine
 10
104.15
 20
115.69
 30
0.0
 11
105.987
 21
120.187
 31
0.0
  0
LINE
  5
25C
330
1E
100
AcDbEntity
  8
0
100
AcDbLine
 10
97.31000000000001
 20
108.85
 30
0.0
 11
101.1729999999999
 21
111.827
 31
0.0
  0
LINE
  5
25F
330
1E
100
AcDbEntity
  8
0
100
AcDbLine
 10
77.7576
 20
119.1659999999999
 30
0.0
 11
79.6288
 21
116.6779999999999
 31
0.0
  0
LINE
  5
260
330
1E
100
AcDbEntity
  8
0
100
AcDbLine
 10
76.7727
 20
118.569
 30
0.0
 11
78.8409
 21
115.882
 31
0.0
  0
LINE
  5
261
330
1E
100
AcDbEntity
  8
0
100
AcDbLine
 10
79.03789999999999
 20
119.962
 30
0.0
 11
80.7121
 21
117.772
 31
0.0
  0
LINE
  5
263
330
1E
100
AcDbEntity
  8
0
100
AcDbLine
 10
96.9621
 20
119.962
 30
0.0
 11
97.947
 21
122.45
 31
0.0
  0
LINE
  5
264
330
1E
100
AcDbEntity
  8
0
100
AcDbLine
 10
98.24240000000001
 20
119.1659999999999
 30
0.0
 11
99.4242
 21
122.052
 31
0.0
  0
LINE
  5
265
330
1E
100
AcDbEntity
  8
0
100
AcDbLine
 10
99.22730000000001
 20
118.569
 30
0.0
 11
100.5079999999999
 21
121.7539999999999
 31
0.0
  0
LINE
  5
267
330
1E
100
AcDbEntity
  8
0
100
AcDbLine
 10
104.7829999999999
 20
120.5029999999999
 30
0.0
 11
105.417
 21
125.0
 31
0.0
  0
LINE
  5
268
330
1E
100
AcDbEntity
  8
0
100
AcDbLine
 10
105.417
 20
120.377
 30
0.0
 11
106.0499999999999
 21
125.0
 31
0.0
  0
LINE
  5
269
330
1E
100
AcDbEntity
  8
0
100
AcDbLine
 10
105.987
 20
120.187
 30
0.0
 11
106.6829999999999
 21
125.0
 31
0.0
  0
LINE
  5
26C
330
1E
100
AcDbEntity
  8
0
100
AcDbLine
 10
159.9
 20
117.7999999999999
 30
0.0
 11
163.1999999999999
 21
108.0999999999999
 31
0.0
  0
LINE
  5
26D
330
1E
100
AcDbEntity
  8
0
100
AcDbLine
 10
163.1999999999999
 20
108.0999999999999
 30
0.0
 11
165.1999999999999
 21
98.1
 31
0.0
  0
LINE
  5
26E
330
1E
100
AcDbEntity
  8
0
100
AcDbLine
 10
165.1999999999999
 20
98.1
 30
0.0
 11
166.0
 21
88.0
 31
0.0
  0
LINE
  5
26F
330
1E
100
AcDbEntity
  8
0
100
AcDbLine
 10
76.5758
 20
122.052
 30
0.0
 11
77.7576
 21
119.1659999999999
 31
0.0
  0
LINE
  5
270
330
1E
100
AcDbEntity
  8
0
100
AcDbLine
 10
78.05299999999999
 20
122.45
 30
0.0
 11
79.03789999999999
 21
119.962
 31
0.0
  0
LINE
  5
274
330
1E
100
AcDbEntity
  8
0
100
AcDbLine
 10
78.05299999999999
 20
127.825
 30
0.0
 11
79.03789999999999
 21
130.3129999999999
 31
0.0
  0
LINE
  5
275
330
1E
100
AcDbEntity
  8
0
100
AcDbLine
 10
77.65909999999999
 20
125.137
 30
0.0
 11
78.05299999999999
 21
127.825
 31
0.0
  0
LINE
  5
276
330
1E
100
AcDbEntity
  8
0
100
AcDbLine
 10
77.65909999999999
 20
125.137
 30
0.0
 11
78.05299999999999
 21
122.45
 31
0.0
  0
LINE
  5
277
330
1E
100
AcDbEntity
  8
0
100
AcDbLine
 10
97.947
 20
122.45
 30
0.0
 11
98.34090000000001
 21
125.137
 31
0.0
  0
LINE
  5
279
330
1E
100
AcDbEntity
  8
0
100
AcDbLine
 10
76.5758
 20
128.2229999999999
 30
0.0
 11
77.7576
 21
131.109
 31
0.0
  0
LINE
  5
27B
330
1E
100
AcDbEntity
  8
0
100
AcDbLine
 10
97.947
 20
127.825
 30
0.0
 11
98.34090000000001
 21
125.137
 31
0.0
  0
LINE
  5
27C
330
1E
100
AcDbEntity
  8
0
100
AcDbLine
 10
99.4242
 20
128.2229999999999
 30
0.0
 11
99.8182
 21
125.137
 31
0.0
  0
LINE
  5
27D
330
1E
100
AcDbEntity
  8
0
100
AcDbLine
 10
99.4242
 20
122.052
 30
0.0
 11
99.8182
 21
125.137
 31
0.0
  0
LINE
  5
27E
330
1E
100
AcDbEntity
  8
0
100
AcDbLine
 10
100.5079999999999
 20
121.7539999999999
 30
0.0
 11
101.0
 21
125.137
 31
0.0
  0
LINE
  5
280
330
1E
100
AcDbEntity
  8
0
100
AcDbLine
 10
79.03789999999999
 20
130.3129999999999
 30
0.0
 11
80.7121
 21
132.502
 31
0.0
  0
LINE
  5
281
330
1E
100
AcDbEntity
  8
0
100
AcDbLine
 10
100.5079999999999
 20
128.521
 30
0.0
 11
101.0
 21
125.137
 31
0.0
  0
LINE
  5
282
330
1E
100
AcDbEntity
  8
0
100
AcDbLine
 10
77.7576
 20
131.109
 30
0.0
 11
79.6288
 21
133.597
 31
0.0
  0
LINE
  5
283
330
1E
100
AcDbEntity
  8
0
100
AcDbLine
 10
76.7727
 20
131.706
 30
0.0
 11
78.8409
 21
134.393
 31
0.0
  0
LINE
  5
284
330
1E
100
AcDbEntity
  8
0
100
AcDbLine
 10
80.7121
 20
132.502
 30
0.0
 11
82.87879999999999
 21
134.1939999999999
 31
0.0
  0
LINE
  5
286
330
1E
100
AcDbEntity
  8
0
100
AcDbLine
 10
79.6288
 20
133.597
 30
0.0
 11
82.09090000000001
 21
135.5099999999999
 31
0.0
  0
LINE
  5
287
330
1E
100
AcDbEntity
  8
0
100
AcDbLine
 10
78.8409
 20
134.393
 30
0.0
 11
81.5
 21
136.4829999999999
 31
0.0
  0
LINE
  5
288
330
1E
100
AcDbEntity
  8
0
100
AcDbLine
 10
82.87879999999999
 20
134.1939999999999
 30
0.0
 11
85.3409
 21
135.19
 31
0.0
  0
LINE
  5
289
330
1E
100
AcDbEntity
  8
0
100
AcDbLine
 10
85.3409
 20
135.19
 30
0.0
 11
88.0
 21
135.5879999999999
 31
0.0
  0
LINE
  5
28A
330
1E
100
AcDbEntity
  8
0
100
AcDbLine
 10
93.1212
 20
134.1939999999999
 30
0.0
 11
95.28789999999998
 21
132.502
 31
0.0
  0
LINE
  5
28B
330
1E
100
AcDbEntity
  8
0
100
AcDbLine
 10
90.6591
 20
135.19
 30
0.0
 11
93.1212
 21
134.1939999999999
 31
0.0
  0
LINE
  5
28C
330
1E
100
AcDbEntity
  8
0
100
AcDbLine
 10
96.37120000000001
 20
133.597
 30
0.0
 11
98.24240000000001
 21
131.109
 31
0.0
  0
LINE
  5
28D
330
1E
100
AcDbEntity
  8
0
100
AcDbLine
 10
97.1591
 20
134.393
 30
0.0
 11
99.22730000000001
 21
131.706
 31
0.0
  0
LINE
  5
28F
330
1E
100
AcDbEntity
  8
0
100
AcDbLine
 10
95.28789999999998
 20
132.502
 30
0.0
 11
96.9621
 21
130.3129999999999
 31
0.0
  0
LINE
  5
290
330
1E
100
AcDbEntity
  8
0
100
AcDbLine
 10
98.24240000000001
 20
131.109
 30
0.0
 11
99.4242
 21
128.2229999999999
 31
0.0
  0
LINE
  5
291
330
1E
100
AcDbEntity
  8
0
100
AcDbLine
 10
99.22730000000001
 20
131.706
 30
0.0
 11
100.5079999999999
 21
128.521
 31
0.0
  0
LINE
  5
293
330
1E
100
AcDbEntity
  8
0
100
AcDbLine
 10
96.9621
 20
130.3129999999999
 30
0.0
 11
97.947
 21
127.825
 31
0.0
  0
LINE
  5
294
330
1E
100
AcDbEntity
  8
0
100
AcDbLine
 10
100.54
 20
128.357
 30
0.0
 11
100.620158917473
 21
127.7495654944529
 31
0.0
  0
LINE
  5
295
330
1E
100
AcDbEntity
  8
0
100
AcDbLine
 10
103.0729999999999
 20
133.677
 30
0.0
 11
104.7829999999999
 21
129.497
 31
0.0
  0
LINE
  5
296
330
1E
100
AcDbEntity
  8
0
100
AcDbLine
 10
104.7829999999999
 20
129.497
 30
0.0
 11
105.417
 21
125.0
 31
0.0
  0
LINE
  5
299
330
1E
100
AcDbEntity
  8
0
100
AcDbLine
 10
103.6429999999999
 20
133.993
 30
0.0
 11
105.417
 21
129.6229999999999
 31
0.0
  0
LINE
  5
29A
330
1E
100
AcDbEntity
  8
0
100
AcDbLine
 10
105.417
 20
129.6229999999999
 30
0.0
 11
106.0499999999999
 21
125.0
 31
0.0
  0
LINE
  5
29B
330
1E
100
AcDbEntity
  8
0
100
AcDbLine
 10
104.15
 20
134.3099999999999
 30
0.0
 11
105.987
 21
129.813
 31
0.0
  0
LINE
  5
29C
330
1E
100
AcDbEntity
  8
0
100
AcDbLine
 10
105.987
 20
129.813
 30
0.0
 11
106.6829999999999
 21
125.0
 31
0.0
  0
LINE
  5
29F
330
1E
100
AcDbEntity
  8
0
100
AcDbLine
 10
82.09090000000001
 20
135.5099999999999
 30
0.0
 11
84.07020000000001
 21
137.7809999999999
 31
0.0
  0
LINE
  5
2A0
330
1E
100
AcDbEntity
  8
0
100
AcDbLine
 10
93.90909999999999
 20
135.5099999999999
 30
0.0
 11
96.37120000000001
 21
133.597
 31
0.0
  0
LINE
  5
2A1
330
1E
100
AcDbEntity
  8
0
100
AcDbLine
 10
81.5
 20
136.4829999999999
 30
0.0
 11
83.3211
 21
138.467
 31
0.0
  0
LINE
  5
2A2
330
1E
100
AcDbEntity
  8
0
100
AcDbLine
 10
94.50000000000001
 20
136.4829999999999
 30
0.0
 11
97.1591
 21
134.393
 31
0.0
  0
LINE
  5
2A3
330
1E
100
AcDbEntity
  8
0
100
AcDbLine
 10
88.0
 20
135.5879999999999
 30
0.0
 11
90.6591
 21
135.19
 31
0.0
  0
LINE
  5
2A4
330
1E
100
AcDbEntity
  8
0
100
AcDbLine
 10
100.287
 20
137.287
 30
0.0
 11
103.0729999999999
 21
133.677
 31
0.0
  0
LINE
  5
2A5
330
1E
100
AcDbEntity
  8
0
100
AcDbLine
 10
84.07020000000001
 20
137.7809999999999
 30
0.0
 11
85.8861
 21
140.522
 31
0.0
  0
LINE
  5
2A6
330
1E
100
AcDbEntity
  8
0
100
AcDbLine
 10
91.9298
 20
137.7809999999999
 30
0.0
 11
93.90909999999999
 21
135.5099999999999
 31
0.0
  0
LINE
  5
2A8
330
1E
100
AcDbEntity
  8
0
100
AcDbLine
 10
100.73
 20
137.7299999999999
 30
0.0
 11
103.6429999999999
 21
133.993
 31
0.0
  0
LINE
  5
2A9
330
1E
100
AcDbEntity
  8
0
100
AcDbLine
 10
83.3211
 20
138.467
 30
0.0
 11
84.8193
 21
141.175
 31
0.0
  0
LINE
  5
2AA
330
1E
100
AcDbEntity
  8
0
100
AcDbLine
 10
92.67889999999999
 20
138.467
 30
0.0
 11
94.50000000000001
 21
136.4829999999999
 31
0.0
  0
LINE
  5
2AB
330
1E
100
AcDbEntity
  8
0
100
AcDbLine
 10
96.67670000000001
 20
140.0729999999999
 30
0.0
 11
100.287
 21
137.287
 31
0.0
  0
LINE
  5
2AC
330
1E
100
AcDbEntity
  8
0
100
AcDbLine
 10
101.1729999999999
 20
138.173
 30
0.0
 11
104.15
 21
134.3099999999999
 31
0.0
  0
LINE
  5
2AD
330
1E
100
AcDbEntity
  8
0
100
AcDbLine
 10
79.3233
 20
140.0729999999999
 30
0.0
 11
83.50329999999999
 21
141.7829999999999
 31
0.0
  0
LINE
  5
2AE
330
1E
100
AcDbEntity
  8
0
100
AcDbLine
 10
85.8861
 20
140.522
 30
0.0
 11
86.9167
 21
144.049
 31
0.0
  0
LINE
  5
2AF
330
1E
100
AcDbEntity
  8
0
100
AcDbLine
 10
90.1139
 20
140.522
 30
0.0
 11
91.9298
 21
137.7809999999999
 31
0.0
  0
LINE
  5
2B0
330
1E
100
AcDbEntity
  8
0
100
AcDbLine
 10
96.99330000000001
 20
140.643
 30
0.0
 11
100.73
 21
137.7299999999999
 31
0.0
  0
LINE
  5
2B1
330
1E
100
AcDbEntity
  8
0
100
AcDbLine
 10
97.31000000000001
 20
141.15
 30
0.0
 11
101.1729999999999
 21
138.173
 31
0.0
  0
LINE
  5
2B3
330
1E
100
AcDbEntity
  8
0
100
AcDbLine
 10
79.00669999999999
 20
140.643
 30
0.0
 11
83.37670000000001
 21
142.4169999999999
 31
0.0
  0
LINE
  5
2B4
330
1E
100
AcDbEntity
  8
0
100
AcDbLine
 10
84.8193
 20
141.175
 30
0.0
 11
85.73480000000001
 21
144.0469999999999
 31
0.0
  0
LINE
  5
2B5
330
1E
100
AcDbEntity
  8
0
100
AcDbLine
 10
91.18070000000001
 20
141.175
 30
0.0
 11
92.67889999999999
 21
138.467
 31
0.0
  0
LINE
  5
2B7
330
1E
100
AcDbEntity
  8
0
100
AcDbLine
 10
78.68999999999999
 20
141.15
 30
0.0
 11
83.1867
 21
142.987
 31
0.0
  0
LINE
  5
2B9
330
1E
100
AcDbEntity
  8
0
100
AcDbLine
 10
149.8
 20
135.4
 30
0.0
 11
155.6
 21
126.8
 31
0.0
  0
LINE
  5
2BA
330
1E
100
AcDbEntity
  8
0
100
AcDbLine
 10
155.6
 20
126.8
 30
0.0
 11
159.9
 21
117.7999999999999
 31
0.0
  0
LINE
  5
2BB
330
1E
100
AcDbEntity
  8
0
100
AcDbLine
 10
92.4967
 20
141.7829999999999
 30
0.0
 11
96.67670000000001
 21
140.0729999999999
 31
0.0
  0
LINE
  5
2BC
330
1E
100
AcDbEntity
  8
0
100
AcDbLine
 10
90.9158396298751
 20
142.005889113052
 30
0.0
 11
92.4967
 21
141.7829999999999
 31
0.0
  0
LINE
  5
2BF
330
1E
100
AcDbEntity
  8
0
100
AcDbLine
 10
92.6233
 20
142.4169999999999
 30
0.0
 11
96.99330000000001
 21
140.643
 31
0.0
  0
LINE
  5
2C0
330
1E
100
AcDbEntity
  8
0
100
AcDbLine
 10
83.50329999999999
 20
141.7829999999999
 30
0.0
 11
85.08416037012491
 21
142.005889113052
 31
0.0
  0
LINE
  5
2C1
330
1E
100
AcDbEntity
  8
0
100
AcDbLine
 10
90.7008889774185
 20
142.6802072712769
 30
0.0
 11
92.6233
 21
142.4169999999999
 31
0.0
  0
LINE
  5
2C2
330
1E
100
AcDbEntity
  8
0
100
AcDbLine
 10
92.8133
 20
142.987
 30
0.0
 11
97.31000000000001
 21
141.15
 31
0.0
  0
LINE
  5
2C4
330
1E
100
AcDbEntity
  8
0
100
AcDbLine
 10
83.37670000000001
 20
142.4169999999999
 30
0.0
 11
85.2991110225815
 21
142.6802072712769
 31
0.0
  0
LINE
  5
2C5
330
1E
100
AcDbEntity
  8
0
100
AcDbLine
 10
83.1867
 20
142.987
 30
0.0
 11
85.503705574015
 21
143.322037475228
 31
0.0
  0
LINE
  5
2C6
330
1E
100
AcDbEntity
  8
0
100
AcDbLine
 10
86.9167
 20
144.049
 30
0.0
 11
87.21210000000001
 21
148.0059999999999
 31
0.0
  0
LINE
  5
2C7
330
1E
100
AcDbEntity
  8
0
100
AcDbLine
 10
85.73480000000001
 20
144.0469999999999
 30
0.0
 11
86.0303
 21
148.028
 31
0.0
  0
LINE
  5
2C8
330
1E
100
AcDbEntity
  8
0
100
AcDbLine
 10
87.21210000000001
 20
148.0059999999999
 30
0.0
 11
87.21210000000001
 21
149.894
 31
0.0
  0
LINE
  5
2C9
330
1E
100
AcDbEntity
  8
0
100
AcDbLine
 10
89.08329999999999
 20
144.049
 30
0.0
 11
90.1139
 21
140.522
 31
0.0
  0
LINE
  5
2CA
330
1E
100
AcDbEntity
  8
0
100
AcDbLine
 10
86.0303
 20
148.028
 30
0.0
 11
86.2273
 21
151.0139999999999
 31
0.0
  0
LINE
  5
2CB
330
1E
100
AcDbEntity
  8
0
100
AcDbLine
 10
88.7879
 20
148.0059999999999
 30
0.0
 11
89.08329999999999
 21
144.049
 31
0.0
  0
LINE
  5
2CC
330
1E
100
AcDbEntity
  8
0
100
AcDbLine
 10
88.7879
 20
148.0059999999999
 30
0.0
 11
88.7879
 21
149.894
 31
0.0
  0
LINE
  5
2CD
330
1E
100
AcDbEntity
  8
0
100
AcDbLine
 10
90.26519999999999
 20
144.0469999999999
 30
0.0
 11
91.18070000000001
 21
141.175
 31
0.0
  0
LINE
  5
2CE
330
1E
100
AcDbEntity
  8
0
100
AcDbLine
 10
86.2273
 20
151.0139999999999
 30
0.0
 11
86.71969999999999
 21
153.502
 31
0.0
  0
LINE
  5
2D2
330
1E
100
AcDbEntity
  8
0
100
AcDbLine
 10
87.21210000000001
 20
149.894
 30
0.0
 11
87.21210000000001
 21
151.387
 31
0.0
  0
LINE
  5
2D3
330
1E
100
AcDbEntity
  8
0
100
AcDbLine
 10
87.21210000000001
 20
149.894
 30
0.0
 11
87.21210000000001
 21
148.0059999999999
 31
0.0
  0
LINE
  5
2D7
330
1E
100
AcDbEntity
  8
0
100
AcDbLine
 10
87.21210000000001
 20
151.387
 30
0.0
 11
87.21210000000001
 21
152.4779999999999
 31
0.0
  0
LINE
  5
2D8
330
1E
100
AcDbEntity
  8
0
100
AcDbLine
 10
87.21210000000001
 20
151.387
 30
0.0
 11
87.21210000000001
 21
149.894
 31
0.0
  0
LINE
  5
2D9
330
1E
100
AcDbEntity
  8
0
100
AcDbLine
 10
87.21210000000001
 20
152.4779999999999
 30
0.0
 11
87.21210000000001
 21
153.129
 31
0.0
  0
LINE
  5
2DA
330
1E
100
AcDbEntity
  8
0
100
AcDbLine
 10
87.21210000000001
 20
152.4779999999999
 30
0.0
 11
87.21210000000001
 21
151.387
 31
0.0
  0
LINE
  5
2DB
330
1E
100
AcDbEntity
  8
0
100
AcDbLine
 10
86.71969999999999
 20
153.502
 30
0.0
 11
87.21210000000001
 21
154.0
 31
0.0
  0
LINE
  5
2DC
330
1E
100
AcDbEntity
  8
0
100
AcDbLine
 10
87.21210000000001
 20
153.129
 30
0.0
 11
87.21210000000001
 21
153.645
 31
0.0
  0
LINE
  5
2DD
330
1E
100
AcDbEntity
  8
0
100
AcDbLine
 10
87.21210000000001
 20
153.129
 30
0.0
 11
87.21210000000001
 21
152.4779999999999
 31
0.0
  0
LINE
  5
2DE
330
1E
100
AcDbEntity
  8
0
100
AcDbLine
 10
87.21210000000001
 20
153.645
 30
0.0
 11
87.21210000000001
 21
154.0
 31
0.0
  0
LINE
  5
2DF
330
1E
100
AcDbEntity
  8
0
100
AcDbLine
 10
87.21210000000001
 20
153.645
 30
0.0
 11
87.21210000000001
 21
153.129
 31
0.0
  0
LINE
  5
2E0
330
1E
100
AcDbEntity
  8
0
100
AcDbLine
 10
87.21210000000001
 20
154.0
 30
0.0
 11
88.0
 21
154.0
 31
0.0
  0
LINE
  5
2E1
330
1E
100
AcDbEntity
  8
0
100
AcDbLine
 10
87.21210000000001
 20
154.0
 30
0.0
 11
87.21210000000001
 21
153.645
 31
0.0
  0
LINE
  5
2E2
330
1E
100
AcDbEntity
  8
0
100
AcDbLine
 10
88.7879
 20
149.894
 30
0.0
 11
88.7879
 21
148.0059999999999
 31
0.0
  0
LINE
  5
2E3
330
1E
100
AcDbEntity
  8
0
100
AcDbLine
 10
88.7879
 20
149.894
 30
0.0
 11
88.7879
 21
151.387
 31
0.0
  0
LINE
  5
2E4
330
1E
100
AcDbEntity
  8
0
100
AcDbLine
 10
88.7879
 20
151.387
 30
0.0
 11
88.7879
 21
149.894
 31
0.0
  0
LINE
  5
2E5
330
1E
100
AcDbEntity
  8
0
100
AcDbLine
 10
88.7879
 20
151.387
 30
0.0
 11
88.7879
 21
152.4779999999999
 31
0.0
  0
LINE
  5
2E6
330
1E
100
AcDbEntity
  8
0
100
AcDbLine
 10
88.7879
 20
152.4779999999999
 30
0.0
 11
88.7879
 21
151.387
 31
0.0
  0
LINE
  5
2E7
330
1E
100
AcDbEntity
  8
0
100
AcDbLine
 10
88.7879
 20
152.4779999999999
 30
0.0
 11
88.7879
 21
153.129
 31
0.0
  0
LINE
  5
2EE
330
1E
100
AcDbEntity
  8
0
100
AcDbLine
 10
88.7879
 20
153.129
 30
0.0
 11
88.7879
 21
152.4779999999999
 31
0.0
  0
LINE
  5
2EF
330
1E
100
AcDbEntity
  8
0
100
AcDbLine
 10
88.7879
 20
153.129
 30
0.0
 11
88.7879
 21
153.645
 31
0.0
  0
LINE
  5
2F0
330
1E
100
AcDbEntity
  8
0
100
AcDbLine
 10
88.7879
 20
153.645
 30
0.0
 11
88.7879
 21
153.129
 31
0.0
  0
LINE
  5
2F1
330
1E
100
AcDbEntity
  8
0
100
AcDbLine
 10
88.7879
 20
153.645
 30
0.0
 11
88.7879
 21
154.0
 31
0.0
  0
LINE
  5
2F2
330
1E
100
AcDbEntity
  8
0
100
AcDbLine
 10
89.7727
 20
151.0139999999999
 30
0.0
 11
89.96970000000001
 21
148.028
 31
0.0
  0
LINE
  5
2F3
330
1E
100
AcDbEntity
  8
0
100
AcDbLine
 10
89.28029999999999
 20
153.502
 30
0.0
 11
89.7727
 21
151.0139999999999
 31
0.0
  0
LINE
  5
2F4
330
1E
100
AcDbEntity
  8
0
100
AcDbLine
 10
88.7879
 20
154.0
 30
0.0
 11
89.28029999999999
 21
153.502
 31
0.0
  0
LINE
  5
2F5
330
1E
100
AcDbEntity
  8
0
100
AcDbLine
 10
88.7879
 20
154.0
 30
0.0
 11
88.7879
 21
153.645
 31
0.0
  0
LINE
  5
2F6
330
1E
100
AcDbEntity
  8
0
100
AcDbLine
 10
88.0
 20
154.0
 30
0.0
 11
88.7879
 21
154.0
 31
0.0
  0
LINE
  5
2F7
330
1E
100
AcDbEntity
  8
0
100
AcDbLine
 10
89.96970000000001
 20
148.028
 30
0.0
 11
90.26519999999999
 21
144.0469999999999
 31
0.0
  0
LINE
  5
2F8
330
1E
100
AcDbEntity
  8
0
100
AcDbLine
 10
90.49629442598499
 20
143.322037475228
 30
0.0
 11
92.8133
 21
142.987
 31
0.0
  0
LINE
  5
2FA
330
1E
100
AcDbEntity
  8
0
100
AcDbLine
 10
135.4
 20
149.8
 30
0.0
 11
143.1
 21
143.1
 31
0.0
  0
LINE
  5
2FB
330
1E
100
AcDbEntity
  8
0
100
AcDbLine
 10
126.8
 20
155.6
 30
0.0
 11
135.4
 21
149.8
 31
0.0
  0
LINE
  5
2FC
330
1E
100
AcDbEntity
  8
0
100
AcDbLine
 10
117.7999999999999
 20
159.9
 30
0.0
 11
126.8
 21
155.6
 31
0.0
  0
LINE
  5
2FD
330
1E
100
AcDbEntity
  8
0
100
AcDbLine
 10
108.0999999999999
 20
163.1999999999999
 30
0.0
 11
117.7999999999999
 21
159.9
 31
0.0
  0
LINE
  5
2FE
330
1E
100
AcDbEntity
  8
0
100
AcDbLine
 10
98.1
 20
165.1999999999999
 30
0.0
 11
108.0999999999999
 21
163.1999999999999
 31
0.0
  0
LINE
  5
2FF
330
1E
100
AcDbEntity
  8
0
100
AcDbLine
 10
143.1
 20
143.1
 30
0.0
 11
149.8
 21
135.4
 31
0.0
  0
LINE
  5
300
330
1E
100
AcDbEntity
  8
0
100
AcDbLine
 10
157.6999999999999
 20
141.5
 30
0.0
 11
164.1999999999999
 21
131.8
 31
0.0
  0
LINE
  5
301
330
1E
100
AcDbEntity
  8
0
100
AcDbLine
 10
164.1999999999999
 20
131.8
 30
0.0
 11
169.1
 21
121.5999999999999
 31
0.0
  0
LINE
  5
302
330
1E
100
AcDbEntity
  8
0
100
AcDbLine
 10
169.1
 20
121.5999999999999
 30
0.0
 11
172.8
 21
110.6999999999999
 31
0.0
  0
LINE
  5
303
330
1E
100
AcDbEntity
  8
0
100
AcDbLine
 10
172.8
 20
110.6999999999999
 30
0.0
 11
175.0999999999999
 21
99.50000000000001
 31
0.0
  0
LINE
  5
304
330
1E
100
AcDbEntity
  8
0
100
AcDbLine
 10
88.0
 20
166.0
 30
0.0
 11
98.1
 21
165.1999999999999
 31
0.0
  0
LINE
  5
305
330
1E
100
AcDbEntity
  8
0
100
AcDbLine
 10
99.50000000000001
 20
175.0999999999999
 30
0.0
 11
110.6999999999999
 21
172.8
 31
0.0
  0
LINE
  5
306
330
1E
100
AcDbEntity
  8
0
100
AcDbLine
 10
121.5999999999999
 20
169.1
 30
0.0
 11
131.8
 21
164.1999999999999
 31
0.0
  0
LINE
  5
307
330
1E
100
AcDbEntity
  8
0
100
AcDbLine
 10
88.0
 20
176.0
 30
0.0
 11
99.50000000000001
 21
175.0999999999999
 31
0.0
  0
LINE
  5
308
330
1E
100
AcDbEntity
  8
0
100
AcDbLine
 10
77.9
 20
165.1999999999999
 30
0.0
 11
88.0
 21
166.0
 31
0.0
  0
LINE
  5
309
330
1E
100
AcDbEntity
  8
0
100
AcDbLine
 10
76.5
 20
175.0999999999999
 30
0.0
 11
88.0
 21
176.0
 31
0.0
  0
LINE
  5
30A
330
1E
100
AcDbEntity
  8
0
100
AcDbLine
 10
10.0
 20
88.0
 30
0.0
 11
10.8
 21
77.9
 31
0.0
  0
LINE
  5
30B
330
1E
100
AcDbEntity
  8
0
100
AcDbLine
 10
10.0
 20
88.0
 30
0.0
 11
10.8
 21
98.1
 31
0.0
  0
LINE
  5
30C
330
1E
100
AcDbEntity
  8
0
100
AcDbLine
 10
0.8999999999999978
 20
76.5
 30
0.0
 11
3.2
 21
65.3
 31
0.0
  0
LINE
  5
30D
330
1E
100
AcDbEntity
  8
0
100
AcDbLine
 10
3.2
 20
65.3
 30
0.0
 11
6.9
 21
54.4
 31
0.0
  0
LINE
  5
30E
330
1E
100
AcDbEntity
  8
0
100
AcDbLine
 10
-0.0000000000000024
 20
88.0
 30
0.0
 11
0.8999999999999978
 21
76.5
 31
0.0
  0
LINE
  5
30F
330
1E
100
AcDbEntity
  8
0
100
AcDbLine
 10
-0.0000000000000024
 20
88.0
 30
0.0
 11
0.8999999999999978
 21
99.50000000000001
 31
0.0
  0
LINE
  5
314
330
1E
100
AcDbEntity
  8
0
100
AcDbLine
 10
121.5999999999999
 20
169.1
 30
0.0
 11
110.6999999999999
 21
172.8
 31
0.0
  0
LINE
  5
315
330
1E
100
AcDbEntity
  8
0
100
AcDbLine
 10
65.3
 20
3.19999999999999
 30
0.0
 11
76.5
 21
0.8999999999999921
 31
0.0
  0
LINE
  5
316
330
1E
100
AcDbEntity
  8
0
100
AcDbLine
 10
18.3
 20
34.5
 30
0.0
 11
11.8
 21
44.2
 31
0.0
  0
LINE
  5
317
330
1E
100
AcDbEntity
  8
0
100
AcDbLine
 10
25.89999999999999
 20
150.0999999999999
 30
0.0
 11
32.96145254520718
 21
156.3788648210947
 31
0.0
  0
LINE
  5
318
330
1E
100
AcDbEntity
  8
0
100
AcDbLine
 10
32.96145254520718
 20
156.3788648210947
 30
0.0
 11
42.3275150462963
 21
162.9367204094624
 31
0.0
  0
LINE
  5
319
330
1E
100
AcDbEntity
  8
0
100
AcDbLine
 10
42.3275150462963
 20
162.9367204094624
 30
0.0
 11
49.12834957682878
 21
166.5137326987269
 31
0.0
  0
LINE
  5
31A
330
1E
100
AcDbEntity
  8
0
100
AcDbLine
 10
49.12834957682878
 20
166.5137326987269
 30
0.0
 11
56.88368799725186
 21
170.0311279650975
 31
0.0
  0
LINE
  5
31B
330
1E
100
AcDbEntity
  8
0
100
AcDbLine
 10
56.88368799725186
 20
170.0311279650975
 30
0.0
 11
65.3
 21
172.8
 31
0.0
  0
LINE
  5
31C
330
1E
100
AcDbEntity
  8
0
100
AcDbLine
 10
131.8
 20
164.1999999999999
 30
0.0
 11
139.0753439067063
 21
159.9849293477639
 31
0.0
  0
LINE
  5
31D
330
1E
100
AcDbEntity
  8
0
100
AcDbLine
 10
139.0753439067063
 20
159.9849293477639
 30
0.0
 11
144.6533043420289
 21
155.8718829004861
 31
0.0
  0
LINE
  5
31E
330
1E
100
AcDbEntity
  8
0
100
AcDbLine
 10
144.6533043420289
 20
155.8718829004861
 30
0.0
 11
150.6103500919633
 21
150.4058611589071
 31
0.0
  0
LINE
  5
31F
330
1E
100
AcDbEntity
  8
0
100
AcDbLine
 10
150.6103500919633
 20
150.4058611589071
 30
0.0
 11
154.7261267655072
 21
145.8598625844189
 31
0.0
  0
LINE
  5
320
330
1E
100
AcDbEntity
  8
0
100
AcDbLine
 10
154.7261267655072
 20
145.8598625844189
 30
0.0
 11
157.6999999999999
 21
141.5
 31
0.0
  0
LINE
  5
321
330
1E
100
AcDbEntity
  8
0
100
AcDbLine
 10
175.0999999999999
 20
99.50000000000001
 30
0.0
 11
175.9906049286956
 21
93.18821687018049
 31
0.0
  0
LINE
  5
322
330
1E
100
AcDbEntity
  8
0
100
AcDbLine
 10
175.9906049286956
 20
93.18821687018049
 30
0.0
 11
175.9906049286956
 21
87.61299312095827
 31
0.0
  0
LINE
  5
323
330
1E
100
AcDbEntity
  8
0
100
AcDbLine
 10
175.9906049286956
 20
87.61299312095827
 30
0.0
 11
175.6849106463216
 21
81.12129489103399
 31
0.0
  0
LINE
  5
324
330
1E
100
AcDbEntity
  8
0
100
AcDbLine
 10
175.6849106463216
 20
81.12129489103399
 30
0.0
 11
175.0999999999999
 21
76.5
 31
0.0
  0
LINE
  5
325
330
1E
100
AcDbEntity
  8
0
100
AcDbLine
 10
54.4
 20
6.89999999999999
 30
0.0
 11
44.2
 21
11.8
 31
0.0
  0
LINE
  5
326
330
1E
100
AcDbEntity
  8
0
100
AcDbLine
 10
99.50000000000001
 20
0.8999999999999921
 30
0.0
 11
106.3068456816387
 21
2.184978431500894
 31
0.0
  0
LINE
  5
327
330
1E
100
AcDbEntity
  8
0
100
AcDbLine
 10
106.3068456816387
 20
2.184978431500894
 30
0.0
 11
111.7504270828728
 21
3.379118008136799
 31
0.0
  0
LINE
  5
328
330
1E
100
AcDbEntity
  8
0
100
AcDbLine
 10
111.7504270828728
 20
3.379118008136799
 30
0.0
 11
117.0612383943923
 21
5.148213738401295
 31
0.0
  0
LINE
  5
329
330
1E
100
AcDbEntity
  8
0
100
AcDbLine
 10
117.0612383943923
 20
5.148213738401295
 30
0.0
 11
121.5999999999999
 21
6.89999999999999
 31
0.0
  0
LINE
  5
32A
330
1E
100
AcDbEntity
  8
0
100
AcDbLine
 10
141.5
 20
18.3
 30
0.0
 11
150.0376963266966
 21
25.63246539735837
 31
0.0
  0
LINE
  5
32B
330
1E
100
AcDbEntity
  8
0
100
AcDbLine
 10
150.0376963266966
 20
25.63246539735837
 30
0.0
 11
158.0750968545331
 21
33.89847750391607
 31
0.0
  0
LINE
  5
32C
330
1E
100
AcDbEntity
  8
0
100
AcDbLine
 10
158.0750968545331
 20
33.89847750391607
 30
0.0
 11
163.693473972522
 21
42.78833951066047
 31
0.0
  0
LINE
  5
32D
330
1E
100
AcDbEntity
  8
0
100
AcDbLine
 10
163.693473972522
 20
42.78833951066047
 30
0.0
 11
167.6731571208531
 21
50.43050130410541
 31
0.0
  0
LINE
  5
32E
330
1E
100
AcDbEntity
  8
0
100
AcDbLine
 10
167.6731571208531
 20
50.43050130410541
 30
0.0
 11
169.1
 21
54.4
 31
0.0
  0
LINE
  5
32F
330
1E
100
AcDbEntity
  8
0
100
AcDbLine
 10
102.9
 20
77.0
 30
0.0
 11
109.2189551943276
 21
72.14680534407176
 31
0.0
  0
LINE
  5
330
330
1E
100
AcDbEntity
  8
0
100
AcDbLine
 10
109.2189551943276
 20
72.14680534407176
 30
0.0
 11
114.0
 21
65.9
 31
0.0
  0
LINE
  5
331
330
1E
100
AcDbEntity
  8
0
100
AcDbLine
 10
73.09999999999999
 20
77.0
 30
0.0
 11
80.11552842192054
 21
79.90985990720776
 31
0.0
  0
LINE
  5
332
330
1E
100
AcDbEntity
  8
0
100
AcDbLine
 10
80.11552842192054
 20
79.90985990720776
 30
0.0
 11
83.98139699051785
 21
80.45655375094657
 31
0.0
  0
LINE
  5
333
330
1E
100
AcDbEntity
  8
0
100
AcDbLine
 10
116.9
 20
43.3
 30
0.0
 11
118.0
 21
51.0
 31
0.0
  0
LINE
  5
334
330
1E
100
AcDbEntity
  8
0
100
AcDbLine
 10
66.79999999999999
 20
29.8
 30
0.0
 11
62.0
 21
36.1
 31
0.0
  0
LINE
  5
335
330
1E
100
AcDbEntity
  8
0
100
AcDbLine
 10
95.7
 20
22.1
 30
0.0
 11
102.9584745489717
 21
25.14689699533807
 31
0.0
  0
LINE
  5
336
330
1E
100
AcDbEntity
  8
0
100
AcDbLine
 10
102.9584745489717
 20
25.14689699533807
 30
0.0
 11
109.0856968436271
 21
29.91411037266789
 31
0.0
  0
LINE
  5
337
330
1E
100
AcDbEntity
  8
0
100
AcDbLine
 10
109.0856968436271
 20
29.91411037266789
 30
0.0
 11
114.0
 21
36.1
 31
0.0
  0
ENDSEC
  0
SECTION
  2
OBJECTS
  0
DICTIONARY
  5
C
330
0
100
AcDbDictionary
281
     1
  3
ACAD_GROUP
350
D
  3
ACAD_LAYOUT
350
19
  3
ACAD_MLINESTYLE
350
16
  3
ACAD_PLOTSETTINGS
350
18
  3
ACAD_PLOTSTYLENAME
350
E
  3
AcDbVariableDictionary
350
338
  0
DICTIONARY
  5
D
102
{ACAD_REACTORS
330
C
102
}
330
C
100
AcDbDictionary
281
     1
  0
DICTIONARY
  5
19
102
{ACAD_REACTORS
330
C
102
}
330
C
100
AcDbDictionary
281
     1
  3
Layout1
350
1D
  3
Model
350
21
  0
DICTIONARY
  5
16
102
{ACAD_REACTORS
330
C
102
}
330
C
100
AcDbDictionary
281
     1
  3
Standard
350
17
  0
DICTIONARY
  5
18
102
{ACAD_REACTORS
330
C
102
}
330
C
100
AcDbDictionary
281
     1
  0
ACDBDICTIONARYWDFLT
  5
E
102
{ACAD_REACTORS
330
C
102
}
330
C
100
AcDbDictionary
281
     1
  3
Normal
350
F
100
AcDbDictionaryWithDefault
340
F
  0
DICTIONARY
  5
338
102
{ACAD_REACTORS
330
C
102
}
330
C
100
AcDbDictionary
281
     1
  3
DIMASSOC
350
339
  0
LAYOUT
  5
1D
102
{ACAD_REACTORS
330
19
102
}
330
19
100
AcDbPlotSettings
  1

  2
hp deskjet 980c series
  4

  6

 40
0.0
 41
0.0
 42
0.0
 43
0.0
 44
0.0
 45
0.0
 46
0.0
 47
0.0
 48
0.0
 49
0.0
140
0.0
141
0.0
142
1.0
143
1.0
 70
   688
 72
     0
 73
     0
 74
     5
  7

 75
    16
147
1.0
148
0.0
149
0.0
100
AcDbLayout
  1
Layout1
 70
     1
 71
     1
 10
0.0
 20
0.0
 11
12.0
 21
9.0
 12
0.0
 22
0.0
 32
0.0
 14
1.000000000000000E+20
 24
1.000000000000000E+20
 34
1.000000000000000E+20
 15
-1.000000000000000E+20
 25
-1.000000000000000E+20
 35
-1.000000000000000E+20
146
0.0
 13
0.0
 23
0.0
 33
0.0
 16
1.0
 26
0.0
 36
0.0
 17
0.0
 27
1.0
 37
0.0
 76
     0
330
1A
  0
LAYOUT
  5
21
102
{ACAD_REACTORS
330
19
102
}
330
19
100
AcDbPlotSettings
  1

  2
hp deskjet 980c series
  4

  6

 40
0.0
 41
0.0
 42
0.0
 43
0.0
 44
0.0
 45
0.0
 46
0.0
 47
0.0
 48
0.0
 49
0.0
140
0.0
141
0.0
142
1.0
143
1.0
 70
  1712
 72
     0
 73
     0
 74
     0
  7

 75
     0
147
1.0
148
0.0
149
0.0
100
AcDbLayout
  1
Model
 70
     1
 71
     0
 10
0.0
 20
0.0
 11
12.0
 21
9.0
 12
0.0
 22
0.0
 32
0.0
 14
0.0
 24
0.0
 34
0.0
 15
0.0
 25
0.0
 35
0.0
146
0.0
 13
0.0
 23
0.0
 33
0.0
 16
1.0
 26
0.0
 36
0.0
 17
0.0
 27
1.0
 37
0.0
 76
     0
330
1E
  0
MLINESTYLE
  5
17
102
{ACAD_REACTORS
330
16
102
}
330
16
100
AcDbMlineStyle
  2
STANDARD
 70
     0
  3

 62
   256
 51
90.0
 52
90.0
 71
     2
 49
0.5
 62
   256
  6
BYLAYER
 49
-0.5
 62
   256
  6
BYLAYER
  0
ACDBPLACEHOLDER
  5
F
102
{ACAD_REACTORS
330
E
102
}
330
E
  0
DICTIONARYVAR
  5
339
102
{ACAD_REACTORS
330
338
102
}
330
338
100
DictionaryVariables
280
     0
  1
1
  0
ENDSEC
  0
EOF
