  0
SECTION
  2
HEADER
  9
$ACADVER
  1
AC1015
  9
$ACADMAINTVER
 70
    13
  9
$DWGCODEPAGE
  3
ANSI_1252
  9
$INSBASE
 10
0.0
 20
0.0
 30
0.0
  9
$EXTMIN
 10
-0.0000000000000095
 20
0.249999999999974
 30
0.0
  9
$EXTMAX
 10
421.0
 20
552.7499999999999
 30
0.0
  9
$LIMMIN
 10
0.0
 20
0.0
  9
$LIMMAX
 10
12.0
 20
9.0
  9
$ORTHOMODE
 70
     0
  9
$REGENMODE
 70
     1
  9
$FILLMODE
 70
     1
  9
$QTEXTMODE
 70
     0
  9
$MIRRTEXT
 70
     1
  9
$LTSCALE
 40
1.0
  9
$ATTMODE
 70
     1
  9
$TEXTSIZE
 40
0.2
  9
$TRACEWID
 40
0.05
  9
$TEXTSTYLE
  7
Standard
  9
$CLAYER
  8
0
  9
$CELTYPE
  6
Continuous
  9
$CECOLOR
 62
   256
  9
$CELTSCALE
 40
1.0
  9
$DISPSILH
 70
     0
  9
$DIMSCALE
 40
1.0
  9
$DIMASZ
 40
0.18
  9
$DIMEXO
 40
0.0625
  9
$DIMDLI
 40
0.38
  9
$DIMRND
 40
0.0
  9
$DIMDLE
 40
0.0
  9
$DIMEXE
 40
0.18
  9
$DIMTP
 40
0.0
  9
$DIMTM
 40
0.0
  9
$DIMTXT
 40
0.18
  9
$DIMCEN
 40
0.09
  9
$DIMTSZ
 40
0.0
  9
$DIMTOL
 70
     0
  9
$DIMLIM
 70
     0
  9
$DIMTIH
 70
     1
  9
$DIMTOH
 70
     1
  9
$DIMSE1
 70
     0
  9
$DIMSE2
 70
     0
  9
$DIMTAD
 70
     0
  9
$DIMZIN
 70
     0
  9
$DIMBLK
  1

  9
$DIMASO
 70
     1
  9
$DIMSHO
 70
     1
  9
$DIMPOST
  1

  9
$DIMAPOST
  1

  9
$DIMALT
 70
     0
  9
$DIMALTD
 70
     2
  9
$DIMALTF
 40
25.4
  9
$DIMLFAC
 40
1.0
  9
$DIMTOFL
 70
     0
  9
$DIMTVP
 40
0.0
  9
$DIMTIX
 70
     0
  9
$DIMSOXD
 70
     0
  9
$DIMSAH
 70
     0
  9
$DIMBLK1
  1

  9
$DIMBLK2
  1

  9
$DIMSTYLE
  2
Standard
  9
$DIMCLRD
 70
     0
  9
$DIMCLRE
 70
     0
  9
$DIMCLRT
 70
     0
  9
$DIMTFAC
 40
1.0
  9
$DIMGAP
 40
0.09
  9
$DIMJUST
 70
     0
  9
$DIMSD1
 70
     0
  9
$DIMSD2
 70
     0
  9
$DIMTOLJ
 70
     1
  9
$DIMTZIN
 70
     0
  9
$DIMALTZ
 70
     0
  9
$DIMALTTZ
 70
     0
  9
$DIMUPT
 70
     0
  9
$DIMDEC
 70
     4
  9
$DIMTDEC
 70
     4
  9
$DIMALTU
 70
     2
  9
$DIMALTTD
 70
     2
  9
$DIMTXSTY
  7
Standard
  9
$DIMAUNIT
 70
     0
  9
$DIMADEC
 70
     0
  9
$DIMALTRND
 40
0.0
  9
$DIMAZIN
 70
     0
  9
$DIMDSEP
 70
    46
  9
$DIMATFIT
 70
     3
  9
$DIMFRAC
 70
     0
  9
$DIMLDRBLK
  1

  9
$DIMLUNIT
 70
     2
  9
$DIMLWD
 70
    -2
  9
$DIMLWE
 70
    -2
  9
$DIMTMOVE
 70
     0
  9
$LUNITS
 70
     2
  9
$LUPREC
 70
     4
  9
$SKETCHINC
 40
0.1
  9
$FILLETRAD
 40
0.0
  9
$AUNITS
 70
     0
  9
$AUPREC
 70
     0
  9
$MENU
  1
.
  9
$ELEVATION
 40
0.0
  9
$PELEVATION
 40
0.0
  9
$THICKNESS
 40
0.0
  9
$LIMCHECK
 70
     0
  9
$CHAMFERA
 40
0.0
  9
$CHAMFERB
 40
0.0
  9
$CHAMFERC
 40
0.0
  9
$CHAMFERD
 40
0.0
  9
$SKPOLY
 70
     0
  9
$TDCREATE
 40
2454751.885893727
  9
$TDUCREATE
 40
2454751.802560394
  9
$TDUPDATE
 40
2454751.887933657
  9
$TDUUPDATE
 40
2454751.804600324
  9
$TDINDWG
 40
0.0020403009
  9
$TDUSRTIMER
 40
0.0020403009
  9
$USRTIMER
 70
     1
  9
$ANGBASE
 50
0.0
  9
$ANGDIR
 70
     0
  9
$PDMODE
 70
     0
  9
$PDSIZE
 40
0.0
  9
$PLINEWID
 40
0.0
  9
$SPLFRAME
 70
     0
  9
$SPLINETYPE
 70
     6
  9
$SPLINESEGS
 70
     8
  9
$HANDSEED
  5
50E
  9
$SURFTAB1
 70
     6
  9
$SURFTAB2
 70
     6
  9
$SURFTYPE
 70
     6
  9
$SURFU
 70
     6
  9
$SURFV
 70
     6
  9
$UCSBASE
  2

  9
$UCSNAME
  2

  9
$UCSORG
 10
0.0
 20
0.0
 30
0.0
  9
$UCSXDIR
 10
1.0
 20
0.0
 30
0.0
  9
$UCSYDIR
 10
0.0
 20
1.0
 30
0.0
  9
$UCSORTHOREF
  2

  9
$UCSORTHOVIEW
 70
     1
  9
$UCSORGTOP
 10
0.0
 20
0.0
 30
0.0
  9
$UCSORGBOTTOM
 10
0.0
 20
0.0
 30
0.0
  9
$UCSORGLEFT
 10
0.0
 20
0.0
 30
0.0
  9
$UCSORGRIGHT
 10
0.0
 20
0.0
 30
0.0
  9
$UCSORGFRONT
 10
0.0
 20
0.0
 30
0.0
  9
$UCSORGBACK
 10
0.0
 20
0.0
 30
0.0
  9
$PUCSBASE
  2

  9
$PUCSNAME
  2

  9
$PUCSORG
 10
0.0
 20
0.0
 30
0.0
  9
$PUCSXDIR
 10
1.0
 20
0.0
 30
0.0
  9
$PUCSYDIR
 10
0.0
 20
1.0
 30
0.0
  9
$PUCSORTHOREF
  2

  9
$PUCSORTHOVIEW
 70
     0
  9
$PUCSORGTOP
 10
0.0
 20
0.0
 30
0.0
  9
$PUCSORGBOTTOM
 10
0.0
 20
0.0
 30
0.0
  9
$PUCSORGLEFT
 10
0.0
 20
0.0
 30
0.0
  9
$PUCSORGRIGHT
 10
0.0
 20
0.0
 30
0.0
  9
$PUCSORGFRONT
 10
0.0
 20
0.0
 30
0.0
  9
$PUCSORGBACK
 10
0.0
 20
0.0
 30
0.0
  9
$USERI1
 70
     0
  9
$USERI2
 70
     0
  9
$USERI3
 70
     0
  9
$USERI4
 70
     0
  9
$USERI5
 70
     0
  9
$USERR1
 40
0.0
  9
$USERR2
 40
0.0
  9
$USERR3
 40
0.0
  9
$USERR4
 40
0.0
  9
$USERR5
 40
0.0
  9
$WORLDVIEW
 70
     1
  9
$SHADEDGE
 70
     3
  9
$SHADEDIF
 70
    70
  9
$TILEMODE
 70
     1
  9
$MAXACTVP
 70
    64
  9
$PINSBASE
 10
0.0
 20
0.0
 30
0.0
  9
$PLIMCHECK
 70
     0
  9
$PEXTMIN
 10
1.000000000000000E+20
 20
1.000000000000000E+20
 30
1.000000000000000E+20
  9
$PEXTMAX
 10
-1.000000000000000E+20
 20
-1.000000000000000E+20
 30
-1.000000000000000E+20
  9
$PLIMMIN
 10
0.0
 20
0.0
  9
$PLIMMAX
 10
12.0
 20
9.0
  9
$UNITMODE
 70
     0
  9
$VISRETAIN
 70
     1
  9
$PLINEGEN
 70
     0
  9
$PSLTSCALE
 70
     1
  9
$TREEDEPTH
 70
  3020
  9
$CMLSTYLE
  2
Standard
  9
$CMLJUST
 70
     0
  9
$CMLSCALE
 40
1.0
  9
$PROXYGRAPHICS
 70
     1
  9
$MEASUREMENT
 70
     0
  9
$CELWEIGHT
370
    -1
  9
$ENDCAPS
280
     0
  9
$JOINSTYLE
280
     0
  9
$LWDISPLAY
290
     0
  9
$INSUNITS
 70
     0
  9
$HYPERLINKBASE
  1

  9
$STYLESHEET
  1

  9
$XEDIT
290
     1
  9
$CEPSNTYPE
380
     0
  9
$PSTYLEMODE
290
     1
  9
$FINGERPRINTGUID
  2
{A85DF107-96FC-435B-9970-6DA8FE13B0C1}
  9
$VERSIONGUID
  2
{3AC17D14-AFF1-4DFD-A172-F712F00BC02E}
  9
$EXTNAMES
290
     1
  9
$PSVPSCALE
 40
0.0
  9
$OLESTARTUP
290
     0
  0
ENDSEC
  0
SECTION
  2
CLASSES
  0
CLASS
  1
ACDBDICTIONARYWDFLT
  2
AcDbDictionaryWithDefault
  3
AutoCAD 2000
 90
        0
280
     0
281
     0
  0
CLASS
  1
ACDBPLACEHOLDER
  2
AcDbPlaceHolder
  3
AutoCAD 2000
 90
        0
280
     0
281
     0
  0
CLASS
  1
LAYOUT
  2
AcDbLayout
  3
AutoCAD 2000
 90
        0
280
     0
281
     0
  0
CLASS
  1
DICTIONARYVAR
  2
AcDbDictionaryVar
  3
AutoCAD 2000
 90
        0
280
     0
281
     0
  0
ENDSEC
  0
SECTION
  2
TABLES
  0
TABLE
  2
VPORT
  5
8
330
0
100
AcDbSymbolTable
 70
     2
  0
VPORT
  5
50D
330
8
100
AcDbSymbolTableRecord
100
AcDbViewportTableRecord
  2
*Active
 70
     0
 10
0.0
 20
0.0
 11
1.0
 21
1.0
 12
210.4999999999999
 22
276.5
 13
0.0
 23
0.0
 14
1.0
 24
1.0
 15
0.0
 25
0.0
 16
0.0
 26
0.0
 36
1.0
 17
0.0
 27
0.0
 37
0.0
 40
556.7391304347826
 41
2.078104993597951
 42
50.0
 43
0.0
 44
0.0
 50
0.0
 51
0.0
 71
     0
 72
   100
 73
     1
 74
     3
 75
     0
 76
     0
 77
     0
 78
     0
281
     0
 65
     1
110
0.0
120
0.0
130
0.0
111
1.0
121
0.0
131
0.0
112
0.0
122
1.0
132
0.0
 79
     1
146
0.0
  0
ENDTAB
  0
TABLE
  2
LTYPE
  5
5
330
0
100
AcDbSymbolTable
 70
     1
  0
LTYPE
  5
13
330
5
100
AcDbSymbolTableRecord
100
AcDbLinetypeTableRecord
  2
ByBlock
 70
     0
  3

 72
    65
 73
     0
 40
0.0
  0
LTYPE
  5
14
330
5
100
AcDbSymbolTableRecord
100
AcDbLinetypeTableRecord
  2
ByLayer
 70
     0
  3

 72
    65
 73
     0
 40
0.0
  0
LTYPE
  5
15
330
5
100
AcDbSymbolTableRecord
100
AcDbLinetypeTableRecord
  2
Continuous
 70
     0
  3
Solid line
 72
    65
 73
     0
 40
0.0
  0
ENDTAB
  0
TABLE
  2
LAYER
  5
2
330
0
100
AcDbSymbolTable
 70
     1
  0
LAYER
  5
10
330
2
100
AcDbSymbolTableRecord
100
AcDbLayerTableRecord
  2
0
 70
     0
 62
     7
  6
Continuous
370
    -3
390
F
  0
ENDTAB
  0
TABLE
  2
STYLE
  5
3
330
0
100
AcDbSymbolTable
 70
     1
  0
STYLE
  5
11
330
3
100
AcDbSymbolTableRecord
100
AcDbTextStyleTableRecord
  2
Standard
 70
     0
 40
0.0
 41
1.0
 50
0.0
 71
     0
 42
0.2
  3
txt
  4

  0
ENDTAB
  0
TABLE
  2
VIEW
  5
6
330
0
100
AcDbSymbolTable
 70
     0
  0
ENDTAB
  0
TABLE
  2
UCS
  5
7
330
0
100
AcDbSymbolTable
 70
     0
  0
ENDTAB
  0
TABLE
  2
APPID
  5
9
330
0
100
AcDbSymbolTable
 70
     1
  0
APPID
  5
12
330
9
100
AcDbSymbolTableRecord
100
AcDbRegAppTableRecord
  2
ACAD
 70
     0
  0
ENDTAB
  0
TABLE
  2
DIMSTYLE
  5
A
330
0
100
AcDbSymbolTable
 70
     1
100
AcDbDimStyleTable
 71
     0
  0
DIMSTYLE
105
4FB
330
A
100
AcDbSymbolTableRecord
100
AcDbDimStyleTableRecord
  2
Standard
 70
     0
340
11
  0
ENDTAB
  0
TABLE
  2
BLOCK_RECORD
  5
1
330
0
100
AcDbSymbolTable
 70
     0
  0
BLOCK_RECORD
  5
1E
330
1
100
AcDbSymbolTableRecord
100
AcDbBlockTableRecord
  2
*Model_Space
340
21
  0
BLOCK_RECORD
  5
1A
330
1
100
AcDbSymbolTableRecord
100
AcDbBlockTableRecord
  2
*Paper_Space
340
1D
  0
ENDTAB
  0
ENDSEC
  0
SECTION
  2
BLOCKS
  0
BLOCK
  5
1F
330
1E
100
AcDbEntity
  8
0
100
AcDbBlockBegin
  2
*Model_Space
 70
     0
 10
0.0
 20
0.0
 30
0.0
  3
*Model_Space
  1

  0
ENDBLK
  5
20
330
1E
100
AcDbEntity
  8
0
100
AcDbBlockEnd
  0
BLOCK
  5
1B
330
1A
100
AcDbEntity
 67
     1
  8
0
100
AcDbBlockBegin
  2
*Paper_Space
 70
     0
 10
0.0
 20
0.0
 30
0.0
  3
*Paper_Space
  1

  0
ENDBLK
  5
1C
330
1A
100
AcDbEntity
 67
     1
  8
0
100
AcDbBlockEnd
  0
ENDSEC
  0
SECTION
  2
ENTITIES
  0
LINE
  5
22
330
1E
100
AcDbEntity
  8
0
100
AcDbLine
 10
-0.0000000000000095
 20
122.75
 30
0.0
 11
4.47849999999999
 21
91.13710000000001
 31
0.0
  0
LINE
  5
23
330
1E
100
AcDbEntity
  8
0
100
AcDbLine
 10
4.47849999999999
 20
154.363
 30
0.0
 11
16.4651
 21
183.7369999999999
 31
0.0
  0
LINE
  5
24
330
1E
100
AcDbEntity
  8
0
100
AcDbLine
 10
-0.0000000000000093
 20
122.75
 30
0.0
 11
4.47849999999999
 21
91.13710000000001
 31
0.0
  0
LINE
  5
25
330
1E
100
AcDbEntity
  8
0
100
AcDbLine
 10
61.5134
 20
16.7151
 30
0.0
 11
90.8871
 21
4.728499999999969
 31
0.0
  0
LINE
  5
26
330
1E
100
AcDbEntity
  8
0
100
AcDbLine
 10
35.95969999999999
 20
36.20969999999999
 30
0.0
 11
61.5134
 21
16.7151
 31
0.0
  0
LINE
  5
28
330
1E
100
AcDbEntity
  8
0
100
AcDbLine
 10
61.5134
 20
16.7151
 30
0.0
 11
90.8871
 21
4.728499999999969
 31
0.0
  0
LINE
  5
29
330
1E
100
AcDbEntity
  8
0
100
AcDbLine
 10
4.4785
 20
154.363
 30
0.0
 11
16.4651
 21
183.7369999999999
 31
0.0
  0
LINE
  5
2A
330
1E
100
AcDbEntity
  8
0
100
AcDbLine
 10
61.5134
 20
228.785
 30
0.0
 11
90.8871
 21
240.7709999999999
 31
0.0
  0
LINE
  5
2B
330
1E
100
AcDbEntity
  8
0
100
AcDbLine
 10
35.95969999999999
 20
209.2899999999999
 30
0.0
 11
61.5134
 21
228.785
 31
0.0
  0
LINE
  5
2C
330
1E
100
AcDbEntity
  8
0
100
AcDbLine
 10
16.4651
 20
183.7369999999999
 30
0.0
 11
35.95969999999999
 21
209.2899999999999
 31
0.0
  0
LINE
  5
2D
330
1E
100
AcDbEntity
  8
0
100
AcDbLine
 10
4.47849999999999
 20
91.13710000000001
 30
0.0
 11
16.4651
 21
61.76339999999999
 31
0.0
  0
LINE
  5
2E
330
1E
100
AcDbEntity
  8
0
100
AcDbLine
 10
16.4651
 20
61.76339999999999
 30
0.0
 11
35.95969999999999
 21
36.20969999999999
 31
0.0
  0
LINE
  5
2F
330
1E
100
AcDbEntity
  8
0
100
AcDbLine
 10
4.47849999999999
 20
91.13710000000001
 30
0.0
 11
16.4651
 21
61.76339999999999
 31
0.0
  0
LINE
  5
30
330
1E
100
AcDbEntity
  8
0
100
AcDbLine
 10
26.8821
 20
509.75
 30
0.0
 11
28.5
 21
509.75
 31
0.0
  0
LINE
  5
31
330
1E
100
AcDbEntity
  8
0
100
AcDbLine
 10
26.1429
 20
509.75
 30
0.0
 11
26.8821
 21
509.75
 31
0.0
  0
LINE
  5
32
330
1E
100
AcDbEntity
  8
0
100
AcDbLine
 10
31.0024
 20
507.7499999999999
 30
0.0
 11
32.67069999999999
 21
507.7499999999999
 31
0.0
  0
LINE
  5
33
330
1E
100
AcDbEntity
  8
0
100
AcDbLine
 10
30.3537
 20
507.7499999999999
 30
0.0
 11
31.0024
 21
507.7499999999999
 31
0.0
  0
LINE
  5
34
330
1E
100
AcDbEntity
  8
0
100
AcDbLine
 10
31.4659
 20
508.25
 30
0.0
 11
34.4317
 21
508.25
 31
0.0
  0
LINE
  5
35
330
1E
100
AcDbEntity
  8
0
100
AcDbLine
 10
29.6122
 20
508.25
 30
0.0
 11
31.4659
 21
508.25
 31
0.0
  0
LINE
  5
36
330
1E
100
AcDbEntity
  8
0
100
AcDbLine
 10
31.0024
 20
509.75
 30
0.0
 11
34.061
 21
509.75
 31
0.0
  0
LINE
  5
37
330
1E
100
AcDbEntity
  8
0
100
AcDbLine
 10
29.1488
 20
509.75
 30
0.0
 11
31.0024
 21
509.75
 31
0.0
  0
LINE
  5
38
330
1E
100
AcDbEntity
  8
0
100
AcDbLine
 10
28.9634
 20
508.25
 30
0.0
 11
29.6122
 21
508.25
 31
0.0
  0
LINE
  5
39
330
1E
100
AcDbEntity
  8
0
100
AcDbLine
 10
28.9634
 20
508.25
 30
0.0
 11
30.3537
 21
507.7499999999999
 31
0.0
  0
LINE
  5
3A
330
1E
100
AcDbEntity
  8
0
100
AcDbLine
 10
28.5
 20
509.75
 30
0.0
 11
28.9634
 21
508.25
 31
0.0
  0
LINE
  5
3B
330
1E
100
AcDbEntity
  8
0
100
AcDbLine
 10
28.5
 20
509.75
 30
0.0
 11
29.1488
 21
509.75
 31
0.0
  0
LINE
  5
3C
330
1E
100
AcDbEntity
  8
0
100
AcDbLine
 10
27.94999999999999
 20
510.205
 30
0.0
 11
31.5643
 21
510.205
 31
0.0
  0
LINE
  5
3D
330
1E
100
AcDbEntity
  8
0
100
AcDbLine
 10
25.73209999999999
 20
510.205
 30
0.0
 11
27.94999999999999
 21
510.205
 31
0.0
  0
LINE
  5
3E
330
1E
100
AcDbEntity
  8
0
100
AcDbLine
 10
24.9107
 20
510.205
 30
0.0
 11
25.73209999999999
 21
510.205
 31
0.0
  0
LINE
  5
3F
330
1E
100
AcDbEntity
  8
0
100
AcDbLine
 10
24.9107
 20
510.205
 30
0.0
 11
26.1429
 21
509.75
 31
0.0
  0
LINE
  5
40
330
1E
100
AcDbEntity
  8
0
100
AcDbLine
 10
32.67069999999999
 20
507.7499999999999
 30
0.0
 11
35.35849999999999
 21
507.7499999999999
 31
0.0
  0
LINE
  5
41
330
1E
100
AcDbEntity
  8
0
100
AcDbLine
 10
35.35849999999999
 20
507.7499999999999
 30
0.0
 11
38.9732
 21
507.7499999999999
 31
0.0
  0
LINE
  5
42
330
1E
100
AcDbEntity
  8
0
100
AcDbLine
 10
34.4317
 20
508.25
 30
0.0
 11
38.3244
 21
508.25
 31
0.0
  0
LINE
  5
43
330
1E
100
AcDbEntity
  8
0
100
AcDbLine
 10
34.061
 20
509.75
 30
0.0
 11
38.0463
 21
509.75
 31
0.0
  0
LINE
  5
44
330
1E
100
AcDbEntity
  8
0
100
AcDbLine
 10
38.9732
 20
507.7499999999999
 30
0.0
 11
43.0512
 21
507.7499999999999
 31
0.0
  0
LINE
  5
45
330
1E
100
AcDbEntity
  8
0
100
AcDbLine
 10
38.3244
 20
508.25
 30
0.0
 11
42.7732
 21
508.25
 31
0.0
  0
LINE
  5
46
330
1E
100
AcDbEntity
  8
0
100
AcDbLine
 10
38.0463
 20
509.75
 30
0.0
 11
42.5878
 21
509.75
 31
0.0
  0
LINE
  5
47
330
1E
100
AcDbEntity
  8
0
100
AcDbLine
 10
31.5643
 20
510.205
 30
0.0
 11
36.2464
 21
510.205
 31
0.0
  0
LINE
  5
48
330
1E
100
AcDbEntity
  8
0
100
AcDbLine
 10
24.5
 20
511.568
 30
0.0
 11
24.9107
 21
510.205
 31
0.0
  0
LINE
  5
49
330
1E
100
AcDbEntity
  8
0
100
AcDbLine
 10
24.5
 20
511.568
 30
0.0
 11
24.5
 21
544.7499999999999
 31
0.0
  0
LINE
  5
4A
330
1E
100
AcDbEntity
  8
0
100
AcDbLine
 10
36.2464
 20
510.205
 30
0.0
 11
41.6679
 21
510.205
 31
0.0
  0
LINE
  5
4B
330
1E
100
AcDbEntity
  8
0
100
AcDbLine
 10
43.0512
 20
507.7499999999999
 30
0.0
 11
47.5
 21
507.7499999999999
 31
0.0
  0
LINE
  5
4C
330
1E
100
AcDbEntity
  8
0
100
AcDbLine
 10
51.9488
 20
507.7499999999999
 30
0.0
 11
56.0268
 21
507.7499999999999
 31
0.0
  0
LINE
  5
4D
330
1E
100
AcDbEntity
  8
0
100
AcDbLine
 10
47.5
 20
507.7499999999999
 30
0.0
 11
51.9488
 21
507.7499999999999
 31
0.0
  0
LINE
  5
4E
330
1E
100
AcDbEntity
  8
0
100
AcDbLine
 10
56.0268
 20
507.7499999999999
 30
0.0
 11
59.6415
 21
507.7499999999999
 31
0.0
  0
LINE
  5
4F
330
1E
100
AcDbEntity
  8
0
100
AcDbLine
 10
59.6415
 20
507.7499999999999
 30
0.0
 11
62.3293
 21
507.7499999999999
 31
0.0
  0
LINE
  5
50
330
1E
100
AcDbEntity
  8
0
100
AcDbLine
 10
56.6756
 20
508.25
 30
0.0
 11
60.5683
 21
508.25
 31
0.0
  0
LINE
  5
51
330
1E
100
AcDbEntity
  8
0
100
AcDbLine
 10
52.2268
 20
508.25
 30
0.0
 11
56.6756
 21
508.25
 31
0.0
  0
LINE
  5
52
330
1E
100
AcDbEntity
  8
0
100
AcDbLine
 10
47.5
 20
508.25
 30
0.0
 11
52.2268
 21
508.25
 31
0.0
  0
LINE
  5
53
330
1E
100
AcDbEntity
  8
0
100
AcDbLine
 10
62.3293
 20
507.7499999999999
 30
0.0
 11
63.9976
 21
507.7499999999999
 31
0.0
  0
LINE
  5
54
330
1E
100
AcDbEntity
  8
0
100
AcDbLine
 10
63.9976
 20
507.7499999999999
 30
0.0
 11
64.64629999999999
 21
507.7499999999999
 31
0.0
  0
LINE
  5
55
330
1E
100
AcDbEntity
  8
0
100
AcDbLine
 10
64.64629999999999
 20
507.7499999999999
 30
0.0
 11
66.03660000000001
 21
508.25
 31
0.0
  0
LINE
  5
56
330
1E
100
AcDbEntity
  8
0
100
AcDbLine
 10
60.5683
 20
508.25
 30
0.0
 11
63.5341
 21
508.25
 31
0.0
  0
LINE
  5
57
330
1E
100
AcDbEntity
  8
0
100
AcDbLine
 10
56.9537
 20
509.75
 30
0.0
 11
60.93899999999999
 21
509.75
 31
0.0
  0
LINE
  5
58
330
1E
100
AcDbEntity
  8
0
100
AcDbLine
 10
52.4122
 20
509.75
 30
0.0
 11
56.9537
 21
509.75
 31
0.0
  0
LINE
  5
59
330
1E
100
AcDbEntity
  8
0
100
AcDbLine
 10
47.5
 20
509.75
 30
0.0
 11
52.4122
 21
509.75
 31
0.0
  0
LINE
  5
5A
330
1E
100
AcDbEntity
  8
0
100
AcDbLine
 10
60.93899999999999
 20
509.75
 30
0.0
 11
63.9976
 21
509.75
 31
0.0
  0
LINE
  5
5B
330
1E
100
AcDbEntity
  8
0
100
AcDbLine
 10
63.9976
 20
509.75
 30
0.0
 11
65.8512
 21
509.75
 31
0.0
  0
LINE
  5
5C
330
1E
100
AcDbEntity
  8
0
100
AcDbLine
 10
63.5341
 20
508.25
 30
0.0
 11
65.3878
 21
508.25
 31
0.0
  0
LINE
  5
5D
330
1E
100
AcDbEntity
  8
0
100
AcDbLine
 10
66.5
 20
509.75
 30
0.0
 11
68.11790000000001
 21
509.75
 31
0.0
  0
LINE
  5
5E
330
1E
100
AcDbEntity
  8
0
100
AcDbLine
 10
68.11790000000001
 20
509.75
 30
0.0
 11
68.8571
 21
509.75
 31
0.0
  0
LINE
  5
5F
330
1E
100
AcDbEntity
  8
0
100
AcDbLine
 10
65.8512
 20
509.75
 30
0.0
 11
66.5
 21
509.75
 31
0.0
  0
LINE
  5
60
330
1E
100
AcDbEntity
  8
0
100
AcDbLine
 10
66.03660000000001
 20
508.25
 30
0.0
 11
66.5
 21
509.75
 31
0.0
  0
LINE
  5
61
330
1E
100
AcDbEntity
  8
0
100
AcDbLine
 10
65.3878
 20
508.25
 30
0.0
 11
66.03660000000001
 21
508.25
 31
0.0
  0
LINE
  5
62
330
1E
100
AcDbEntity
  8
0
100
AcDbLine
 10
68.8571
 20
509.75
 30
0.0
 11
70.08929999999999
 21
510.205
 31
0.0
  0
LINE
  5
63
330
1E
100
AcDbEntity
  8
0
100
AcDbLine
 10
42.7732
 20
508.25
 30
0.0
 11
47.5
 21
508.25
 31
0.0
  0
LINE
  5
64
330
1E
100
AcDbEntity
  8
0
100
AcDbLine
 10
63.43569999999999
 20
510.205
 30
0.0
 11
67.05
 21
510.205
 31
0.0
  0
LINE
  5
65
330
1E
100
AcDbEntity
  8
0
100
AcDbLine
 10
67.05
 20
510.205
 30
0.0
 11
69.2679
 21
510.205
 31
0.0
  0
LINE
  5
66
330
1E
100
AcDbEntity
  8
0
100
AcDbLine
 10
69.2679
 20
510.205
 30
0.0
 11
70.08929999999999
 21
510.205
 31
0.0
  0
LINE
  5
67
330
1E
100
AcDbEntity
  8
0
100
AcDbLine
 10
70.08929999999999
 20
510.205
 30
0.0
 11
70.5
 21
511.568
 31
0.0
  0
LINE
  5
68
330
1E
100
AcDbEntity
  8
0
100
AcDbLine
 10
58.7536
 20
510.205
 30
0.0
 11
63.43569999999999
 21
510.205
 31
0.0
  0
LINE
  5
69
330
1E
100
AcDbEntity
  8
0
100
AcDbLine
 10
70.5
 20
511.568
 30
0.0
 11
70.450491230185
 21
542.75
 31
0.0
  0
LINE
  5
6A
330
1E
100
AcDbEntity
  8
0
100
AcDbLine
 10
53.3321
 20
510.205
 30
0.0
 11
58.7536
 21
510.205
 31
0.0
  0
LINE
  5
6B
330
1E
100
AcDbEntity
  8
0
100
AcDbLine
 10
47.5
 20
510.205
 30
0.0
 11
53.3321
 21
510.205
 31
0.0
  0
LINE
  5
6C
330
1E
100
AcDbEntity
  8
0
100
AcDbLine
 10
42.5878
 20
509.75
 30
0.0
 11
47.5
 21
509.75
 31
0.0
  0
LINE
  5
6D
330
1E
100
AcDbEntity
  8
0
100
AcDbLine
 10
41.6679
 20
510.205
 30
0.0
 11
47.5
 21
510.205
 31
0.0
  0
LINE
  5
6E
330
1E
100
AcDbEntity
  8
0
100
AcDbLine
 10
70.5
 20
542.75
 30
0.0
 11
70.5
 21
544.7499999999999
 31
0.0
  0
LINE
  5
6F
330
1E
100
AcDbEntity
  8
0
100
AcDbLine
 10
70.450491230185
 20
542.75
 30
0.0
 11
85.5
 21
542.75
 31
0.0
  0
LINE
  5
70
330
1E
100
AcDbEntity
  8
0
100
AcDbLine
 10
70.5
 20
517.75
 30
0.0
 11
85.5
 21
517.75
 31
0.0
  0
LINE
  5
71
330
1E
100
AcDbEntity
  8
0
100
AcDbLine
 10
70.450491230185
 20
542.75
 30
0.0
 11
70.5
 21
511.568
 31
0.0
  0
LINE
  5
72
330
1E
100
AcDbEntity
  8
0
100
AcDbLine
 10
85.5
 20
542.75
 30
0.0
 11
85.5
 21
491.75
 31
0.0
  0
LINE
  5
73
330
1E
100
AcDbEntity
  8
0
100
AcDbLine
 10
85.5
 20
482.7499999999999
 30
0.0
 11
85.5
 21
489.7499999999999
 31
0.0
  0
LINE
  5
74
330
1E
100
AcDbEntity
  8
0
100
AcDbLine
 10
85.5
 20
482.7499999999999
 30
0.0
 11
92.5
 21
472.75
 31
0.0
  0
LINE
  5
75
330
1E
100
AcDbEntity
  8
0
100
AcDbLine
 10
85.5
 20
482.7499999999999
 30
0.0
 11
86.79999999999999
 21
482.7499999999999
 31
0.0
  0
LINE
  5
76
330
1E
100
AcDbEntity
  8
0
100
AcDbLine
 10
85.5
 20
489.7499999999999
 30
0.0
 11
86.5
 21
490.7499999999999
 31
0.0
  0
LINE
  5
77
330
1E
100
AcDbEntity
  8
0
100
AcDbLine
 10
85.5
 20
489.7499999999999
 30
0.0
 11
86.79999999999999
 21
489.7499999999999
 31
0.0
  0
LINE
  5
78
330
1E
100
AcDbEntity
  8
0
100
AcDbLine
 10
85.5
 20
489.7499999999999
 30
0.0
 11
85.5
 21
482.7499999999999
 31
0.0
  0
LINE
  5
79
330
1E
100
AcDbEntity
  8
0
100
AcDbLine
 10
21.5891
 20
544.7499999999999
 30
0.0
 11
22.538
 21
544.7499999999999
 31
0.0
  0
LINE
  5
7A
330
1E
100
AcDbEntity
  8
0
100
AcDbLine
 10
22.538
 20
544.7499999999999
 30
0.0
 11
24.5
 21
544.7499999999999
 31
0.0
  0
LINE
  5
7B
330
1E
100
AcDbEntity
  8
0
100
AcDbLine
 10
27.5393
 20
544.7499999999999
 30
0.0
 11
31.2357
 21
544.7499999999999
 31
0.0
  0
LINE
  5
7C
330
1E
100
AcDbEntity
  8
0
100
AcDbLine
 10
25.3214
 20
544.7499999999999
 30
0.0
 11
27.5393
 21
544.7499999999999
 31
0.0
  0
LINE
  5
7D
330
1E
100
AcDbEntity
  8
0
100
AcDbLine
 10
24.5
 20
544.7499999999999
 30
0.0
 11
24.5
 21
511.568
 31
0.0
  0
LINE
  5
7E
330
1E
100
AcDbEntity
  8
0
100
AcDbLine
 10
24.5
 20
544.7499999999999
 30
0.0
 11
25.3214
 21
544.7499999999999
 31
0.0
  0
LINE
  5
7F
330
1E
100
AcDbEntity
  8
0
100
AcDbLine
 10
31.2357
 20
544.7499999999999
 30
0.0
 11
36.08209999999999
 21
544.7499999999999
 31
0.0
  0
LINE
  5
80
330
1E
100
AcDbEntity
  8
0
100
AcDbLine
 10
63.7643
 20
544.7499999999999
 30
0.0
 11
67.4607
 21
544.7499999999999
 31
0.0
  0
LINE
  5
81
330
1E
100
AcDbEntity
  8
0
100
AcDbLine
 10
67.4607
 20
544.7499999999999
 30
0.0
 11
69.6786
 21
544.7499999999999
 31
0.0
  0
LINE
  5
82
330
1E
100
AcDbEntity
  8
0
100
AcDbLine
 10
72.462
 20
544.7499999999999
 30
0.0
 11
73.4109
 21
544.7499999999999
 31
0.0
  0
LINE
  5
83
330
1E
100
AcDbEntity
  8
0
100
AcDbLine
 10
70.5
 20
544.7499999999999
 30
0.0
 11
70.5
 21
542.75
 31
0.0
  0
LINE
  5
84
330
1E
100
AcDbEntity
  8
0
100
AcDbLine
 10
70.5
 20
544.7499999999999
 30
0.0
 11
72.462
 21
544.7499999999999
 31
0.0
  0
LINE
  5
85
330
1E
100
AcDbEntity
  8
0
100
AcDbLine
 10
73.4109
 20
544.7499999999999
 30
0.0
 11
78.51649999999999
 21
548.1319999999999
 31
0.0
  0
LINE
  5
86
330
1E
100
AcDbEntity
  8
0
100
AcDbLine
 10
69.6786
 20
544.7499999999999
 30
0.0
 11
70.5
 21
544.7499999999999
 31
0.0
  0
LINE
  5
87
330
1E
100
AcDbEntity
  8
0
100
AcDbLine
 10
58.9179
 20
544.7499999999999
 30
0.0
 11
63.7643
 21
544.7499999999999
 31
0.0
  0
LINE
  5
88
330
1E
100
AcDbEntity
  8
0
100
AcDbLine
 10
53.41429999999999
 20
544.7499999999999
 30
0.0
 11
58.9179
 21
544.7499999999999
 31
0.0
  0
LINE
  5
89
330
1E
100
AcDbEntity
  8
0
100
AcDbLine
 10
47.5
 20
544.7499999999999
 30
0.0
 11
53.41429999999999
 21
544.7499999999999
 31
0.0
  0
LINE
  5
8A
330
1E
100
AcDbEntity
  8
0
100
AcDbLine
 10
36.08209999999999
 20
544.7499999999999
 30
0.0
 11
41.5857
 21
544.7499999999999
 31
0.0
  0
LINE
  5
8B
330
1E
100
AcDbEntity
  8
0
100
AcDbLine
 10
12.5
 20
552.7499999999999
 30
0.0
 11
13.754
 21
552.7499999999999
 31
0.0
  0
LINE
  5
8C
330
1E
100
AcDbEntity
  8
0
100
AcDbLine
 10
12.5
 20
552.7499999999999
 30
0.0
 11
16.48349999999999
 21
548.1319999999999
 31
0.0
  0
LINE
  5
8D
330
1E
100
AcDbEntity
  8
0
100
AcDbLine
 10
13.754
 20
552.7499999999999
 30
0.0
 11
17.17439999999999
 21
552.7499999999999
 31
0.0
  0
LINE
  5
8E
330
1E
100
AcDbEntity
  8
0
100
AcDbLine
 10
17.17439999999999
 20
552.7499999999999
 30
0.0
 11
22.8175
 21
552.7499999999999
 31
0.0
  0
LINE
  5
8F
330
1E
100
AcDbEntity
  8
0
100
AcDbLine
 10
22.8175
 20
552.7499999999999
 30
0.0
 11
30.0912
 21
552.7499999999999
 31
0.0
  0
LINE
  5
90
330
1E
100
AcDbEntity
  8
0
100
AcDbLine
 10
78.51649999999999
 20
548.1319999999999
 30
0.0
 11
82.5
 21
552.7499999999999
 31
0.0
  0
LINE
  5
91
330
1E
100
AcDbEntity
  8
0
100
AcDbLine
 10
81.246
 20
552.7499999999999
 30
0.0
 11
82.5
 21
552.7499999999999
 31
0.0
  0
LINE
  5
92
330
1E
100
AcDbEntity
  8
0
100
AcDbLine
 10
77.8256
 20
552.7499999999999
 30
0.0
 11
81.246
 21
552.7499999999999
 31
0.0
  0
LINE
  5
93
330
1E
100
AcDbEntity
  8
0
100
AcDbLine
 10
72.18250000000001
 20
552.7499999999999
 30
0.0
 11
77.8256
 21
552.7499999999999
 31
0.0
  0
LINE
  5
94
330
1E
100
AcDbEntity
  8
0
100
AcDbLine
 10
64.9088
 20
552.7499999999999
 30
0.0
 11
72.18250000000001
 21
552.7499999999999
 31
0.0
  0
LINE
  5
95
330
1E
100
AcDbEntity
  8
0
100
AcDbLine
 10
56.4723
 20
552.7499999999999
 30
0.0
 11
64.9088
 21
552.7499999999999
 31
0.0
  0
LINE
  5
96
330
1E
100
AcDbEntity
  8
0
100
AcDbLine
 10
47.5
 20
552.7499999999999
 30
0.0
 11
56.4723
 21
552.7499999999999
 31
0.0
  0
LINE
  5
97
330
1E
100
AcDbEntity
  8
0
100
AcDbLine
 10
30.0912
 20
552.7499999999999
 30
0.0
 11
38.5277
 21
552.7499999999999
 31
0.0
  0
LINE
  5
98
330
1E
100
AcDbEntity
  8
0
100
AcDbLine
 10
38.5277
 20
552.7499999999999
 30
0.0
 11
47.5
 21
552.7499999999999
 31
0.0
  0
LINE
  5
99
330
1E
100
AcDbEntity
  8
0
100
AcDbLine
 10
16.48349999999999
 20
548.1319999999999
 30
0.0
 11
21.5891
 21
544.7499999999999
 31
0.0
  0
LINE
  5
9A
330
1E
100
AcDbEntity
  8
0
100
AcDbLine
 10
41.5857
 20
544.7499999999999
 30
0.0
 11
47.5
 21
544.7499999999999
 31
0.0
  0
LINE
  5
9B
330
1E
100
AcDbEntity
  8
0
100
AcDbLine
 10
85.5
 20
552.7499999999999
 30
0.0
 11
86.79999999999999
 21
552.7499999999999
 31
0.0
  0
LINE
  5
9C
330
1E
100
AcDbEntity
  8
0
100
AcDbLine
 10
85.5
 20
552.7499999999999
 30
0.0
 11
85.5
 21
542.75
 31
0.0
  0
LINE
  5
9D
330
1E
100
AcDbEntity
  8
0
100
AcDbLine
 10
85.5
 20
542.75
 30
0.0
 11
85.5
 21
552.7499999999999
 31
0.0
  0
LINE
  5
9E
330
1E
100
AcDbEntity
  8
0
100
AcDbLine
 10
90.8871
 20
240.7709999999999
 30
0.0
 11
112.5
 21
243.833173324814
 31
0.0
  0
LINE
  5
9F
330
1E
100
AcDbEntity
  8
0
100
AcDbLine
 10
90.8871
 20
4.728499999999969
 30
0.0
 11
122.5
 21
0.249999999999974
 31
0.0
  0
LINE
  5
A0
330
1E
100
AcDbEntity
  8
0
100
AcDbLine
 10
90.8871
 20
4.728499999999969
 30
0.0
 11
122.5
 21
0.249999999999974
 31
0.0
  0
LINE
  5
A1
330
1E
100
AcDbEntity
  8
0
100
AcDbLine
 10
92.07259999999999
 20
130.9169999999999
 30
0.0
 11
95.10209999999998
 21
138.425
 31
0.0
  0
LINE
  5
A2
330
1E
100
AcDbEntity
  8
0
100
AcDbLine
 10
92.07259999999999
 20
114.5829999999999
 30
0.0
 11
95.10209999999998
 21
107.075
 31
0.0
  0
LINE
  5
A3
330
1E
100
AcDbEntity
  8
0
100
AcDbLine
 10
90.8871
 20
122.75
 30
0.0
 11
92.07259999999999
 21
114.5829999999999
 31
0.0
  0
LINE
  5
A4
330
1E
100
AcDbEntity
  8
0
100
AcDbLine
 10
90.8871
 20
122.75
 30
0.0
 11
92.07259999999999
 21
130.9169999999999
 31
0.0
  0
LINE
  5
A5
330
1E
100
AcDbEntity
  8
0
100
AcDbLine
 10
93.49999999999999
 20
378.75
 30
0.0
 11
93.85620000000001
 21
381.679
 31
0.0
  0
LINE
  5
A6
330
1E
100
AcDbEntity
  8
0
100
AcDbLine
 10
93.49999999999999
 20
378.75
 30
0.0
 11
93.85620000000001
 21
375.8209999999999
 31
0.0
  0
LINE
  5
A7
330
1E
100
AcDbEntity
  8
0
100
AcDbLine
 10
94.3754
 20
374.7059999999999
 30
0.0
 11
95.02920000000001
 21
373.9369999999999
 31
0.0
  0
LINE
  5
A8
330
1E
100
AcDbEntity
  8
0
100
AcDbLine
 10
93.85620000000001
 20
375.8209999999999
 30
0.0
 11
94.3754
 21
374.7059999999999
 31
0.0
  0
LINE
  5
A9
330
1E
100
AcDbEntity
  8
0
100
AcDbLine
 10
94.50000000000001
 20
420.568
 30
0.0
 11
95.0
 21
419.204
 31
0.0
  0
LINE
  5
AA
330
1E
100
AcDbEntity
  8
0
100
AcDbLine
 10
94.50000000000001
 20
420.568
 30
0.0
 11
94.50000000000001
 21
464.7499999999999
 31
0.0
  0
LINE
  5
AB
330
1E
100
AcDbEntity
  8
0
100
AcDbLine
 10
94.3754
 20
382.794
 30
0.0
 11
95.02920000000001
 21
383.563
 31
0.0
  0
LINE
  5
AC
330
1E
100
AcDbEntity
  8
0
100
AcDbLine
 10
93.85620000000001
 20
381.679
 30
0.0
 11
94.3754
 21
382.794
 31
0.0
  0
LINE
  5
AD
330
1E
100
AcDbEntity
  8
0
100
AcDbLine
 10
94.50000000000001
 20
464.7499999999999
 30
0.0
 11
95.5
 21
464.7499999999999
 31
0.0
  0
LINE
  5
AE
330
1E
100
AcDbEntity
  8
0
100
AcDbLine
 10
94.50000000000001
 20
464.7499999999999
 30
0.0
 11
95.5
 21
465.7499999999999
 31
0.0
  0
LINE
  5
AF
330
1E
100
AcDbEntity
  8
0
100
AcDbLine
 10
94.50000000000001
 20
464.7499999999999
 30
0.0
 11
94.50000000000001
 21
420.568
 31
0.0
  0
LINE
  5
B0
330
1E
100
AcDbEntity
  8
0
100
AcDbLine
 10
94.50000000000001
 20
472.75
 30
0.0
 11
94.50000000000001
 21
466.75
 31
0.0
  0
LINE
  5
B1
330
1E
100
AcDbEntity
  8
0
100
AcDbLine
 10
94.50000000000001
 20
472.75
 30
0.0
 11
95.5
 21
472.75
 31
0.0
  0
LINE
  5
B3
330
1E
100
AcDbEntity
  8
0
100
AcDbLine
 10
94.7823605258354
 20
374.227332755632
 30
0.0
 11
94.93299999999999
 21
374.033
 31
0.0
  0
LINE
  5
B5
330
1E
100
AcDbEntity
  8
0
100
AcDbLine
 10
95.10209999999998
 20
138.425
 30
0.0
 11
100.2389999999999
 21
145.011
 31
0.0
  0
LINE
  5
B6
330
1E
100
AcDbEntity
  8
0
100
AcDbLine
 10
95.10209999999998
 20
107.075
 30
0.0
 11
100.2389999999999
 21
100.4889999999999
 31
0.0
  0
LINE
  5
B9
330
1E
100
AcDbEntity
  8
0
100
AcDbLine
 10
96.12529999999999
 20
373.226
 30
0.0
 11
97.62520000000002
 21
372.8419999999999
 31
0.0
  0
LINE
  5
BA
330
1E
100
AcDbEntity
  8
0
100
AcDbLine
 10
95.02920000000001
 20
373.9369999999999
 30
0.0
 11
96.12529999999999
 21
373.226
 31
0.0
  0
LINE
  5
BC
330
1E
100
AcDbEntity
  8
0
100
AcDbLine
 10
96.0
 20
419.204
 30
0.0
 11
98.7
 21
419.204
 31
0.0
  0
LINE
  5
BD
330
1E
100
AcDbEntity
  8
0
100
AcDbLine
 10
95.0
 20
419.204
 30
0.0
 11
96.0
 21
419.204
 31
0.0
  0
LINE
  5
BE
330
1E
100
AcDbEntity
  8
0
100
AcDbLine
 10
95.0
 20
419.204
 30
0.0
 11
96.5
 21
418.75
 31
0.0
  0
LINE
  5
BF
330
1E
100
AcDbEntity
  8
0
100
AcDbLine
 10
96.5
 20
418.75
 30
0.0
 11
97.40000000000001
 21
418.75
 31
0.0
  0
LINE
  5
C1
330
1E
100
AcDbEntity
  8
0
100
AcDbLine
 10
96.12529999999999
 20
384.274
 30
0.0
 11
97.62520000000002
 21
384.658
 31
0.0
  0
LINE
  5
C2
330
1E
100
AcDbEntity
  8
0
100
AcDbLine
 10
95.02920000000001
 20
383.563
 30
0.0
 11
96.12529999999999
 21
384.274
 31
0.0
  0
LINE
  5
C3
330
1E
100
AcDbEntity
  8
0
100
AcDbLine
 10
94.78236052583559
 20
383.272667244368
 30
0.0
 11
94.93299999999999
 21
383.467
 31
0.0
  0
LINE
  5
C4
330
1E
100
AcDbEntity
  8
0
100
AcDbLine
 10
95.5
 20
464.7499999999999
 30
0.0
 11
98.2
 21
464.7499999999999
 31
0.0
  0
LINE
  5
C5
330
1E
100
AcDbEntity
  8
0
100
AcDbLine
 10
97.23711896551719
 20
372.941355368519
 30
0.0
 11
97.5098
 21
372.8609999999999
 31
0.0
  0
LINE
  5
C6
330
1E
100
AcDbEntity
  8
0
100
AcDbLine
 10
97.40000000000001
 20
418.75
 30
0.0
 11
100.0
 21
418.75
 31
0.0
  0
LINE
  5
C7
330
1E
100
AcDbEntity
  8
0
100
AcDbLine
 10
97.23711896551559
 20
384.5586446314809
 30
0.0
 11
97.5098
 21
384.6389999999999
 31
0.0
  0
LINE
  5
C8
330
1E
100
AcDbEntity
  8
0
100
AcDbLine
 10
97.23711896551559
 20
384.5586446314809
 30
0.0
 11
97.62520000000002
 21
384.658
 31
0.0
  0
LINE
  5
C9
330
1E
100
AcDbEntity
  8
0
100
AcDbLine
 10
96.5
 20
465.7499999999999
 30
0.0
 11
99.1
 21
465.7499999999999
 31
0.0
  0
LINE
  5
CA
330
1E
100
AcDbEntity
  8
0
100
AcDbLine
 10
95.5
 20
465.7499999999999
 30
0.0
 11
96.5
 21
465.7499999999999
 31
0.0
  0
LINE
  5
CB
330
1E
100
AcDbEntity
  8
0
100
AcDbLine
 10
98.8399590037366
 20
372.9188146073919
 30
0.0
 11
99.3964
 21
372.943
 31
0.0
  0
LINE
  5
CC
330
1E
100
AcDbEntity
  8
0
100
AcDbLine
 10
97.62520000000002
 20
372.8419999999999
 30
0.0
 11
99.52290000000001
 21
372.962
 31
0.0
  0
LINE
  5
CD
330
1E
100
AcDbEntity
  8
0
100
AcDbLine
 10
99.3964
 20
372.943
 30
0.0
 11
100.037133647973
 21
373.023835849093
 31
0.0
  0
LINE
  5
CE
330
1E
100
AcDbEntity
  8
0
100
AcDbLine
 10
99.52290000000001
 20
384.538
 30
0.0
 11
103.498
 21
384.06
 31
0.0
  0
LINE
  5
CF
330
1E
100
AcDbEntity
  8
0
100
AcDbLine
 10
98.83995900373349
 20
384.5811853926079
 30
0.0
 11
99.3964
 21
384.5569999999999
 31
0.0
  0
LINE
  5
D0
330
1E
100
AcDbEntity
  8
0
100
AcDbLine
 10
97.62520000000002
 20
384.658
 30
0.0
 11
99.52290000000001
 21
384.538
 31
0.0
  0
LINE
  5
D1
330
1E
100
AcDbEntity
  8
0
100
AcDbLine
 10
99.3964
 20
384.5569999999999
 30
0.0
 11
100.037133647982
 21
384.476164150905
 31
0.0
  0
LINE
  5
D2
330
1E
100
AcDbEntity
  8
0
100
AcDbLine
 10
100.2389999999999
 20
145.011
 30
0.0
 11
106.825
 21
150.1479999999999
 31
0.0
  0
LINE
  5
D3
330
1E
100
AcDbEntity
  8
0
100
AcDbLine
 10
100.2389999999999
 20
100.4889999999999
 30
0.0
 11
106.825
 21
95.35209999999999
 31
0.0
  0
LINE
  5
D4
330
1E
100
AcDbEntity
  8
0
100
AcDbLine
 10
99.52290000000001
 20
372.962
 30
0.0
 11
103.498
 21
373.4399999999999
 31
0.0
  0
LINE
  5
D5
330
1E
100
AcDbEntity
  8
0
100
AcDbLine
 10
100.0
 20
418.75
 30
0.0
 11
102.0
 21
418.75
 31
0.0
  0
LINE
  5
D6
330
1E
100
AcDbEntity
  8
0
100
AcDbLine
 10
102.0
 20
404.75
 30
0.0
 11
102.4999999999999
 21
403.2499999999999
 31
0.0
  0
LINE
  5
D7
330
1E
100
AcDbEntity
  8
0
100
AcDbLine
 10
102.0
 20
404.75
 30
0.0
 11
102.0
 21
418.75
 31
0.0
  0
LINE
  5
D8
330
1E
100
AcDbEntity
  8
0
100
AcDbLine
 10
102.4999999999999
 20
403.2499999999999
 30
0.0
 11
103.2
 21
403.2499999999999
 31
0.0
  0
LINE
  5
D9
330
1E
100
AcDbEntity
  8
0
100
AcDbLine
 10
102.4999999999999
 20
403.2499999999999
 30
0.0
 11
104.0
 21
402.7499999999999
 31
0.0
  0
LINE
  5
DA
330
1E
100
AcDbEntity
  8
0
100
AcDbLine
 10
102.7
 20
418.75
 30
0.0
 11
104.7
 21
418.75
 31
0.0
  0
LINE
  5
DB
330
1E
100
AcDbEntity
  8
0
100
AcDbLine
 10
98.7
 20
419.204
 30
0.0
 11
103.0999999999999
 21
419.204
 31
0.0
  0
LINE
  5
DC
330
1E
100
AcDbEntity
  8
0
100
AcDbLine
 10
102.0
 20
418.75
 30
0.0
 11
102.0
 21
404.75
 31
0.0
  0
LINE
  5
DD
330
1E
100
AcDbEntity
  8
0
100
AcDbLine
 10
102.0
 20
418.75
 30
0.0
 11
102.7
 21
418.75
 31
0.0
  0
LINE
  5
DE
330
1E
100
AcDbEntity
  8
0
100
AcDbLine
 10
103.0999999999999
 20
419.204
 30
0.0
 11
108.8
 21
419.204
 31
0.0
  0
LINE
  5
DF
330
1E
100
AcDbEntity
  8
0
100
AcDbLine
 10
103.2
 20
403.2499999999999
 30
0.0
 11
105.2
 21
403.2499999999999
 31
0.0
  0
LINE
  5
E0
330
1E
100
AcDbEntity
  8
0
100
AcDbLine
 10
102.7
 20
464.7499999999999
 30
0.0
 11
108.6
 21
464.7499999999999
 31
0.0
  0
LINE
  5
E1
330
1E
100
AcDbEntity
  8
0
100
AcDbLine
 10
98.2
 20
464.7499999999999
 30
0.0
 11
102.7
 21
464.7499999999999
 31
0.0
  0
LINE
  5
E2
330
1E
100
AcDbEntity
  8
0
100
AcDbLine
 10
103.498
 20
384.06
 30
0.0
 11
107.042
 21
383.533
 31
0.0
  0
LINE
  5
E3
330
1E
100
AcDbEntity
  8
0
100
AcDbLine
 10
103.498
 20
373.4399999999999
 30
0.0
 11
107.042
 21
373.9669999999999
 31
0.0
  0
LINE
  5
E4
330
1E
100
AcDbEntity
  8
0
100
AcDbLine
 10
104.7
 20
402.7499999999999
 30
0.0
 11
106.4999999999999
 21
402.7499999999999
 31
0.0
  0
LINE
  5
E5
330
1E
100
AcDbEntity
  8
0
100
AcDbLine
 10
104.0
 20
402.7499999999999
 30
0.0
 11
104.7
 21
402.7499999999999
 31
0.0
  0
LINE
  5
E6
330
1E
100
AcDbEntity
  8
0
100
AcDbLine
 10
106.825
 20
150.1479999999999
 30
0.0
 11
112.5
 21
152.437501198721
 31
0.0
  0
LINE
  5
E7
330
1E
100
AcDbEntity
  8
0
100
AcDbLine
 10
106.825
 20
95.35209999999999
 30
0.0
 11
114.3329999999999
 21
92.3226
 31
0.0
  0
LINE
  5
E8
330
1E
100
AcDbEntity
  8
0
100
AcDbLine
 10
107.042
 20
383.533
 30
0.0
 11
109.796
 21
383.198
 31
0.0
  0
LINE
  5
E9
330
1E
100
AcDbEntity
  8
0
100
AcDbLine
 10
107.042
 20
383.533
 30
0.0
 11
107.362
 21
383.5069999999999
 31
0.0
  0
LINE
  5
EA
330
1E
100
AcDbEntity
  8
0
100
AcDbLine
 10
107.042
 20
373.9669999999999
 30
0.0
 11
109.796
 21
374.3019999999999
 31
0.0
  0
LINE
  5
EB
330
1E
100
AcDbEntity
  8
0
100
AcDbLine
 10
107.042
 20
373.9669999999999
 30
0.0
 11
107.362
 21
373.993
 31
0.0
  0
LINE
  5
EC
330
1E
100
AcDbEntity
  8
0
100
AcDbLine
 10
107.0
 20
401.25
 30
0.0
 11
107.6
 21
401.25
 31
0.0
  0
LINE
  5
ED
330
1E
100
AcDbEntity
  8
0
100
AcDbLine
 10
107.0
 20
401.25
 30
0.0
 11
108.4999999999999
 21
400.75
 31
0.0
  0
LINE
  5
EE
330
1E
100
AcDbEntity
  8
0
100
AcDbLine
 10
107.362
 20
383.5069999999999
 30
0.0
 11
108.115216207196
 21
383.402452640011
 31
0.0
  0
LINE
  5
EF
330
1E
100
AcDbEntity
  8
0
100
AcDbLine
 10
107.362
 20
373.993
 30
0.0
 11
108.115216207196
 21
374.097547359989
 31
0.0
  0
LINE
  5
F0
330
1E
100
AcDbEntity
  8
0
100
AcDbLine
 10
107.6
 20
401.25
 30
0.0
 11
109.0999999999999
 21
401.25
 31
0.0
  0
LINE
  5
F1
330
1E
100
AcDbEntity
  8
0
100
AcDbLine
 10
107.0999999999999
 20
402.7499999999999
 30
0.0
 11
108.6
 21
402.7499999999999
 31
0.0
  0
LINE
  5
F2
330
1E
100
AcDbEntity
  8
0
100
AcDbLine
 10
106.4999999999999
 20
402.7499999999999
 30
0.0
 11
107.0999999999999
 21
402.7499999999999
 31
0.0
  0
LINE
  5
F3
330
1E
100
AcDbEntity
  8
0
100
AcDbLine
 10
106.4999999999999
 20
402.7499999999999
 30
0.0
 11
107.0
 21
401.25
 31
0.0
  0
LINE
  5
F4
330
1E
100
AcDbEntity
  8
0
100
AcDbLine
 10
105.2
 20
403.2499999999999
 30
0.0
 11
108.4
 21
403.2499999999999
 31
0.0
  0
LINE
  5
F5
330
1E
100
AcDbEntity
  8
0
100
AcDbLine
 10
104.7
 20
418.75
 30
0.0
 11
108.0
 21
418.75
 31
0.0
  0
LINE
  5
F6
330
1E
100
AcDbEntity
  8
0
100
AcDbLine
 10
108.115216207196
 20
374.097547359989
 30
0.0
 11
109.796
 21
374.3019999999999
 31
0.0
  0
LINE
  5
F7
330
1E
100
AcDbEntity
  8
0
100
AcDbLine
 10
108.4999999999999
 20
400.75
 30
0.0
 11
109.0
 21
400.75
 31
0.0
  0
LINE
  5
F8
330
1E
100
AcDbEntity
  8
0
100
AcDbLine
 10
108.6
 20
402.7499999999999
 30
0.0
 11
111.2
 21
402.7499999999999
 31
0.0
  0
LINE
  5
F9
330
1E
100
AcDbEntity
  8
0
100
AcDbLine
 10
108.4
 20
403.2499999999999
 30
0.0
 11
112.5
 21
403.2499999999999
 31
0.0
  0
LINE
  5
FA
330
1E
100
AcDbEntity
  8
0
100
AcDbLine
 10
108.0
 20
418.75
 30
0.0
 11
112.2999999999999
 21
418.75
 31
0.0
  0
LINE
  5
FB
330
1E
100
AcDbEntity
  8
0
100
AcDbLine
 10
108.6
 20
464.7499999999999
 30
0.0
 11
112.5
 21
464.7499999999999
 31
0.0
  0
LINE
  5
FC
330
1E
100
AcDbEntity
  8
0
100
AcDbLine
 10
103.4
 20
465.7499999999999
 30
0.0
 11
109.0999999999999
 21
465.7499999999999
 31
0.0
  0
LINE
  5
FD
330
1E
100
AcDbEntity
  8
0
100
AcDbLine
 10
99.1
 20
465.7499999999999
 30
0.0
 11
103.4
 21
465.7499999999999
 31
0.0
  0
LINE
  5
FE
330
1E
100
AcDbEntity
  8
0
100
AcDbLine
 10
109.796
 20
374.3019999999999
 30
0.0
 11
112.0779999999999
 21
374.6069999999999
 31
0.0
  0
LINE
  5
FF
330
1E
100
AcDbEntity
  8
0
100
AcDbLine
 10
109.796
 20
383.198
 30
0.0
 11
112.0779999999999
 21
382.893
 31
0.0
  0
LINE
  5
100
330
1E
100
AcDbEntity
  8
0
100
AcDbLine
 10
112.5
 20
136.15
 30
0.0
 11
112.5
 21
126.15
 31
0.0
  0
LINE
  5
101
330
1E
100
AcDbEntity
  8
0
100
AcDbLine
 10
112.5
 20
136.15
 30
0.0
 11
112.5
 21
152.05
 31
0.0
  0
LINE
  5
102
330
1E
100
AcDbEntity
  8
0
100
AcDbLine
 10
112.5
 20
122.75
 30
0.0
 11
112.5
 21
126.15
 31
0.0
  0
LINE
  5
103
330
1E
100
AcDbEntity
  8
0
100
AcDbLine
 10
112.5
 20
122.75
 30
0.0
 11
112.9
 21
120.15
 31
0.0
  0
LINE
  5
104
330
1E
100
AcDbEntity
  8
0
100
AcDbLine
 10
112.5
 20
126.15
 30
0.0
 11
112.5
 21
122.75
 31
0.0
  0
LINE
  5
105
330
1E
100
AcDbEntity
  8
0
100
AcDbLine
 10
112.5
 20
126.15
 30
0.0
 11
112.5
 21
136.15
 31
0.0
  0
LINE
  5
106
330
1E
100
AcDbEntity
  8
0
100
AcDbLine
 10
112.5
 20
152.05
 30
0.0
 11
112.5
 21
172.75
 31
0.0
  0
LINE
  5
107
330
1E
100
AcDbEntity
  8
0
100
AcDbLine
 10
112.5
 20
152.05
 30
0.0
 11
112.5
 21
136.15
 31
0.0
  0
LINE
  5
108
330
1E
100
AcDbEntity
  8
0
100
AcDbLine
 10
112.5
 20
172.75
 30
0.0
 11
112.5
 21
196.8499999999999
 31
0.0
  0
LINE
  5
109
330
1E
100
AcDbEntity
  8
0
100
AcDbLine
 10
112.5
 20
172.75
 30
0.0
 11
112.5
 21
152.05
 31
0.0
  0
LINE
  5
10A
330
1E
100
AcDbEntity
  8
0
100
AcDbLine
 10
112.5
 20
368.75
 30
0.0
 11
112.5
 21
344.75
 31
0.0
  0
LINE
  5
10B
330
1E
100
AcDbEntity
  8
0
100
AcDbLine
 10
112.5
 20
368.75
 30
0.0
 11
112.5
 21
497.75
 31
0.0
  0
LINE
  5
10C
330
1E
100
AcDbEntity
  8
0
100
AcDbLine
 10
112.5
 20
344.75
 30
0.0
 11
112.5
 21
318.75
 31
0.0
  0
LINE
  5
10D
330
1E
100
AcDbEntity
  8
0
100
AcDbLine
 10
112.5
 20
344.75
 30
0.0
 11
112.5
 21
368.75
 31
0.0
  0
LINE
  5
10E
330
1E
100
AcDbEntity
  8
0
100
AcDbLine
 10
112.5
 20
318.75
 30
0.0
 11
112.5
 21
301.9499999999999
 31
0.0
  0
LINE
  5
10F
330
1E
100
AcDbEntity
  8
0
100
AcDbLine
 10
112.5
 20
318.75
 30
0.0
 11
112.5
 21
344.75
 31
0.0
  0
LINE
  5
110
330
1E
100
AcDbEntity
  8
0
100
AcDbLine
 10
112.5
 20
301.9499999999999
 30
0.0
 11
112.5
 21
286.1499999999999
 31
0.0
  0
LINE
  5
111
330
1E
100
AcDbEntity
  8
0
100
AcDbLine
 10
112.5
 20
301.9499999999999
 30
0.0
 11
112.5
 21
318.75
 31
0.0
  0
LINE
  5
112
330
1E
100
AcDbEntity
  8
0
100
AcDbLine
 10
112.5
 20
286.1499999999999
 30
0.0
 11
112.5
 21
272.75
 31
0.0
  0
LINE
  5
113
330
1E
100
AcDbEntity
  8
0
100
AcDbLine
 10
112.5
 20
286.1499999999999
 30
0.0
 11
112.5
 21
301.9499999999999
 31
0.0
  0
LINE
  5
114
330
1E
100
AcDbEntity
  8
0
100
AcDbLine
 10
112.5
 20
272.75
 30
0.0
 11
112.5
 21
248.6499999999999
 31
0.0
  0
LINE
  5
115
330
1E
100
AcDbEntity
  8
0
100
AcDbLine
 10
112.5
 20
272.75
 30
0.0
 11
112.5
 21
286.1499999999999
 31
0.0
  0
LINE
  5
116
330
1E
100
AcDbEntity
  8
0
100
AcDbLine
 10
112.5
 20
248.6499999999999
 30
0.0
 11
112.5
 21
222.75
 31
0.0
  0
LINE
  5
117
330
1E
100
AcDbEntity
  8
0
100
AcDbLine
 10
112.5
 20
248.6499999999999
 30
0.0
 11
112.5
 21
272.75
 31
0.0
  0
LINE
  5
118
330
1E
100
AcDbEntity
  8
0
100
AcDbLine
 10
112.5
 20
196.8499999999999
 30
0.0
 11
112.5
 21
222.75
 31
0.0
  0
LINE
  5
119
330
1E
100
AcDbEntity
  8
0
100
AcDbLine
 10
112.5
 20
196.8499999999999
 30
0.0
 11
112.5
 21
172.75
 31
0.0
  0
LINE
  5
11A
330
1E
100
AcDbEntity
  8
0
100
AcDbLine
 10
112.5
 20
222.75
 30
0.0
 11
112.5
 21
196.8499999999999
 31
0.0
  0
LINE
  5
11B
330
1E
100
AcDbEntity
  8
0
100
AcDbLine
 10
112.5
 20
222.75
 30
0.0
 11
112.5
 21
248.6499999999999
 31
0.0
  0
LINE
  5
120
330
1E
100
AcDbEntity
  8
0
100
AcDbLine
 10
112.0779999999999
 20
374.6069999999999
 30
0.0
 11
112.5
 21
374.638397502601
 31
0.0
  0
LINE
  5
121
330
1E
100
AcDbEntity
  8
0
100
AcDbLine
 10
112.0779999999999
 20
382.893
 30
0.0
 11
112.5
 21
382.861602497398
 31
0.0
  0
LINE
  5
124
330
1E
100
AcDbEntity
  8
0
100
AcDbLine
 10
111.3651411947419
 20
374.5117230781749
 30
0.0
 11
112.5
 21
374.632815485362
 31
0.0
  0
LINE
  5
126
330
1E
100
AcDbEntity
  8
0
100
AcDbLine
 10
129.6
 20
115.65
 30
0.0
 11
131.1999999999999
 21
117.7499999999999
 31
0.0
  0
LINE
  5
127
330
1E
100
AcDbEntity
  8
0
100
AcDbLine
 10
127.5
 20
114.05
 30
0.0
 11
129.6
 21
115.65
 31
0.0
  0
LINE
  5
128
330
1E
100
AcDbEntity
  8
0
100
AcDbLine
 10
122.5
 20
112.7499999999999
 30
0.0
 11
125.0999999999999
 21
113.15
 31
0.0
  0
LINE
  5
129
330
1E
100
AcDbEntity
  8
0
100
AcDbLine
 10
119.9
 20
113.15
 30
0.0
 11
122.5
 21
112.7499999999999
 31
0.0
  0
LINE
  5
12A
330
1E
100
AcDbEntity
  8
0
100
AcDbLine
 10
122.5
 20
91.13710000000001
 30
0.0
 11
130.6669999999999
 21
92.3226
 31
0.0
  0
LINE
  5
12B
330
1E
100
AcDbEntity
  8
0
100
AcDbLine
 10
132.4999999999999
 20
136.15
 30
0.0
 11
132.4999999999999
 21
126.15
 31
0.0
  0
LINE
  5
12C
330
1E
100
AcDbEntity
  8
0
100
AcDbLine
 10
132.4999999999999
 20
136.15
 30
0.0
 11
132.4999999999999
 21
152.05
 31
0.0
  0
LINE
  5
12D
330
1E
100
AcDbEntity
  8
0
100
AcDbLine
 10
132.4999999999999
 20
126.15
 30
0.0
 11
132.4999999999999
 21
122.75
 31
0.0
  0
LINE
  5
12E
330
1E
100
AcDbEntity
  8
0
100
AcDbLine
 10
132.4999999999999
 20
126.15
 30
0.0
 11
132.4999999999999
 21
136.15
 31
0.0
  0
LINE
  5
12F
330
1E
100
AcDbEntity
  8
0
100
AcDbLine
 10
132.4999999999999
 20
122.75
 30
0.0
 11
132.4999999999999
 21
126.15
 31
0.0
  0
LINE
  5
130
330
1E
100
AcDbEntity
  8
0
100
AcDbLine
 10
132.0999999999999
 20
120.15
 30
0.0
 11
132.4999999999999
 21
122.75
 31
0.0
  0
LINE
  5
131
330
1E
100
AcDbEntity
  8
0
100
AcDbLine
 10
131.1999999999999
 20
117.7499999999999
 30
0.0
 11
132.0999999999999
 21
120.15
 31
0.0
  0
LINE
  5
132
330
1E
100
AcDbEntity
  8
0
100
AcDbLine
 10
132.4999999999999
 20
152.05
 30
0.0
 11
132.4999999999999
 21
172.75
 31
0.0
  0
LINE
  5
133
330
1E
100
AcDbEntity
  8
0
100
AcDbLine
 10
132.4999999999999
 20
152.05
 30
0.0
 11
132.4999999999999
 21
136.15
 31
0.0
  0
LINE
  5
134
330
1E
100
AcDbEntity
  8
0
100
AcDbLine
 10
132.4999999999999
 20
172.75
 30
0.0
 11
132.4999999999999
 21
196.8499999999999
 31
0.0
  0
LINE
  5
135
330
1E
100
AcDbEntity
  8
0
100
AcDbLine
 10
132.4999999999999
 20
172.75
 30
0.0
 11
132.4999999999999
 21
152.05
 31
0.0
  0
LINE
  5
136
330
1E
100
AcDbEntity
  8
0
100
AcDbLine
 10
132.4999999999999
 20
272.75
 30
0.0
 11
132.4999999999999
 21
248.6499999999999
 31
0.0
  0
LINE
  5
137
330
1E
100
AcDbEntity
  8
0
100
AcDbLine
 10
132.4999999999999
 20
272.75
 30
0.0
 11
132.4999999999999
 21
286.1499999999999
 31
0.0
  0
LINE
  5
138
330
1E
100
AcDbEntity
  8
0
100
AcDbLine
 10
132.4999999999999
 20
248.6499999999999
 30
0.0
 11
132.4999999999999
 21
222.75
 31
0.0
  0
LINE
  5
139
330
1E
100
AcDbEntity
  8
0
100
AcDbLine
 10
132.4999999999999
 20
248.6499999999999
 30
0.0
 11
132.4999999999999
 21
272.75
 31
0.0
  0
LINE
  5
13A
330
1E
100
AcDbEntity
  8
0
100
AcDbLine
 10
132.4999999999999
 20
222.75
 30
0.0
 11
132.4999999999999
 21
196.8499999999999
 31
0.0
  0
LINE
  5
13B
330
1E
100
AcDbEntity
  8
0
100
AcDbLine
 10
132.4999999999999
 20
222.75
 30
0.0
 11
132.4999999999999
 21
248.6499999999999
 31
0.0
  0
LINE
  5
13C
330
1E
100
AcDbEntity
  8
0
100
AcDbLine
 10
132.4999999999999
 20
196.8499999999999
 30
0.0
 11
132.4999999999999
 21
222.75
 31
0.0
  0
LINE
  5
13D
330
1E
100
AcDbEntity
  8
0
100
AcDbLine
 10
132.4999999999999
 20
196.8499999999999
 30
0.0
 11
132.4999999999999
 21
172.75
 31
0.0
  0
LINE
  5
13E
330
1E
100
AcDbEntity
  8
0
100
AcDbLine
 10
132.4999999999999
 20
368.75
 30
0.0
 11
132.4999999999999
 21
344.75
 31
0.0
  0
LINE
  5
13F
330
1E
100
AcDbEntity
  8
0
100
AcDbLine
 10
132.4999999999999
 20
368.75
 30
0.0
 11
132.4999999999999
 21
497.75
 31
0.0
  0
LINE
  5
140
330
1E
100
AcDbEntity
  8
0
100
AcDbLine
 10
132.4999999999999
 20
344.75
 30
0.0
 11
132.4999999999999
 21
318.75
 31
0.0
  0
LINE
  5
141
330
1E
100
AcDbEntity
  8
0
100
AcDbLine
 10
132.4999999999999
 20
344.75
 30
0.0
 11
132.4999999999999
 21
368.75
 31
0.0
  0
LINE
  5
142
330
1E
100
AcDbEntity
  8
0
100
AcDbLine
 10
132.4999999999999
 20
318.75
 30
0.0
 11
132.4999999999999
 21
301.9499999999999
 31
0.0
  0
LINE
  5
143
330
1E
100
AcDbEntity
  8
0
100
AcDbLine
 10
132.4999999999999
 20
318.75
 30
0.0
 11
132.4999999999999
 21
344.75
 31
0.0
  0
LINE
  5
144
330
1E
100
AcDbEntity
  8
0
100
AcDbLine
 10
132.4999999999999
 20
301.9499999999999
 30
0.0
 11
132.4999999999999
 21
286.1499999999999
 31
0.0
  0
LINE
  5
145
330
1E
100
AcDbEntity
  8
0
100
AcDbLine
 10
132.4999999999999
 20
301.9499999999999
 30
0.0
 11
132.4999999999999
 21
318.75
 31
0.0
  0
LINE
  5
146
330
1E
100
AcDbEntity
  8
0
100
AcDbLine
 10
132.4999999999999
 20
286.1499999999999
 30
0.0
 11
132.4999999999999
 21
301.9499999999999
 31
0.0
  0
LINE
  5
147
330
1E
100
AcDbEntity
  8
0
100
AcDbLine
 10
132.4999999999999
 20
286.1499999999999
 30
0.0
 11
132.4999999999999
 21
272.75
 31
0.0
  0
LINE
  5
148
330
1E
100
AcDbEntity
  8
0
100
AcDbLine
 10
132.4999999999999
 20
243.833177806599
 30
0.0
 11
154.113
 21
240.7709999999999
 31
0.0
  0
LINE
  5
149
330
1E
100
AcDbEntity
  8
0
100
AcDbLine
 10
132.4999999999999
 20
152.437501198721
 30
0.0
 11
138.175
 21
150.1479999999999
 31
0.0
  0
LINE
  5
14A
330
1E
100
AcDbEntity
  8
0
100
AcDbLine
 10
130.6669999999999
 20
92.3226
 30
0.0
 11
138.175
 21
95.35209999999999
 31
0.0
  0
LINE
  5
14B
330
1E
100
AcDbEntity
  8
0
100
AcDbLine
 10
114.3329999999999
 20
92.3226
 30
0.0
 11
122.5
 21
91.13710000000001
 31
0.0
  0
LINE
  5
14C
330
1E
100
AcDbEntity
  8
0
100
AcDbLine
 10
132.4999999999999
 20
374.638397502601
 30
0.0
 11
132.922
 21
374.6069999999999
 31
0.0
  0
LINE
  5
14E
330
1E
100
AcDbEntity
  8
0
100
AcDbLine
 10
132.4999999999999
 20
382.861602497398
 30
0.0
 11
132.922
 21
382.893
 31
0.0
  0
LINE
  5
151
330
1E
100
AcDbEntity
  8
0
100
AcDbLine
 10
112.5
 20
390.35
 30
0.0
 11
112.5
 21
400.75
 31
0.0
  0
LINE
  5
152
330
1E
100
AcDbEntity
  8
0
100
AcDbLine
 10
112.5
 20
400.75
 30
0.0
 11
112.5
 21
390.35
 31
0.0
  0
LINE
  5
153
330
1E
100
AcDbEntity
  8
0
100
AcDbLine
 10
110.4
 20
400.75
 30
0.0
 11
112.5
 21
400.75
 31
0.0
  0
LINE
  5
154
330
1E
100
AcDbEntity
  8
0
100
AcDbLine
 10
109.0
 20
400.75
 30
0.0
 11
110.4
 21
400.75
 31
0.0
  0
LINE
  5
157
330
1E
100
AcDbEntity
  8
0
100
AcDbLine
 10
132.922
 20
382.893
 30
0.0
 11
135.204
 21
383.198
 31
0.0
  0
LINE
  5
158
330
1E
100
AcDbEntity
  8
0
100
AcDbLine
 10
132.922
 20
374.6069999999999
 30
0.0
 11
135.204
 21
374.3019999999999
 31
0.0
  0
LINE
  5
159
330
1E
100
AcDbEntity
  8
0
100
AcDbLine
 10
135.204
 20
383.198
 30
0.0
 11
136.8847837928039
 21
383.402452640011
 31
0.0
  0
LINE
  5
15A
330
1E
100
AcDbEntity
  8
0
100
AcDbLine
 10
135.204
 20
383.198
 30
0.0
 11
137.958
 21
383.533
 31
0.0
  0
LINE
  5
15B
330
1E
100
AcDbEntity
  8
0
100
AcDbLine
 10
135.204
 20
374.3019999999999
 30
0.0
 11
136.8847837928039
 21
374.097547359989
 31
0.0
  0
LINE
  5
15C
330
1E
100
AcDbEntity
  8
0
100
AcDbLine
 10
135.204
 20
374.3019999999999
 30
0.0
 11
137.958
 21
373.9669999999999
 31
0.0
  0
LINE
  5
15D
330
1E
100
AcDbEntity
  8
0
100
AcDbLine
 10
132.4999999999999
 20
400.75
 30
0.0
 11
134.5999999999999
 21
400.75
 31
0.0
  0
LINE
  5
15E
330
1E
100
AcDbEntity
  8
0
100
AcDbLine
 10
109.0999999999999
 20
401.25
 30
0.0
 11
111.5999999999999
 21
401.25
 31
0.0
  0
LINE
  5
15F
330
1E
100
AcDbEntity
  8
0
100
AcDbLine
 10
111.5999999999999
 20
401.25
 30
0.0
 11
112.5
 21
401.25
 31
0.0
  0
LINE
  5
160
330
1E
100
AcDbEntity
  8
0
100
AcDbLine
 10
132.4999999999999
 20
401.25
 30
0.0
 11
133.4
 21
401.25
 31
0.0
  0
LINE
  5
161
330
1E
100
AcDbEntity
  8
0
100
AcDbLine
 10
111.2
 20
402.7499999999999
 30
0.0
 11
112.5
 21
402.7499999999999
 31
0.0
  0
LINE
  5
162
330
1E
100
AcDbEntity
  8
0
100
AcDbLine
 10
132.4999999999999
 20
402.7499999999999
 30
0.0
 11
133.8
 21
402.7499999999999
 31
0.0
  0
LINE
  5
163
330
1E
100
AcDbEntity
  8
0
100
AcDbLine
 10
108.8
 20
419.204
 30
0.0
 11
112.5
 21
419.204
 31
0.0
  0
LINE
  5
164
330
1E
100
AcDbEntity
  8
0
100
AcDbLine
 10
132.4999999999999
 20
419.204
 30
0.0
 11
136.1999999999999
 21
419.204
 31
0.0
  0
LINE
  5
165
330
1E
100
AcDbEntity
  8
0
100
AcDbLine
 10
132.4999999999999
 20
465.7499999999999
 30
0.0
 11
135.8999999999999
 21
465.7499999999999
 31
0.0
  0
LINE
  5
166
330
1E
100
AcDbEntity
  8
0
100
AcDbLine
 10
132.4999999999999
 20
464.7499999999999
 30
0.0
 11
136.4
 21
464.7499999999999
 31
0.0
  0
LINE
  5
167
330
1E
100
AcDbEntity
  8
0
100
AcDbLine
 10
112.2999999999999
 20
418.75
 30
0.0
 11
112.5
 21
418.75
 31
0.0
  0
LINE
  5
168
330
1E
100
AcDbEntity
  8
0
100
AcDbLine
 10
132.4999999999999
 20
403.2499999999999
 30
0.0
 11
136.5999999999999
 21
403.2499999999999
 31
0.0
  0
LINE
  5
169
330
1E
100
AcDbEntity
  8
0
100
AcDbLine
 10
132.6999999999999
 20
418.75
 30
0.0
 11
137.0
 21
418.75
 31
0.0
  0
LINE
  5
16A
330
1E
100
AcDbEntity
  8
0
100
AcDbLine
 10
132.4999999999999
 20
418.75
 30
0.0
 11
132.6999999999999
 21
418.75
 31
0.0
  0
LINE
  5
16B
330
1E
100
AcDbEntity
  8
0
100
AcDbLine
 10
133.4
 20
401.25
 30
0.0
 11
135.8999999999999
 21
401.25
 31
0.0
  0
LINE
  5
16C
330
1E
100
AcDbEntity
  8
0
100
AcDbLine
 10
135.8999999999999
 20
465.7499999999999
 30
0.0
 11
141.5999999999999
 21
465.7499999999999
 31
0.0
  0
LINE
  5
16D
330
1E
100
AcDbEntity
  8
0
100
AcDbLine
 10
135.8999999999999
 20
401.25
 30
0.0
 11
137.4
 21
401.25
 31
0.0
  0
LINE
  5
16E
330
1E
100
AcDbEntity
  8
0
100
AcDbLine
 10
133.8
 20
402.7499999999999
 30
0.0
 11
136.4
 21
402.7499999999999
 31
0.0
  0
LINE
  5
16F
330
1E
100
AcDbEntity
  8
0
100
AcDbLine
 10
134.5999999999999
 20
400.75
 30
0.0
 11
136.0
 21
400.75
 31
0.0
  0
LINE
  5
170
330
1E
100
AcDbEntity
  8
0
100
AcDbLine
 10
136.8847837928039
 20
383.402452640011
 30
0.0
 11
137.638
 21
383.5069999999999
 31
0.0
  0
LINE
  5
171
330
1E
100
AcDbEntity
  8
0
100
AcDbLine
 10
136.8847837928039
 20
374.097547359989
 30
0.0
 11
137.638
 21
373.993
 31
0.0
  0
LINE
  5
172
330
1E
100
AcDbEntity
  8
0
100
AcDbLine
 10
136.4
 20
402.7499999999999
 30
0.0
 11
137.9
 21
402.7499999999999
 31
0.0
  0
LINE
  5
173
330
1E
100
AcDbEntity
  8
0
100
AcDbLine
 10
136.1999999999999
 20
419.204
 30
0.0
 11
141.9
 21
419.204
 31
0.0
  0
LINE
  5
174
330
1E
100
AcDbEntity
  8
0
100
AcDbLine
 10
136.4
 20
464.7499999999999
 30
0.0
 11
142.3
 21
464.7499999999999
 31
0.0
  0
LINE
  5
175
330
1E
100
AcDbEntity
  8
0
100
AcDbLine
 10
136.5999999999999
 20
403.2499999999999
 30
0.0
 11
139.8
 21
403.2499999999999
 31
0.0
  0
LINE
  5
176
330
1E
100
AcDbEntity
  8
0
100
AcDbLine
 10
137.4
 20
401.25
 30
0.0
 11
138.0
 21
401.25
 31
0.0
  0
LINE
  5
177
330
1E
100
AcDbEntity
  8
0
100
AcDbLine
 10
137.0
 20
418.75
 30
0.0
 11
140.3
 21
418.75
 31
0.0
  0
LINE
  5
178
330
1E
100
AcDbEntity
  8
0
100
AcDbLine
 10
136.4999999999999
 20
400.75
 30
0.0
 11
138.0
 21
401.25
 31
0.0
  0
LINE
  5
179
330
1E
100
AcDbEntity
  8
0
100
AcDbLine
 10
136.0
 20
400.75
 30
0.0
 11
136.4999999999999
 21
400.75
 31
0.0
  0
LINE
  5
17A
330
1E
100
AcDbEntity
  8
0
100
AcDbLine
 10
132.4999999999999
 20
466.75
 30
0.0
 11
136.4
 21
466.75
 31
0.0
  0
LINE
  5
17B
330
1E
100
AcDbEntity
  8
0
100
AcDbLine
 10
136.4
 20
466.75
 30
0.0
 11
142.3
 21
466.75
 31
0.0
  0
LINE
  5
17C
330
1E
100
AcDbEntity
  8
0
100
AcDbLine
 10
109.0999999999999
 20
465.7499999999999
 30
0.0
 11
112.5
 21
465.7499999999999
 31
0.0
  0
LINE
  5
17D
330
1E
100
AcDbEntity
  8
0
100
AcDbLine
 10
108.6
 20
466.75
 30
0.0
 11
112.5
 21
466.75
 31
0.0
  0
LINE
  5
17E
330
1E
100
AcDbEntity
  8
0
100
AcDbLine
 10
102.7
 20
466.75
 30
0.0
 11
108.6
 21
466.75
 31
0.0
  0
LINE
  5
17F
330
1E
100
AcDbEntity
  8
0
100
AcDbLine
 10
97.5
 20
466.75
 30
0.0
 11
102.7
 21
466.75
 31
0.0
  0
LINE
  5
180
330
1E
100
AcDbEntity
  8
0
100
AcDbLine
 10
101.2999999999999
 20
472.75
 30
0.0
 11
107.6
 21
472.75
 31
0.0
  0
LINE
  5
181
330
1E
100
AcDbEntity
  8
0
100
AcDbLine
 10
96.5
 20
472.75
 30
0.0
 11
101.2999999999999
 21
472.75
 31
0.0
  0
LINE
  5
182
330
1E
100
AcDbEntity
  8
0
100
AcDbLine
 10
136.4
 20
472.75
 30
0.0
 11
142.3
 21
472.75
 31
0.0
  0
LINE
  5
183
330
1E
100
AcDbEntity
  8
0
100
AcDbLine
 10
107.6
 20
472.75
 30
0.0
 11
112.5
 21
472.75
 31
0.0
  0
LINE
  5
184
330
1E
100
AcDbEntity
  8
0
100
AcDbLine
 10
108.6
 20
472.75
 30
0.0
 11
112.5
 21
472.75
 31
0.0
  0
LINE
  5
185
330
1E
100
AcDbEntity
  8
0
100
AcDbLine
 10
102.7
 20
472.75
 30
0.0
 11
108.6
 21
472.75
 31
0.0
  0
LINE
  5
186
330
1E
100
AcDbEntity
  8
0
100
AcDbLine
 10
97.5
 20
472.75
 30
0.0
 11
102.7
 21
472.75
 31
0.0
  0
LINE
  5
187
330
1E
100
AcDbEntity
  8
0
100
AcDbLine
 10
95.5
 20
472.75
 30
0.0
 11
97.5
 21
472.75
 31
0.0
  0
LINE
  5
188
330
1E
100
AcDbEntity
  8
0
100
AcDbLine
 10
95.5
 20
466.75
 30
0.0
 11
97.5
 21
466.75
 31
0.0
  0
LINE
  5
189
330
1E
100
AcDbEntity
  8
0
100
AcDbLine
 10
94.50000000000001
 20
466.75
 30
0.0
 11
95.5
 21
466.75
 31
0.0
  0
LINE
  5
18A
330
1E
100
AcDbEntity
  8
0
100
AcDbLine
 10
94.50000000000001
 20
466.75
 30
0.0
 11
95.5
 21
465.7499999999999
 31
0.0
  0
LINE
  5
18B
330
1E
100
AcDbEntity
  8
0
100
AcDbLine
 10
94.50000000000001
 20
466.75
 30
0.0
 11
94.50000000000001
 21
472.75
 31
0.0
  0
LINE
  5
18C
330
1E
100
AcDbEntity
  8
0
100
AcDbLine
 10
132.4999999999999
 20
472.75
 30
0.0
 11
137.4
 21
472.75
 31
0.0
  0
LINE
  5
18D
330
1E
100
AcDbEntity
  8
0
100
AcDbLine
 10
132.4999999999999
 20
472.75
 30
0.0
 11
136.4
 21
472.75
 31
0.0
  0
LINE
  5
18E
330
1E
100
AcDbEntity
  8
0
100
AcDbLine
 10
137.638
 20
373.993
 30
0.0
 11
137.958
 21
373.9669999999999
 31
0.0
  0
LINE
  5
18F
330
1E
100
AcDbEntity
  8
0
100
AcDbLine
 10
137.958
 20
373.9669999999999
 30
0.0
 11
141.502
 21
373.4399999999999
 31
0.0
  0
LINE
  5
190
330
1E
100
AcDbEntity
  8
0
100
AcDbLine
 10
137.638
 20
383.5069999999999
 30
0.0
 11
137.958
 21
383.533
 31
0.0
  0
LINE
  5
191
330
1E
100
AcDbEntity
  8
0
100
AcDbLine
 10
137.958
 20
383.533
 30
0.0
 11
141.502
 21
384.06
 31
0.0
  0
LINE
  5
192
330
1E
100
AcDbEntity
  8
0
100
AcDbLine
 10
137.9
 20
402.7499999999999
 30
0.0
 11
138.5
 21
402.7499999999999
 31
0.0
  0
LINE
  5
193
330
1E
100
AcDbEntity
  8
0
100
AcDbLine
 10
138.175
 20
150.1479999999999
 30
0.0
 11
144.761
 21
145.011
 31
0.0
  0
LINE
  5
194
330
1E
100
AcDbEntity
  8
0
100
AcDbLine
 10
138.175
 20
95.35209999999999
 30
0.0
 11
144.761
 21
100.4889999999999
 31
0.0
  0
LINE
  5
195
330
1E
100
AcDbEntity
  8
0
100
AcDbLine
 10
138.0
 20
401.25
 30
0.0
 11
138.5
 21
402.7499999999999
 31
0.0
  0
LINE
  5
196
330
1E
100
AcDbEntity
  8
0
100
AcDbLine
 10
138.5
 20
402.7499999999999
 30
0.0
 11
140.3
 21
402.7499999999999
 31
0.0
  0
LINE
  5
198
330
1E
100
AcDbEntity
  8
0
100
AcDbLine
 10
141.502
 20
373.4399999999999
 30
0.0
 11
145.477
 21
372.962
 31
0.0
  0
LINE
  5
199
330
1E
100
AcDbEntity
  8
0
100
AcDbLine
 10
141.0
 20
402.7499999999999
 30
0.0
 11
142.5
 21
403.2499999999999
 31
0.0
  0
LINE
  5
19A
330
1E
100
AcDbEntity
  8
0
100
AcDbLine
 10
139.8
 20
403.2499999999999
 30
0.0
 11
141.8
 21
403.2499999999999
 31
0.0
  0
LINE
  5
19B
330
1E
100
AcDbEntity
  8
0
100
AcDbLine
 10
141.8
 20
403.2499999999999
 30
0.0
 11
142.5
 21
403.2499999999999
 31
0.0
  0
LINE
  5
19C
330
1E
100
AcDbEntity
  8
0
100
AcDbLine
 10
140.3
 20
418.75
 30
0.0
 11
142.3
 21
418.75
 31
0.0
  0
LINE
  5
19D
330
1E
100
AcDbEntity
  8
0
100
AcDbLine
 10
142.3
 20
418.75
 30
0.0
 11
143.0
 21
418.75
 31
0.0
  0
LINE
  5
19E
330
1E
100
AcDbEntity
  8
0
100
AcDbLine
 10
140.3
 20
402.7499999999999
 30
0.0
 11
141.0
 21
402.7499999999999
 31
0.0
  0
LINE
  5
19F
330
1E
100
AcDbEntity
  8
0
100
AcDbLine
 10
144.761
 20
145.011
 30
0.0
 11
149.8979999999999
 21
138.425
 31
0.0
  0
LINE
  5
1A0
330
1E
100
AcDbEntity
  8
0
100
AcDbLine
 10
144.761
 20
100.4889999999999
 30
0.0
 11
149.8979999999999
 21
107.075
 31
0.0
  0
LINE
  5
1A1
330
1E
100
AcDbEntity
  8
0
100
AcDbLine
 10
144.971904301641
 20
373.0227385519029
 30
0.0
 11
145.6039999999999
 21
372.943
 31
0.0
  0
LINE
  5
1A2
330
1E
100
AcDbEntity
  8
0
100
AcDbLine
 10
145.477
 20
372.962
 30
0.0
 11
147.375
 21
372.8419999999999
 31
0.0
  0
LINE
  5
1A3
330
1E
100
AcDbEntity
  8
0
100
AcDbLine
 10
145.6039999999999
 20
372.943
 30
0.0
 11
146.1595754060339
 21
372.918844547564
 31
0.0
  0
LINE
  5
1A5
330
1E
100
AcDbEntity
  8
0
100
AcDbLine
 10
147.375
 20
372.8419999999999
 30
0.0
 11
148.875
 21
373.226
 31
0.0
  0
LINE
  5
1A8
330
1E
100
AcDbEntity
  8
0
100
AcDbLine
 10
147.49
 20
372.8609999999999
 30
0.0
 11
147.7599999999999
 21
372.94056
 31
0.0
  0
LINE
  5
1A9
330
1E
100
AcDbEntity
  8
0
100
AcDbLine
 10
145.6039999999999
 20
384.5569999999999
 30
0.0
 11
147.375
 21
384.658
 31
0.0
  0
LINE
  5
1AA
330
1E
100
AcDbEntity
  8
0
100
AcDbLine
 10
147.375
 20
384.658
 30
0.0
 11
148.875
 21
384.274
 31
0.0
  0
LINE
  5
1AB
330
1E
100
AcDbEntity
  8
0
100
AcDbLine
 10
147.49
 20
384.6389999999999
 30
0.0
 11
147.760000000002
 21
384.559439999999
 31
0.0
  0
LINE
  5
1AC
330
1E
100
AcDbEntity
  8
0
100
AcDbLine
 10
141.502
 20
384.06
 30
0.0
 11
145.6039999999999
 21
384.5569999999999
 31
0.0
  0
LINE
  5
1AD
330
1E
100
AcDbEntity
  8
0
100
AcDbLine
 10
145.0
 20
418.75
 30
0.0
 11
147.5999999999999
 21
418.75
 31
0.0
  0
LINE
  5
1AE
330
1E
100
AcDbEntity
  8
0
100
AcDbLine
 10
147.5999999999999
 20
418.75
 30
0.0
 11
148.5
 21
418.75
 31
0.0
  0
LINE
  5
1AF
330
1E
100
AcDbEntity
  8
0
100
AcDbLine
 10
148.5
 20
418.75
 30
0.0
 11
150.0
 21
419.204
 31
0.0
  0
LINE
  5
1B0
330
1E
100
AcDbEntity
  8
0
100
AcDbLine
 10
143.0
 20
404.75
 30
0.0
 11
143.0
 21
418.75
 31
0.0
  0
LINE
  5
1B1
330
1E
100
AcDbEntity
  8
0
100
AcDbLine
 10
142.5
 20
403.2499999999999
 30
0.0
 11
143.0
 21
404.75
 31
0.0
  0
LINE
  5
1B2
330
1E
100
AcDbEntity
  8
0
100
AcDbLine
 10
141.9
 20
419.204
 30
0.0
 11
146.3
 21
419.204
 31
0.0
  0
LINE
  5
1B3
330
1E
100
AcDbEntity
  8
0
100
AcDbLine
 10
146.3
 20
419.204
 30
0.0
 11
149.0
 21
419.204
 31
0.0
  0
LINE
  5
1B4
330
1E
100
AcDbEntity
  8
0
100
AcDbLine
 10
141.5999999999999
 20
465.7499999999999
 30
0.0
 11
145.9
 21
465.7499999999999
 31
0.0
  0
LINE
  5
1B5
330
1E
100
AcDbEntity
  8
0
100
AcDbLine
 10
142.3
 20
472.75
 30
0.0
 11
147.5
 21
472.75
 31
0.0
  0
LINE
  5
1B6
330
1E
100
AcDbEntity
  8
0
100
AcDbLine
 10
142.3
 20
466.75
 30
0.0
 11
147.5
 21
466.75
 31
0.0
  0
LINE
  5
1B7
330
1E
100
AcDbEntity
  8
0
100
AcDbLine
 10
145.9
 20
465.7499999999999
 30
0.0
 11
148.5
 21
465.7499999999999
 31
0.0
  0
LINE
  5
1B8
330
1E
100
AcDbEntity
  8
0
100
AcDbLine
 10
142.3
 20
464.7499999999999
 30
0.0
 11
146.8
 21
464.7499999999999
 31
0.0
  0
LINE
  5
1B9
330
1E
100
AcDbEntity
  8
0
100
AcDbLine
 10
148.5
 20
465.7499999999999
 30
0.0
 11
149.5
 21
465.7499999999999
 31
0.0
  0
LINE
  5
1BA
330
1E
100
AcDbEntity
  8
0
100
AcDbLine
 10
147.5
 20
472.75
 30
0.0
 11
149.5
 21
472.75
 31
0.0
  0
LINE
  5
1BB
330
1E
100
AcDbEntity
  8
0
100
AcDbLine
 10
147.5
 20
466.75
 30
0.0
 11
149.5
 21
466.75
 31
0.0
  0
LINE
  5
1BC
330
1E
100
AcDbEntity
  8
0
100
AcDbLine
 10
146.8
 20
464.7499999999999
 30
0.0
 11
149.5
 21
464.7499999999999
 31
0.0
  0
LINE
  5
1BD
330
1E
100
AcDbEntity
  8
0
100
AcDbLine
 10
143.0
 20
418.75
 30
0.0
 11
143.0
 21
404.75
 31
0.0
  0
LINE
  5
1BE
330
1E
100
AcDbEntity
  8
0
100
AcDbLine
 10
143.0
 20
418.75
 30
0.0
 11
145.0
 21
418.75
 31
0.0
  0
LINE
  5
1BF
330
1E
100
AcDbEntity
  8
0
100
AcDbLine
 10
137.4
 20
472.75
 30
0.0
 11
143.6999999999999
 21
472.75
 31
0.0
  0
LINE
  5
1C0
330
1E
100
AcDbEntity
  8
0
100
AcDbLine
 10
143.6999999999999
 20
472.75
 30
0.0
 11
148.5
 21
472.75
 31
0.0
  0
LINE
  5
1C2
330
1E
100
AcDbEntity
  8
0
100
AcDbLine
 10
149.8979999999999
 20
138.425
 30
0.0
 11
152.927
 21
130.9169999999999
 31
0.0
  0
LINE
  5
1C3
330
1E
100
AcDbEntity
  8
0
100
AcDbLine
 10
149.8979999999999
 20
107.075
 30
0.0
 11
152.927
 21
114.5829999999999
 31
0.0
  0
LINE
  5
1C4
330
1E
100
AcDbEntity
  8
0
100
AcDbLine
 10
148.875
 20
373.226
 30
0.0
 11
149.971
 21
373.9369999999999
 31
0.0
  0
LINE
  5
1C5
330
1E
100
AcDbEntity
  8
0
100
AcDbLine
 10
149.971
 20
373.9369999999999
 30
0.0
 11
150.625
 21
374.7059999999999
 31
0.0
  0
LINE
  5
1C7
330
1E
100
AcDbEntity
  8
0
100
AcDbLine
 10
150.067
 20
374.033
 30
0.0
 11
150.214523429443
 21
374.223344827586
 31
0.0
  0
LINE
  5
1C8
330
1E
100
AcDbEntity
  8
0
100
AcDbLine
 10
151.144
 20
381.679
 30
0.0
 11
151.5
 21
378.75
 31
0.0
  0
LINE
  5
1C9
330
1E
100
AcDbEntity
  8
0
100
AcDbLine
 10
151.144
 20
375.8209999999999
 30
0.0
 11
151.5
 21
378.75
 31
0.0
  0
LINE
  5
1CA
330
1E
100
AcDbEntity
  8
0
100
AcDbLine
 10
150.625
 20
374.7059999999999
 30
0.0
 11
151.144
 21
375.8209999999999
 31
0.0
  0
LINE
  5
1CD
330
1E
100
AcDbEntity
  8
0
100
AcDbLine
 10
149.0
 20
419.204
 30
0.0
 11
150.0
 21
419.204
 31
0.0
  0
LINE
  5
1CE
330
1E
100
AcDbEntity
  8
0
100
AcDbLine
 10
150.0
 20
419.204
 30
0.0
 11
150.5
 21
420.568
 31
0.0
  0
LINE
  5
1CF
330
1E
100
AcDbEntity
  8
0
100
AcDbLine
 10
149.5
 20
465.7499999999999
 30
0.0
 11
150.5
 21
464.7499999999999
 31
0.0
  0
LINE
  5
1D0
330
1E
100
AcDbEntity
  8
0
100
AcDbLine
 10
149.5
 20
465.7499999999999
 30
0.0
 11
150.5
 21
466.75
 31
0.0
  0
LINE
  5
1D1
330
1E
100
AcDbEntity
  8
0
100
AcDbLine
 10
149.5
 20
472.75
 30
0.0
 11
150.5
 21
472.75
 31
0.0
  0
LINE
  5
1D2
330
1E
100
AcDbEntity
  8
0
100
AcDbLine
 10
149.5
 20
466.75
 30
0.0
 11
150.5
 21
466.75
 31
0.0
  0
LINE
  5
1D3
330
1E
100
AcDbEntity
  8
0
100
AcDbLine
 10
149.5
 20
464.7499999999999
 30
0.0
 11
150.5
 21
464.7499999999999
 31
0.0
  0
LINE
  5
1D4
330
1E
100
AcDbEntity
  8
0
100
AcDbLine
 10
148.875
 20
384.274
 30
0.0
 11
149.971
 21
383.563
 31
0.0
  0
LINE
  5
1D5
330
1E
100
AcDbEntity
  8
0
100
AcDbLine
 10
149.971
 20
383.563
 30
0.0
 11
150.625
 21
382.794
 31
0.0
  0
LINE
  5
1D6
330
1E
100
AcDbEntity
  8
0
100
AcDbLine
 10
150.5
 20
464.7499999999999
 30
0.0
 11
150.5
 21
420.568
 31
0.0
  0
LINE
  5
1D7
330
1E
100
AcDbEntity
  8
0
100
AcDbLine
 10
150.5
 20
466.75
 30
0.0
 11
150.5
 21
472.75
 31
0.0
  0
LINE
  5
1D8
330
1E
100
AcDbEntity
  8
0
100
AcDbLine
 10
150.5
 20
420.568
 30
0.0
 11
150.5
 21
464.7499999999999
 31
0.0
  0
LINE
  5
1D9
330
1E
100
AcDbEntity
  8
0
100
AcDbLine
 10
150.067
 20
383.467
 30
0.0
 11
150.214523429442
 21
383.2766551724139
 31
0.0
  0
LINE
  5
1DA
330
1E
100
AcDbEntity
  8
0
100
AcDbLine
 10
150.625
 20
382.794
 30
0.0
 11
151.144
 21
381.679
 31
0.0
  0
LINE
  5
1DB
330
1E
100
AcDbEntity
  8
0
100
AcDbLine
 10
148.5
 20
472.75
 30
0.0
 11
151.4
 21
472.75
 31
0.0
  0
LINE
  5
1DC
330
1E
100
AcDbEntity
  8
0
100
AcDbLine
 10
150.5
 20
472.75
 30
0.0
 11
151.4
 21
472.75
 31
0.0
  0
LINE
  5
1DD
330
1E
100
AcDbEntity
  8
0
100
AcDbLine
 10
150.5
 20
472.75
 30
0.0
 11
150.5
 21
466.75
 31
0.0
  0
LINE
  5
1DE
330
1E
100
AcDbEntity
  8
0
100
AcDbLine
 10
154.113
 20
4.728499999999969
 30
0.0
 11
183.487
 21
16.7151
 31
0.0
  0
LINE
  5
1DF
330
1E
100
AcDbEntity
  8
0
100
AcDbLine
 10
183.487
 20
16.7151
 30
0.0
 11
209.0399999999999
 21
36.20969999999999
 31
0.0
  0
LINE
  5
1E0
330
1E
100
AcDbEntity
  8
0
100
AcDbLine
 10
154.113
 20
4.728499999999969
 30
0.0
 11
183.487
 21
16.7151
 31
0.0
  0
LINE
  5
1E1
330
1E
100
AcDbEntity
  8
0
100
AcDbLine
 10
183.487
 20
16.7151
 30
0.0
 11
209.0399999999999
 21
36.20969999999999
 31
0.0
  0
LINE
  5
1E2
330
1E
100
AcDbEntity
  8
0
100
AcDbLine
 10
228.535
 20
61.76339999999999
 30
0.0
 11
240.5209999999999
 21
91.13710000000001
 31
0.0
  0
LINE
  5
1E3
330
1E
100
AcDbEntity
  8
0
100
AcDbLine
 10
240.5209999999999
 20
91.13710000000001
 30
0.0
 11
245.0
 21
122.75
 31
0.0
  0
LINE
  5
1E4
330
1E
100
AcDbEntity
  8
0
100
AcDbLine
 10
240.5209999999999
 20
154.363
 30
0.0
 11
245.0
 21
122.75
 31
0.0
  0
LINE
  5
1E5
330
1E
100
AcDbEntity
  8
0
100
AcDbLine
 10
317.0
 20
434.63
 30
0.0
 11
318.8
 21
434.63
 31
0.0
  0
LINE
  5
1E6
330
1E
100
AcDbEntity
  8
0
100
AcDbLine
 10
323.7999999999999
 20
434.63
 30
0.0
 11
332.0
 21
434.63
 31
0.0
  0
LINE
  5
1E7
330
1E
100
AcDbEntity
  8
0
100
AcDbLine
 10
318.8
 20
434.63
 30
0.0
 11
323.7999999999999
 21
434.63
 31
0.0
  0
LINE
  5
1E8
330
1E
100
AcDbEntity
  8
0
100
AcDbLine
 10
324.6999999999999
 20
434.63
 30
0.0
 11
332.6999999999999
 21
434.63
 31
0.0
  0
LINE
  5
1E9
330
1E
100
AcDbEntity
  8
0
100
AcDbLine
 10
319.8
 20
434.63
 30
0.0
 11
324.6999999999999
 21
434.63
 31
0.0
  0
LINE
  5
1EA
330
1E
100
AcDbEntity
  8
0
100
AcDbLine
 10
318.0
 20
434.63
 30
0.0
 11
319.8
 21
434.63
 31
0.0
  0
LINE
  5
1EB
330
1E
100
AcDbEntity
  8
0
100
AcDbLine
 10
332.0
 20
434.63
 30
0.0
 11
342.6
 21
434.63
 31
0.0
  0
LINE
  5
1EC
330
1E
100
AcDbEntity
  8
0
100
AcDbLine
 10
342.6
 20
434.63
 30
0.0
 11
354.8999999999999
 21
434.63
 31
0.0
  0
LINE
  5
1ED
330
1E
100
AcDbEntity
  8
0
100
AcDbLine
 10
354.8999999999999
 20
434.63
 30
0.0
 11
368.0
 21
434.63
 31
0.0
  0
LINE
  5
1EE
330
1E
100
AcDbEntity
  8
0
100
AcDbLine
 10
332.6999999999999
 20
434.63
 30
0.0
 11
343.1
 21
434.63
 31
0.0
  0
LINE
  5
1EF
330
1E
100
AcDbEntity
  8
0
100
AcDbLine
 10
315.5
 20
438.63
 30
0.0
 11
317.0
 21
439.13
 31
0.0
  0
LINE
  5
1F0
330
1E
100
AcDbEntity
  8
0
100
AcDbLine
 10
315.5
 20
438.63
 30
0.0
 11
317.3999999999999
 21
438.63
 31
0.0
  0
LINE
  5
1F1
330
1E
100
AcDbEntity
  8
0
100
AcDbLine
 10
315.0
 20
437.1299999999999
 30
0.0
 11
315.5
 21
438.63
 31
0.0
  0
LINE
  5
1F2
330
1E
100
AcDbEntity
  8
0
100
AcDbLine
 10
315.0
 20
437.1299999999999
 30
0.0
 11
315.0
 21
436.6299999999999
 31
0.0
  0
LINE
  5
1F3
330
1E
100
AcDbEntity
  8
0
100
AcDbLine
 10
315.0
 20
436.6299999999999
 30
0.0
 11
315.5
 21
435.13
 31
0.0
  0
LINE
  5
1F4
330
1E
100
AcDbEntity
  8
0
100
AcDbLine
 10
315.0
 20
436.6299999999999
 30
0.0
 11
315.0
 21
437.1299999999999
 31
0.0
  0
LINE
  5
1F5
330
1E
100
AcDbEntity
  8
0
100
AcDbLine
 10
317.3999999999999
 20
438.63
 30
0.0
 11
322.5
 21
438.63
 31
0.0
  0
LINE
  5
1F6
330
1E
100
AcDbEntity
  8
0
100
AcDbLine
 10
318.8
 20
439.13
 30
0.0
 11
323.7999999999999
 21
439.13
 31
0.0
  0
LINE
  5
1F7
330
1E
100
AcDbEntity
  8
0
100
AcDbLine
 10
317.3999999999999
 20
435.13
 30
0.0
 11
322.5
 21
435.13
 31
0.0
  0
LINE
  5
1F8
330
1E
100
AcDbEntity
  8
0
100
AcDbLine
 10
319.5
 20
446.63
 30
0.0
 11
319.5
 21
448.6299999999999
 31
0.0
  0
LINE
  5
1F9
330
1E
100
AcDbEntity
  8
0
100
AcDbLine
 10
319.5
 20
446.63
 30
0.0
 11
321.3
 21
446.63
 31
0.0
  0
LINE
  5
1FA
330
1E
100
AcDbEntity
  8
0
100
AcDbLine
 10
318.0
 20
446.13
 30
0.0
 11
319.5
 21
446.63
 31
0.0
  0
LINE
  5
1FB
330
1E
100
AcDbEntity
  8
0
100
AcDbLine
 10
318.0
 20
446.13
 30
0.0
 11
319.8
 21
446.13
 31
0.0
  0
LINE
  5
1FC
330
1E
100
AcDbEntity
  8
0
100
AcDbLine
 10
317.5
 20
444.6299999999999
 30
0.0
 11
318.0
 21
446.13
 31
0.0
  0
LINE
  5
1FD
330
1E
100
AcDbEntity
  8
0
100
AcDbLine
 10
317.0
 20
439.13
 30
0.0
 11
317.5
 21
444.6299999999999
 31
0.0
  0
LINE
  5
1FE
330
1E
100
AcDbEntity
  8
0
100
AcDbLine
 10
317.0
 20
439.13
 30
0.0
 11
318.8
 21
439.13
 31
0.0
  0
LINE
  5
1FF
330
1E
100
AcDbEntity
  8
0
100
AcDbLine
 10
315.5
 20
435.13
 30
0.0
 11
317.0
 21
434.63
 31
0.0
  0
LINE
  5
200
330
1E
100
AcDbEntity
  8
0
100
AcDbLine
 10
315.5
 20
435.13
 30
0.0
 11
317.3999999999999
 21
435.13
 31
0.0
  0
LINE
  5
201
330
1E
100
AcDbEntity
  8
0
100
AcDbLine
 10
319.5
 20
453.6299999999999
 30
0.0
 11
320.5
 21
455.13
 31
0.0
  0
LINE
  5
202
330
1E
100
AcDbEntity
  8
0
100
AcDbLine
 10
319.0
 20
452.13
 30
0.0
 11
319.5
 21
450.63
 31
0.0
  0
LINE
  5
203
330
1E
100
AcDbEntity
  8
0
100
AcDbLine
 10
319.0
 20
452.13
 30
0.0
 11
319.5
 21
453.6299999999999
 31
0.0
  0
LINE
  5
204
330
1E
100
AcDbEntity
  8
0
100
AcDbLine
 10
319.0
 20
452.13
 30
0.0
 11
320.8
 21
452.13
 31
0.0
  0
LINE
  5
205
330
1E
100
AcDbEntity
  8
0
100
AcDbLine
 10
319.5
 20
450.63
 30
0.0
 11
320.0
 21
449.6299999999999
 31
0.0
  0
LINE
  5
206
330
1E
100
AcDbEntity
  8
0
100
AcDbLine
 10
320.8
 20
452.13
 30
0.0
 11
325.6
 21
452.13
 31
0.0
  0
LINE
  5
207
330
1E
100
AcDbEntity
  8
0
100
AcDbLine
 10
321.7
 20
449.6299999999999
 30
0.0
 11
326.3999999999999
 21
449.6299999999999
 31
0.0
  0
LINE
  5
208
330
1E
100
AcDbEntity
  8
0
100
AcDbLine
 10
320.0
 20
449.6299999999999
 30
0.0
 11
321.7
 21
449.6299999999999
 31
0.0
  0
LINE
  5
209
330
1E
100
AcDbEntity
  8
0
100
AcDbLine
 10
321.3
 20
446.63
 30
0.0
 11
326.0
 21
446.63
 31
0.0
  0
LINE
  5
20A
330
1E
100
AcDbEntity
  8
0
100
AcDbLine
 10
319.8
 20
446.13
 30
0.0
 11
324.6999999999999
 21
446.13
 31
0.0
  0
LINE
  5
20B
330
1E
100
AcDbEntity
  8
0
100
AcDbLine
 10
322.5
 20
438.63
 30
0.0
 11
331.0
 21
438.63
 31
0.0
  0
LINE
  5
20C
330
1E
100
AcDbEntity
  8
0
100
AcDbLine
 10
331.0
 20
435.13
 30
0.0
 11
341.9
 21
435.13
 31
0.0
  0
LINE
  5
20D
330
1E
100
AcDbEntity
  8
0
100
AcDbLine
 10
331.0
 20
438.63
 30
0.0
 11
341.9
 21
438.63
 31
0.0
  0
LINE
  5
20E
330
1E
100
AcDbEntity
  8
0
100
AcDbLine
 10
332.0
 20
439.13
 30
0.0
 11
342.6
 21
439.13
 31
0.0
  0
LINE
  5
20F
330
1E
100
AcDbEntity
  8
0
100
AcDbLine
 10
342.6
 20
439.13
 30
0.0
 11
354.8999999999999
 21
439.13
 31
0.0
  0
LINE
  5
210
330
1E
100
AcDbEntity
  8
0
100
AcDbLine
 10
341.9
 20
438.63
 30
0.0
 11
354.4999999999999
 21
438.63
 31
0.0
  0
LINE
  5
211
330
1E
100
AcDbEntity
  8
0
100
AcDbLine
 10
354.4999999999999
 20
438.63
 30
0.0
 11
368.0
 21
438.63
 31
0.0
  0
LINE
  5
212
330
1E
100
AcDbEntity
  8
0
100
AcDbLine
 10
341.9
 20
435.13
 30
0.0
 11
354.4999999999999
 21
435.13
 31
0.0
  0
LINE
  5
213
330
1E
100
AcDbEntity
  8
0
100
AcDbLine
 10
354.8999999999999
 20
439.13
 30
0.0
 11
368.0
 21
439.13
 31
0.0
  0
LINE
  5
214
330
1E
100
AcDbEntity
  8
0
100
AcDbLine
 10
354.4999999999999
 20
435.13
 30
0.0
 11
368.0
 21
435.13
 31
0.0
  0
LINE
  5
215
330
1E
100
AcDbEntity
  8
0
100
AcDbLine
 10
332.6999999999999
 20
446.13
 30
0.0
 11
343.1
 21
446.13
 31
0.0
  0
LINE
  5
216
330
1E
100
AcDbEntity
  8
0
100
AcDbLine
 10
333.8
 20
446.63
 30
0.0
 11
343.9
 21
446.63
 31
0.0
  0
LINE
  5
217
330
1E
100
AcDbEntity
  8
0
100
AcDbLine
 10
343.9
 20
446.63
 30
0.0
 11
355.5
 21
446.63
 31
0.0
  0
LINE
  5
218
330
1E
100
AcDbEntity
  8
0
100
AcDbLine
 10
343.1
 20
446.13
 30
0.0
 11
355.2
 21
446.13
 31
0.0
  0
LINE
  5
219
330
1E
100
AcDbEntity
  8
0
100
AcDbLine
 10
355.2
 20
446.13
 30
0.0
 11
368.0
 21
446.13
 31
0.0
  0
LINE
  5
21A
330
1E
100
AcDbEntity
  8
0
100
AcDbLine
 10
325.6
 20
452.13
 30
0.0
 11
333.3999999999999
 21
452.13
 31
0.0
  0
LINE
  5
21B
330
1E
100
AcDbEntity
  8
0
100
AcDbLine
 10
334.1
 20
449.6299999999999
 30
0.0
 11
344.1
 21
449.6299999999999
 31
0.0
  0
LINE
  5
21C
330
1E
100
AcDbEntity
  8
0
100
AcDbLine
 10
333.3999999999999
 20
452.13
 30
0.0
 11
343.6
 21
452.13
 31
0.0
  0
LINE
  5
21D
330
1E
100
AcDbEntity
  8
0
100
AcDbLine
 10
343.6
 20
452.13
 30
0.0
 11
355.3999999999999
 21
452.13
 31
0.0
  0
LINE
  5
21E
330
1E
100
AcDbEntity
  8
0
100
AcDbLine
 10
344.1
 20
449.6299999999999
 30
0.0
 11
355.6999999999999
 21
449.6299999999999
 31
0.0
  0
LINE
  5
21F
330
1E
100
AcDbEntity
  8
0
100
AcDbLine
 10
326.3999999999999
 20
449.6299999999999
 30
0.0
 11
334.1
 21
449.6299999999999
 31
0.0
  0
LINE
  5
220
330
1E
100
AcDbEntity
  8
0
100
AcDbLine
 10
326.0
 20
446.63
 30
0.0
 11
333.8
 21
446.63
 31
0.0
  0
LINE
  5
221
330
1E
100
AcDbEntity
  8
0
100
AcDbLine
 10
324.6999999999999
 20
446.13
 30
0.0
 11
332.6999999999999
 21
446.13
 31
0.0
  0
LINE
  5
222
330
1E
100
AcDbEntity
  8
0
100
AcDbLine
 10
323.7999999999999
 20
439.13
 30
0.0
 11
332.0
 21
439.13
 31
0.0
  0
LINE
  5
223
330
1E
100
AcDbEntity
  8
0
100
AcDbLine
 10
322.5
 20
435.13
 30
0.0
 11
331.0
 21
435.13
 31
0.0
  0
LINE
  5
224
330
1E
100
AcDbEntity
  8
0
100
AcDbLine
 10
355.0
 20
465.1299999999999
 30
0.0
 11
356.4999999999999
 21
467.13
 31
0.0
  0
LINE
  5
225
330
1E
100
AcDbEntity
  8
0
100
AcDbLine
 10
353.0
 20
463.63
 30
0.0
 11
355.0
 21
465.1299999999999
 31
0.0
  0
LINE
  5
226
330
1E
100
AcDbEntity
  8
0
100
AcDbLine
 10
341.0
 20
462.6299999999999
 30
0.0
 11
353.0
 21
463.63
 31
0.0
  0
LINE
  5
227
330
1E
100
AcDbEntity
  8
0
100
AcDbLine
 10
324.0
 20
460.63
 30
0.0
 11
341.0
 21
462.6299999999999
 31
0.0
  0
LINE
  5
228
330
1E
100
AcDbEntity
  8
0
100
AcDbLine
 10
322.5
 20
460.13
 30
0.0
 11
324.0
 21
460.63
 31
0.0
  0
LINE
  5
229
330
1E
100
AcDbEntity
  8
0
100
AcDbLine
 10
321.4999999999999
 20
459.13
 30
0.0
 11
322.5
 21
460.13
 31
0.0
  0
LINE
  5
22A
330
1E
100
AcDbEntity
  8
0
100
AcDbLine
 10
321.0
 20
457.6299999999999
 30
0.0
 11
321.4999999999999
 21
459.13
 31
0.0
  0
LINE
  5
22B
330
1E
100
AcDbEntity
  8
0
100
AcDbLine
 10
320.5
 20
455.13
 30
0.0
 11
321.0
 21
457.6299999999999
 31
0.0
  0
LINE
  5
22C
330
1E
100
AcDbEntity
  8
0
100
AcDbLine
 10
319.5
 20
448.6299999999999
 30
0.0
 11
320.0
 21
449.6299999999999
 31
0.0
  0
LINE
  5
22D
330
1E
100
AcDbEntity
  8
0
100
AcDbLine
 10
319.5
 20
448.6299999999999
 30
0.0
 11
319.5
 21
446.63
 31
0.0
  0
LINE
  5
22E
330
1E
100
AcDbEntity
  8
0
100
AcDbLine
 10
343.1
 20
434.63
 30
0.0
 11
355.2
 21
434.63
 31
0.0
  0
LINE
  5
22F
330
1E
100
AcDbEntity
  8
0
100
AcDbLine
 10
355.5
 20
446.63
 30
0.0
 11
368.0
 21
446.63
 31
0.0
  0
LINE
  5
230
330
1E
100
AcDbEntity
  8
0
100
AcDbLine
 10
355.3999999999999
 20
452.13
 30
0.0
 11
368.0
 21
452.13
 31
0.0
  0
LINE
  5
231
330
1E
100
AcDbEntity
  8
0
100
AcDbLine
 10
393.3999999999999
 20
434.63
 30
0.0
 11
404.0
 21
434.63
 31
0.0
  0
LINE
  5
232
330
1E
100
AcDbEntity
  8
0
100
AcDbLine
 10
381.1
 20
434.63
 30
0.0
 11
393.3999999999999
 21
434.63
 31
0.0
  0
LINE
  5
233
330
1E
100
AcDbEntity
  8
0
100
AcDbLine
 10
392.8999999999999
 20
434.63
 30
0.0
 11
403.3
 21
434.63
 31
0.0
  0
LINE
  5
234
330
1E
100
AcDbEntity
  8
0
100
AcDbLine
 10
380.8
 20
434.63
 30
0.0
 11
392.8999999999999
 21
434.63
 31
0.0
  0
LINE
  5
235
330
1E
100
AcDbEntity
  8
0
100
AcDbLine
 10
368.0
 20
434.63
 30
0.0
 11
380.8
 21
434.63
 31
0.0
  0
LINE
  5
236
330
1E
100
AcDbEntity
  8
0
100
AcDbLine
 10
368.0
 20
434.63
 30
0.0
 11
381.1
 21
434.63
 31
0.0
  0
LINE
  5
237
330
1E
100
AcDbEntity
  8
0
100
AcDbLine
 10
404.0
 20
434.63
 30
0.0
 11
412.1999999999999
 21
434.63
 31
0.0
  0
LINE
  5
238
330
1E
100
AcDbEntity
  8
0
100
AcDbLine
 10
403.3
 20
434.63
 30
0.0
 11
411.3
 21
434.63
 31
0.0
  0
LINE
  5
239
330
1E
100
AcDbEntity
  8
0
100
AcDbLine
 10
419.0
 20
434.63
 30
0.0
 11
420.5
 21
435.13
 31
0.0
  0
LINE
  5
23A
330
1E
100
AcDbEntity
  8
0
100
AcDbLine
 10
412.1999999999999
 20
434.63
 30
0.0
 11
417.1999999999999
 21
434.63
 31
0.0
  0
LINE
  5
23B
330
1E
100
AcDbEntity
  8
0
100
AcDbLine
 10
417.1999999999999
 20
434.63
 30
0.0
 11
419.0
 21
434.63
 31
0.0
  0
LINE
  5
23C
330
1E
100
AcDbEntity
  8
0
100
AcDbLine
 10
411.3
 20
434.63
 30
0.0
 11
416.1999999999999
 21
434.63
 31
0.0
  0
LINE
  5
23D
330
1E
100
AcDbEntity
  8
0
100
AcDbLine
 10
368.0
 20
438.63
 30
0.0
 11
381.4999999999999
 21
438.63
 31
0.0
  0
LINE
  5
23E
330
1E
100
AcDbEntity
  8
0
100
AcDbLine
 10
405.0
 20
435.13
 30
0.0
 11
413.4999999999999
 21
435.13
 31
0.0
  0
LINE
  5
23F
330
1E
100
AcDbEntity
  8
0
100
AcDbLine
 10
413.4999999999999
 20
435.13
 30
0.0
 11
418.5999999999999
 21
435.13
 31
0.0
  0
LINE
  5
240
330
1E
100
AcDbEntity
  8
0
100
AcDbLine
 10
418.5999999999999
 20
435.13
 30
0.0
 11
420.5
 21
435.13
 31
0.0
  0
LINE
  5
241
330
1E
100
AcDbEntity
  8
0
100
AcDbLine
 10
394.1
 20
435.13
 30
0.0
 11
405.0
 21
435.13
 31
0.0
  0
LINE
  5
242
330
1E
100
AcDbEntity
  8
0
100
AcDbLine
 10
405.0
 20
438.63
 30
0.0
 11
413.4999999999999
 21
438.63
 31
0.0
  0
LINE
  5
243
330
1E
100
AcDbEntity
  8
0
100
AcDbLine
 10
413.4999999999999
 20
438.63
 30
0.0
 11
418.5999999999999
 21
438.63
 31
0.0
  0
LINE
  5
244
330
1E
100
AcDbEntity
  8
0
100
AcDbLine
 10
418.5999999999999
 20
438.63
 30
0.0
 11
420.5
 21
438.63
 31
0.0
  0
LINE
  5
245
330
1E
100
AcDbEntity
  8
0
100
AcDbLine
 10
394.1
 20
438.63
 30
0.0
 11
405.0
 21
438.63
 31
0.0
  0
LINE
  5
246
330
1E
100
AcDbEntity
  8
0
100
AcDbLine
 10
381.4999999999999
 20
438.63
 30
0.0
 11
394.1
 21
438.63
 31
0.0
  0
LINE
  5
247
330
1E
100
AcDbEntity
  8
0
100
AcDbLine
 10
381.4999999999999
 20
435.13
 30
0.0
 11
394.1
 21
435.13
 31
0.0
  0
LINE
  5
248
330
1E
100
AcDbEntity
  8
0
100
AcDbLine
 10
368.0
 20
435.13
 30
0.0
 11
381.4999999999999
 21
435.13
 31
0.0
  0
LINE
  5
249
330
1E
100
AcDbEntity
  8
0
100
AcDbLine
 10
404.0
 20
439.13
 30
0.0
 11
412.1999999999999
 21
439.13
 31
0.0
  0
LINE
  5
24A
330
1E
100
AcDbEntity
  8
0
100
AcDbLine
 10
412.1999999999999
 20
439.13
 30
0.0
 11
417.1999999999999
 21
439.13
 31
0.0
  0
LINE
  5
24B
330
1E
100
AcDbEntity
  8
0
100
AcDbLine
 10
417.1999999999999
 20
439.13
 30
0.0
 11
419.0
 21
439.13
 31
0.0
  0
LINE
  5
24C
330
1E
100
AcDbEntity
  8
0
100
AcDbLine
 10
393.3999999999999
 20
439.13
 30
0.0
 11
404.0
 21
439.13
 31
0.0
  0
LINE
  5
24D
330
1E
100
AcDbEntity
  8
0
100
AcDbLine
 10
381.1
 20
439.13
 30
0.0
 11
393.3999999999999
 21
439.13
 31
0.0
  0
LINE
  5
24E
330
1E
100
AcDbEntity
  8
0
100
AcDbLine
 10
368.0
 20
439.13
 30
0.0
 11
381.1
 21
439.13
 31
0.0
  0
LINE
  5
24F
330
1E
100
AcDbEntity
  8
0
100
AcDbLine
 10
368.0
 20
446.63
 30
0.0
 11
380.5
 21
446.63
 31
0.0
  0
LINE
  5
250
330
1E
100
AcDbEntity
  8
0
100
AcDbLine
 10
403.3
 20
446.13
 30
0.0
 11
411.3
 21
446.13
 31
0.0
  0
LINE
  5
251
330
1E
100
AcDbEntity
  8
0
100
AcDbLine
 10
411.3
 20
446.13
 30
0.0
 11
416.1999999999999
 21
446.13
 31
0.0
  0
LINE
  5
252
330
1E
100
AcDbEntity
  8
0
100
AcDbLine
 10
416.1999999999999
 20
446.13
 30
0.0
 11
418.0
 21
446.13
 31
0.0
  0
LINE
  5
253
330
1E
100
AcDbEntity
  8
0
100
AcDbLine
 10
392.8999999999999
 20
446.13
 30
0.0
 11
403.3
 21
446.13
 31
0.0
  0
LINE
  5
254
330
1E
100
AcDbEntity
  8
0
100
AcDbLine
 10
402.2
 20
446.63
 30
0.0
 11
410.0
 21
446.63
 31
0.0
  0
LINE
  5
255
330
1E
100
AcDbEntity
  8
0
100
AcDbLine
 10
410.0
 20
446.63
 30
0.0
 11
414.7
 21
446.63
 31
0.0
  0
LINE
  5
256
330
1E
100
AcDbEntity
  8
0
100
AcDbLine
 10
414.7
 20
446.63
 30
0.0
 11
416.5
 21
446.63
 31
0.0
  0
LINE
  5
257
330
1E
100
AcDbEntity
  8
0
100
AcDbLine
 10
392.1
 20
446.63
 30
0.0
 11
402.2
 21
446.63
 31
0.0
  0
LINE
  5
258
330
1E
100
AcDbEntity
  8
0
100
AcDbLine
 10
380.5
 20
446.63
 30
0.0
 11
392.1
 21
446.63
 31
0.0
  0
LINE
  5
259
330
1E
100
AcDbEntity
  8
0
100
AcDbLine
 10
380.8
 20
446.13
 30
0.0
 11
392.8999999999999
 21
446.13
 31
0.0
  0
LINE
  5
25A
330
1E
100
AcDbEntity
  8
0
100
AcDbLine
 10
368.0
 20
446.13
 30
0.0
 11
380.8
 21
446.13
 31
0.0
  0
LINE
  5
25B
330
1E
100
AcDbEntity
  8
0
100
AcDbLine
 10
401.9
 20
449.6299999999999
 30
0.0
 11
409.6
 21
449.6299999999999
 31
0.0
  0
LINE
  5
25C
330
1E
100
AcDbEntity
  8
0
100
AcDbLine
 10
409.6
 20
449.6299999999999
 30
0.0
 11
414.2999999999999
 21
449.6299999999999
 31
0.0
  0
LINE
  5
25D
330
1E
100
AcDbEntity
  8
0
100
AcDbLine
 10
414.2999999999999
 20
449.6299999999999
 30
0.0
 11
416.0
 21
449.6299999999999
 31
0.0
  0
LINE
  5
25E
330
1E
100
AcDbEntity
  8
0
100
AcDbLine
 10
391.9
 20
449.6299999999999
 30
0.0
 11
401.9
 21
449.6299999999999
 31
0.0
  0
LINE
  5
25F
330
1E
100
AcDbEntity
  8
0
100
AcDbLine
 10
380.3
 20
449.6299999999999
 30
0.0
 11
391.9
 21
449.6299999999999
 31
0.0
  0
LINE
  5
260
330
1E
100
AcDbEntity
  8
0
100
AcDbLine
 10
368.0
 20
449.6299999999999
 30
0.0
 11
380.3
 21
449.6299999999999
 31
0.0
  0
LINE
  5
261
330
1E
100
AcDbEntity
  8
0
100
AcDbLine
 10
402.6
 20
452.13
 30
0.0
 11
410.4
 21
452.13
 31
0.0
  0
LINE
  5
262
330
1E
100
AcDbEntity
  8
0
100
AcDbLine
 10
410.4
 20
452.13
 30
0.0
 11
415.2
 21
452.13
 31
0.0
  0
LINE
  5
263
330
1E
100
AcDbEntity
  8
0
100
AcDbLine
 10
415.2
 20
452.13
 30
0.0
 11
417.0
 21
452.13
 31
0.0
  0
LINE
  5
264
330
1E
100
AcDbEntity
  8
0
100
AcDbLine
 10
392.3999999999999
 20
452.13
 30
0.0
 11
402.6
 21
452.13
 31
0.0
  0
LINE
  5
265
330
1E
100
AcDbEntity
  8
0
100
AcDbLine
 10
380.6
 20
452.13
 30
0.0
 11
392.3999999999999
 21
452.13
 31
0.0
  0
LINE
  5
266
330
1E
100
AcDbEntity
  8
0
100
AcDbLine
 10
368.0
 20
452.13
 30
0.0
 11
380.6
 21
452.13
 31
0.0
  0
LINE
  5
267
330
1E
100
AcDbEntity
  8
0
100
AcDbLine
 10
379.4999999999999
 20
467.13
 30
0.0
 11
381.0
 21
465.1299999999999
 31
0.0
  0
LINE
  5
268
330
1E
100
AcDbEntity
  8
0
100
AcDbLine
 10
381.0
 20
465.1299999999999
 30
0.0
 11
383.0
 21
463.63
 31
0.0
  0
LINE
  5
269
330
1E
100
AcDbEntity
  8
0
100
AcDbLine
 10
383.0
 20
463.63
 30
0.0
 11
395.0
 21
462.6299999999999
 31
0.0
  0
LINE
  5
26A
330
1E
100
AcDbEntity
  8
0
100
AcDbLine
 10
395.0
 20
462.6299999999999
 30
0.0
 11
412.0
 21
460.63
 31
0.0
  0
LINE
  5
26B
330
1E
100
AcDbEntity
  8
0
100
AcDbLine
 10
412.0
 20
460.63
 30
0.0
 11
413.4999999999999
 21
460.13
 31
0.0
  0
LINE
  5
26C
330
1E
100
AcDbEntity
  8
0
100
AcDbLine
 10
413.4999999999999
 20
460.13
 30
0.0
 11
414.5
 21
459.13
 31
0.0
  0
LINE
  5
26D
330
1E
100
AcDbEntity
  8
0
100
AcDbLine
 10
414.5
 20
459.13
 30
0.0
 11
415.0
 21
457.6299999999999
 31
0.0
  0
LINE
  5
26E
330
1E
100
AcDbEntity
  8
0
100
AcDbLine
 10
415.0
 20
457.6299999999999
 30
0.0
 11
415.5
 21
455.13
 31
0.0
  0
LINE
  5
26F
330
1E
100
AcDbEntity
  8
0
100
AcDbLine
 10
415.5
 20
455.13
 30
0.0
 11
416.5
 21
453.6299999999999
 31
0.0
  0
LINE
  5
270
330
1E
100
AcDbEntity
  8
0
100
AcDbLine
 10
416.5
 20
453.6299999999999
 30
0.0
 11
417.0
 21
452.13
 31
0.0
  0
LINE
  5
271
330
1E
100
AcDbEntity
  8
0
100
AcDbLine
 10
416.5
 20
450.63
 30
0.0
 11
417.0
 21
452.13
 31
0.0
  0
LINE
  5
272
330
1E
100
AcDbEntity
  8
0
100
AcDbLine
 10
416.0
 20
449.6299999999999
 30
0.0
 11
416.5
 21
448.6299999999999
 31
0.0
  0
LINE
  5
273
330
1E
100
AcDbEntity
  8
0
100
AcDbLine
 10
416.0
 20
449.6299999999999
 30
0.0
 11
416.5
 21
450.63
 31
0.0
  0
LINE
  5
274
330
1E
100
AcDbEntity
  8
0
100
AcDbLine
 10
416.5
 20
448.6299999999999
 30
0.0
 11
416.5
 21
446.63
 31
0.0
  0
LINE
  5
275
330
1E
100
AcDbEntity
  8
0
100
AcDbLine
 10
416.5
 20
446.63
 30
0.0
 11
418.0
 21
446.13
 31
0.0
  0
LINE
  5
276
330
1E
100
AcDbEntity
  8
0
100
AcDbLine
 10
416.5
 20
446.63
 30
0.0
 11
416.5
 21
448.6299999999999
 31
0.0
  0
LINE
  5
277
330
1E
100
AcDbEntity
  8
0
100
AcDbLine
 10
418.0
 20
446.13
 30
0.0
 11
418.5
 21
444.6299999999999
 31
0.0
  0
LINE
  5
278
330
1E
100
AcDbEntity
  8
0
100
AcDbLine
 10
418.5
 20
444.6299999999999
 30
0.0
 11
419.0
 21
439.13
 31
0.0
  0
LINE
  5
279
330
1E
100
AcDbEntity
  8
0
100
AcDbLine
 10
419.0
 20
439.13
 30
0.0
 11
420.5
 21
438.63
 31
0.0
  0
LINE
  5
27A
330
1E
100
AcDbEntity
  8
0
100
AcDbLine
 10
420.5
 20
438.63
 30
0.0
 11
421.0
 21
437.1299999999999
 31
0.0
  0
LINE
  5
27B
330
1E
100
AcDbEntity
  8
0
100
AcDbLine
 10
421.0
 20
436.6299999999999
 30
0.0
 11
421.0
 21
437.1299999999999
 31
0.0
  0
LINE
  5
27C
330
1E
100
AcDbEntity
  8
0
100
AcDbLine
 10
421.0
 20
437.1299999999999
 30
0.0
 11
421.0
 21
436.6299999999999
 31
0.0
  0
LINE
  5
27D
330
1E
100
AcDbEntity
  8
0
100
AcDbLine
 10
420.5
 20
435.13
 30
0.0
 11
421.0
 21
436.6299999999999
 31
0.0
  0
LINE
  5
27E
330
1E
100
AcDbEntity
  8
0
100
AcDbLine
 10
416.1999999999999
 20
434.63
 30
0.0
 11
418.0
 21
434.63
 31
0.0
  0
LINE
  5
27F
330
1E
100
AcDbEntity
  8
0
100
AcDbLine
 10
355.6999999999999
 20
449.6299999999999
 30
0.0
 11
368.0
 21
449.6299999999999
 31
0.0
  0
LINE
  5
280
330
1E
100
AcDbEntity
  8
0
100
AcDbLine
 10
360.0
 20
472.63
 30
0.0
 11
360.0
 21
477.0299999999999
 31
0.0
  0
LINE
  5
281
330
1E
100
AcDbEntity
  8
0
100
AcDbLine
 10
361.2999999999999
 20
472.63
 30
0.0
 11
363.3
 21
472.63
 31
0.0
  0
LINE
  5
282
330
1E
100
AcDbEntity
  8
0
100
AcDbLine
 10
363.3
 20
472.63
 30
0.0
 11
365.6
 21
472.63
 31
0.0
  0
LINE
  5
283
330
1E
100
AcDbEntity
  8
0
100
AcDbLine
 10
376.0
 20
472.63
 30
0.0
 11
376.0
 21
477.0299999999999
 31
0.0
  0
LINE
  5
284
330
1E
100
AcDbEntity
  8
0
100
AcDbLine
 10
374.6999999999999
 20
472.63
 30
0.0
 11
376.2
 21
472.63
 31
0.0
  0
LINE
  5
285
330
1E
100
AcDbEntity
  8
0
100
AcDbLine
 10
376.2
 20
472.63
 30
0.0
 11
377.1999999999999
 21
472.63
 31
0.0
  0
LINE
  5
286
330
1E
100
AcDbEntity
  8
0
100
AcDbLine
 10
377.4999999999999
 20
472.63
 30
0.0
 11
378.5
 21
471.63
 31
0.0
  0
LINE
  5
287
330
1E
100
AcDbEntity
  8
0
100
AcDbLine
 10
377.1999999999999
 20
472.63
 30
0.0
 11
377.4999999999999
 21
472.63
 31
0.0
  0
LINE
  5
288
330
1E
100
AcDbEntity
  8
0
100
AcDbLine
 10
378.5
 20
471.63
 30
0.0
 11
379.4999999999999
 21
467.13
 31
0.0
  0
LINE
  5
289
330
1E
100
AcDbEntity
  8
0
100
AcDbLine
 10
372.6999999999999
 20
472.63
 30
0.0
 11
374.6999999999999
 21
472.63
 31
0.0
  0
LINE
  5
28A
330
1E
100
AcDbEntity
  8
0
100
AcDbLine
 10
370.3999999999999
 20
472.63
 30
0.0
 11
372.6999999999999
 21
472.63
 31
0.0
  0
LINE
  5
28B
330
1E
100
AcDbEntity
  8
0
100
AcDbLine
 10
368.0
 20
472.63
 30
0.0
 11
370.3999999999999
 21
472.63
 31
0.0
  0
LINE
  5
28C
330
1E
100
AcDbEntity
  8
0
100
AcDbLine
 10
365.6
 20
472.63
 30
0.0
 11
368.0
 21
472.63
 31
0.0
  0
LINE
  5
28D
330
1E
100
AcDbEntity
  8
0
100
AcDbLine
 10
359.8
 20
472.63
 30
0.0
 11
361.2999999999999
 21
472.63
 31
0.0
  0
LINE
  5
28E
330
1E
100
AcDbEntity
  8
0
100
AcDbLine
 10
358.8
 20
472.63
 30
0.0
 11
359.8
 21
472.63
 31
0.0
  0
LINE
  5
28F
330
1E
100
AcDbEntity
  8
0
100
AcDbLine
 10
358.4999999999999
 20
472.63
 30
0.0
 11
358.8
 21
472.63
 31
0.0
  0
LINE
  5
290
330
1E
100
AcDbEntity
  8
0
100
AcDbLine
 10
357.5
 20
471.63
 30
0.0
 11
358.4999999999999
 21
472.63
 31
0.0
  0
LINE
  5
291
330
1E
100
AcDbEntity
  8
0
100
AcDbLine
 10
356.4999999999999
 20
467.13
 30
0.0
 11
357.5
 21
471.63
 31
0.0
  0
LINE
  5
292
330
1E
100
AcDbEntity
  8
0
100
AcDbLine
 10
355.2
 20
434.63
 30
0.0
 11
368.0
 21
434.63
 31
0.0
  0
LINE
  5
293
330
1E
100
AcDbEntity
  8
0
100
AcDbLine
 10
154.113
 20
240.7709999999999
 30
0.0
 11
183.487
 21
228.785
 31
0.0
  0
LINE
  5
294
330
1E
100
AcDbEntity
  8
0
100
AcDbLine
 10
152.927
 20
130.9169999999999
 30
0.0
 11
154.113
 21
122.75
 31
0.0
  0
LINE
  5
295
330
1E
100
AcDbEntity
  8
0
100
AcDbLine
 10
152.927
 20
114.5829999999999
 30
0.0
 11
154.113
 21
122.75
 31
0.0
  0
LINE
  5
296
330
1E
100
AcDbEntity
  8
0
100
AcDbLine
 10
152.5
 20
472.75
 30
0.0
 11
159.4999999999999
 21
482.7499999999999
 31
0.0
  0
LINE
  5
297
330
1E
100
AcDbEntity
  8
0
100
AcDbLine
 10
151.4
 20
472.75
 30
0.0
 11
152.5
 21
472.75
 31
0.0
  0
LINE
  5
298
330
1E
100
AcDbEntity
  8
0
100
AcDbLine
 10
93.59999999999999
 20
472.75
 30
0.0
 11
94.50000000000001
 21
472.75
 31
0.0
  0
LINE
  5
299
330
1E
100
AcDbEntity
  8
0
100
AcDbLine
 10
93.59999999999999
 20
472.75
 30
0.0
 11
96.5
 21
472.75
 31
0.0
  0
LINE
  5
29A
330
1E
100
AcDbEntity
  8
0
100
AcDbLine
 10
104.0999999999999
 20
482.7499999999999
 30
0.0
 11
112.5
 21
482.7499999999999
 31
0.0
  0
LINE
  5
29B
330
1E
100
AcDbEntity
  8
0
100
AcDbLine
 10
96.4
 20
482.7499999999999
 30
0.0
 11
104.0999999999999
 21
482.7499999999999
 31
0.0
  0
LINE
  5
29C
330
1E
100
AcDbEntity
  8
0
100
AcDbLine
 10
90.5
 20
482.7499999999999
 30
0.0
 11
96.4
 21
482.7499999999999
 31
0.0
  0
LINE
  5
29D
330
1E
100
AcDbEntity
  8
0
100
AcDbLine
 10
86.79999999999999
 20
482.7499999999999
 30
0.0
 11
90.5
 21
482.7499999999999
 31
0.0
  0
LINE
  5
29E
330
1E
100
AcDbEntity
  8
0
100
AcDbLine
 10
90.5
 20
489.7499999999999
 30
0.0
 11
96.4
 21
489.7499999999999
 31
0.0
  0
LINE
  5
29F
330
1E
100
AcDbEntity
  8
0
100
AcDbLine
 10
86.79999999999999
 20
489.7499999999999
 30
0.0
 11
90.5
 21
489.7499999999999
 31
0.0
  0
LINE
  5
2A0
330
1E
100
AcDbEntity
  8
0
100
AcDbLine
 10
104.0999999999999
 20
489.7499999999999
 30
0.0
 11
112.5
 21
489.7499999999999
 31
0.0
  0
LINE
  5
2A1
330
1E
100
AcDbEntity
  8
0
100
AcDbLine
 10
96.4
 20
489.7499999999999
 30
0.0
 11
104.0999999999999
 21
489.7499999999999
 31
0.0
  0
LINE
  5
2A2
330
1E
100
AcDbEntity
  8
0
100
AcDbLine
 10
104.6
 20
490.7499999999999
 30
0.0
 11
112.5
 21
490.7499999999999
 31
0.0
  0
LINE
  5
2A3
330
1E
100
AcDbEntity
  8
0
100
AcDbLine
 10
97.1
 20
490.7499999999999
 30
0.0
 11
104.6
 21
490.7499999999999
 31
0.0
  0
LINE
  5
2A4
330
1E
100
AcDbEntity
  8
0
100
AcDbLine
 10
91.3
 20
490.7499999999999
 30
0.0
 11
97.1
 21
490.7499999999999
 31
0.0
  0
LINE
  5
2A5
330
1E
100
AcDbEntity
  8
0
100
AcDbLine
 10
87.79999999999999
 20
490.7499999999999
 30
0.0
 11
91.3
 21
490.7499999999999
 31
0.0
  0
LINE
  5
2A6
330
1E
100
AcDbEntity
  8
0
100
AcDbLine
 10
86.5
 20
490.7499999999999
 30
0.0
 11
87.79999999999999
 21
490.7499999999999
 31
0.0
  0
LINE
  5
2A7
330
1E
100
AcDbEntity
  8
0
100
AcDbLine
 10
132.4999999999999
 20
482.7499999999999
 30
0.0
 11
140.8999999999999
 21
482.7499999999999
 31
0.0
  0
LINE
  5
2A8
330
1E
100
AcDbEntity
  8
0
100
AcDbLine
 10
132.4999999999999
 20
489.7499999999999
 30
0.0
 11
140.8999999999999
 21
489.7499999999999
 31
0.0
  0
LINE
  5
2A9
330
1E
100
AcDbEntity
  8
0
100
AcDbLine
 10
104.0999999999999
 20
491.75
 30
0.0
 11
112.5
 21
491.75
 31
0.0
  0
LINE
  5
2AA
330
1E
100
AcDbEntity
  8
0
100
AcDbLine
 10
96.4
 20
491.75
 30
0.0
 11
104.0999999999999
 21
491.75
 31
0.0
  0
LINE
  5
2AB
330
1E
100
AcDbEntity
  8
0
100
AcDbLine
 10
90.5
 20
491.75
 30
0.0
 11
96.4
 21
491.75
 31
0.0
  0
LINE
  5
2AC
330
1E
100
AcDbEntity
  8
0
100
AcDbLine
 10
86.79999999999999
 20
491.75
 30
0.0
 11
90.5
 21
491.75
 31
0.0
  0
LINE
  5
2AD
330
1E
100
AcDbEntity
  8
0
100
AcDbLine
 10
132.4999999999999
 20
490.7499999999999
 30
0.0
 11
140.4
 21
490.7499999999999
 31
0.0
  0
LINE
  5
2AE
330
1E
100
AcDbEntity
  8
0
100
AcDbLine
 10
140.8999999999999
 20
482.7499999999999
 30
0.0
 11
148.5999999999999
 21
482.7499999999999
 31
0.0
  0
LINE
  5
2AF
330
1E
100
AcDbEntity
  8
0
100
AcDbLine
 10
140.8999999999999
 20
489.7499999999999
 30
0.0
 11
148.5999999999999
 21
489.7499999999999
 31
0.0
  0
LINE
  5
2B0
330
1E
100
AcDbEntity
  8
0
100
AcDbLine
 10
140.4
 20
490.7499999999999
 30
0.0
 11
147.9
 21
490.7499999999999
 31
0.0
  0
LINE
  5
2B1
330
1E
100
AcDbEntity
  8
0
100
AcDbLine
 10
132.4999999999999
 20
491.75
 30
0.0
 11
140.8999999999999
 21
491.75
 31
0.0
  0
LINE
  5
2B2
330
1E
100
AcDbEntity
  8
0
100
AcDbLine
 10
148.5999999999999
 20
482.7499999999999
 30
0.0
 11
154.4999999999999
 21
482.7499999999999
 31
0.0
  0
LINE
  5
2B3
330
1E
100
AcDbEntity
  8
0
100
AcDbLine
 10
154.4999999999999
 20
482.7499999999999
 30
0.0
 11
158.1999999999999
 21
482.7499999999999
 31
0.0
  0
LINE
  5
2B4
330
1E
100
AcDbEntity
  8
0
100
AcDbLine
 10
148.5999999999999
 20
489.7499999999999
 30
0.0
 11
154.4999999999999
 21
489.7499999999999
 31
0.0
  0
LINE
  5
2B5
330
1E
100
AcDbEntity
  8
0
100
AcDbLine
 10
154.4999999999999
 20
489.7499999999999
 30
0.0
 11
158.1999999999999
 21
489.7499999999999
 31
0.0
  0
LINE
  5
2B6
330
1E
100
AcDbEntity
  8
0
100
AcDbLine
 10
147.9
 20
490.7499999999999
 30
0.0
 11
153.6999999999999
 21
490.7499999999999
 31
0.0
  0
LINE
  5
2B7
330
1E
100
AcDbEntity
  8
0
100
AcDbLine
 10
153.6999999999999
 20
490.7499999999999
 30
0.0
 11
157.1999999999999
 21
490.7499999999999
 31
0.0
  0
LINE
  5
2B8
330
1E
100
AcDbEntity
  8
0
100
AcDbLine
 10
140.8999999999999
 20
491.75
 30
0.0
 11
148.5999999999999
 21
491.75
 31
0.0
  0
LINE
  5
2B9
330
1E
100
AcDbEntity
  8
0
100
AcDbLine
 10
148.5999999999999
 20
491.75
 30
0.0
 11
154.4999999999999
 21
491.75
 31
0.0
  0
LINE
  5
2BA
330
1E
100
AcDbEntity
  8
0
100
AcDbLine
 10
158.1999999999999
 20
482.7499999999999
 30
0.0
 11
159.4999999999999
 21
482.7499999999999
 31
0.0
  0
LINE
  5
2BB
330
1E
100
AcDbEntity
  8
0
100
AcDbLine
 10
158.1999999999999
 20
489.7499999999999
 30
0.0
 11
159.4999999999999
 21
489.7499999999999
 31
0.0
  0
LINE
  5
2BC
330
1E
100
AcDbEntity
  8
0
100
AcDbLine
 10
157.1999999999999
 20
490.7499999999999
 30
0.0
 11
158.4999999999999
 21
490.7499999999999
 31
0.0
  0
LINE
  5
2BD
330
1E
100
AcDbEntity
  8
0
100
AcDbLine
 10
154.4999999999999
 20
491.75
 30
0.0
 11
158.1999999999999
 21
491.75
 31
0.0
  0
LINE
  5
2C3
330
1E
100
AcDbEntity
  8
0
100
AcDbLine
 10
112.5
 20
497.75
 30
0.0
 11
112.5
 21
368.75
 31
0.0
  0
LINE
  5
2C4
330
1E
100
AcDbEntity
  8
0
100
AcDbLine
 10
112.5
 20
497.75
 30
0.0
 11
112.9
 21
497.75
 31
0.0
  0
LINE
  5
2C5
330
1E
100
AcDbEntity
  8
0
100
AcDbLine
 10
112.9
 20
497.75
 30
0.0
 11
113.7999999999999
 21
497.75
 31
0.0
  0
LINE
  5
2C6
330
1E
100
AcDbEntity
  8
0
100
AcDbLine
 10
113.7999999999999
 20
497.75
 30
0.0
 11
115.4
 21
497.75
 31
0.0
  0
LINE
  5
2C7
330
1E
100
AcDbEntity
  8
0
100
AcDbLine
 10
115.4
 20
497.75
 30
0.0
 11
117.5
 21
497.75
 31
0.0
  0
LINE
  5
2C8
330
1E
100
AcDbEntity
  8
0
100
AcDbLine
 10
117.5
 20
497.75
 30
0.0
 11
119.9
 21
497.75
 31
0.0
  0
LINE
  5
2C9
330
1E
100
AcDbEntity
  8
0
100
AcDbLine
 10
119.9
 20
497.75
 30
0.0
 11
122.5
 21
497.75
 31
0.0
  0
LINE
  5
2CA
330
1E
100
AcDbEntity
  8
0
100
AcDbLine
 10
127.5
 20
497.75
 30
0.0
 11
129.6
 21
497.75
 31
0.0
  0
LINE
  5
2CB
330
1E
100
AcDbEntity
  8
0
100
AcDbLine
 10
125.0999999999999
 20
497.75
 30
0.0
 11
127.5
 21
497.75
 31
0.0
  0
LINE
  5
2CC
330
1E
100
AcDbEntity
  8
0
100
AcDbLine
 10
122.5
 20
497.75
 30
0.0
 11
125.6
 21
497.75
 31
0.0
  0
LINE
  5
2CD
330
1E
100
AcDbEntity
  8
0
100
AcDbLine
 10
122.5
 20
497.75
 30
0.0
 11
125.0999999999999
 21
497.75
 31
0.0
  0
LINE
  5
2CE
330
1E
100
AcDbEntity
  8
0
100
AcDbLine
 10
125.6
 20
497.75
 30
0.0
 11
128.4999999999999
 21
497.75
 31
0.0
  0
LINE
  5
2CF
330
1E
100
AcDbEntity
  8
0
100
AcDbLine
 10
132.0999999999999
 20
497.75
 30
0.0
 11
132.4999999999999
 21
497.75
 31
0.0
  0
LINE
  5
2D0
330
1E
100
AcDbEntity
  8
0
100
AcDbLine
 10
131.1999999999999
 20
497.75
 30
0.0
 11
132.0999999999999
 21
497.75
 31
0.0
  0
LINE
  5
2D1
330
1E
100
AcDbEntity
  8
0
100
AcDbLine
 10
129.6
 20
497.75
 30
0.0
 11
131.1999999999999
 21
497.75
 31
0.0
  0
LINE
  5
2D2
330
1E
100
AcDbEntity
  8
0
100
AcDbLine
 10
132.4999999999999
 20
497.75
 30
0.0
 11
132.9
 21
497.75
 31
0.0
  0
LINE
  5
2D3
330
1E
100
AcDbEntity
  8
0
100
AcDbLine
 10
132.4999999999999
 20
497.75
 30
0.0
 11
132.4999999999999
 21
368.75
 31
0.0
  0
LINE
  5
2D4
330
1E
100
AcDbEntity
  8
0
100
AcDbLine
 10
128.4999999999999
 20
497.75
 30
0.0
 11
131.0
 21
497.75
 31
0.0
  0
LINE
  5
2D5
330
1E
100
AcDbEntity
  8
0
100
AcDbLine
 10
131.0
 20
497.75
 30
0.0
 11
132.9
 21
497.75
 31
0.0
  0
LINE
  5
2D6
330
1E
100
AcDbEntity
  8
0
100
AcDbLine
 10
132.9
 20
497.75
 30
0.0
 11
134.0999999999999
 21
497.75
 31
0.0
  0
LINE
  5
2D7
330
1E
100
AcDbEntity
  8
0
100
AcDbLine
 10
134.0999999999999
 20
497.75
 30
0.0
 11
134.4999999999999
 21
497.75
 31
0.0
  0
LINE
  5
2D8
330
1E
100
AcDbEntity
  8
0
100
AcDbLine
 10
134.4999999999999
 20
497.75
 30
0.0
 11
134.4999999999999
 21
524.75
 31
0.0
  0
LINE
  5
2D9
330
1E
100
AcDbEntity
  8
0
100
AcDbLine
 10
119.4
 20
497.75
 30
0.0
 11
122.5
 21
497.75
 31
0.0
  0
LINE
  5
2DA
330
1E
100
AcDbEntity
  8
0
100
AcDbLine
 10
116.5
 20
497.75
 30
0.0
 11
119.4
 21
497.75
 31
0.0
  0
LINE
  5
2DB
330
1E
100
AcDbEntity
  8
0
100
AcDbLine
 10
114.0
 20
497.75
 30
0.0
 11
116.5
 21
497.75
 31
0.0
  0
LINE
  5
2DC
330
1E
100
AcDbEntity
  8
0
100
AcDbLine
 10
112.0999999999999
 20
497.75
 30
0.0
 11
112.5
 21
497.75
 31
0.0
  0
LINE
  5
2DD
330
1E
100
AcDbEntity
  8
0
100
AcDbLine
 10
112.0999999999999
 20
497.75
 30
0.0
 11
114.0
 21
497.75
 31
0.0
  0
LINE
  5
2DE
330
1E
100
AcDbEntity
  8
0
100
AcDbLine
 10
110.8999999999999
 20
497.75
 30
0.0
 11
112.0999999999999
 21
497.75
 31
0.0
  0
LINE
  5
2DF
330
1E
100
AcDbEntity
  8
0
100
AcDbLine
 10
110.4999999999999
 20
497.75
 30
0.0
 11
110.4999999999999
 21
524.75
 31
0.0
  0
LINE
  5
2E0
330
1E
100
AcDbEntity
  8
0
100
AcDbLine
 10
110.4999999999999
 20
497.75
 30
0.0
 11
110.8999999999999
 21
497.75
 31
0.0
  0
LINE
  5
2E8
330
1E
100
AcDbEntity
  8
0
100
AcDbLine
 10
158.1999999999999
 20
491.75
 30
0.0
 11
159.4999999999999
 21
491.75
 31
0.0
  0
LINE
  5
2E9
330
1E
100
AcDbEntity
  8
0
100
AcDbLine
 10
159.4999999999999
 20
482.7499999999999
 30
0.0
 11
159.4999999999999
 21
489.7499999999999
 31
0.0
  0
LINE
  5
2EA
330
1E
100
AcDbEntity
  8
0
100
AcDbLine
 10
159.4999999999999
 20
508.52383695799
 30
0.0
 11
168.5929999999999
 21
507.4539999999999
 31
0.0
  0
LINE
  5
2EB
330
1E
100
AcDbEntity
  8
0
100
AcDbLine
 10
159.4999999999999
 20
491.75
 30
0.0
 11
159.4999999999999
 21
542.75
 31
0.0
  0
LINE
  5
2EC
330
1E
100
AcDbEntity
  8
0
100
AcDbLine
 10
159.4999999999999
 20
489.7499999999999
 30
0.0
 11
159.4999999999999
 21
482.7499999999999
 31
0.0
  0
LINE
  5
2ED
330
1E
100
AcDbEntity
  8
0
100
AcDbLine
 10
158.4999999999999
 20
490.7499999999999
 30
0.0
 11
159.4999999999999
 21
491.75
 31
0.0
  0
LINE
  5
2EE
330
1E
100
AcDbEntity
  8
0
100
AcDbLine
 10
158.4999999999999
 20
490.7499999999999
 30
0.0
 11
159.4999999999999
 21
489.7499999999999
 31
0.0
  0
LINE
  5
2EF
330
1E
100
AcDbEntity
  8
0
100
AcDbLine
 10
110.4
 20
519.7499999999999
 30
0.0
 11
110.4999999999999
 21
519.879411764706
 31
0.0
  0
LINE
  5
2F0
330
1E
100
AcDbEntity
  8
0
100
AcDbLine
 10
110.4999999999999
 20
538.75
 30
0.0
 11
110.8999999999999
 21
538.75
 31
0.0
  0
LINE
  5
2F1
330
1E
100
AcDbEntity
  8
0
100
AcDbLine
 10
110.4999999999999
 20
538.75
 30
0.0
 11
110.4999999999999
 21
528.75
 31
0.0
  0
LINE
  5
2F2
330
1E
100
AcDbEntity
  8
0
100
AcDbLine
 10
107.6
 20
547.75
 30
0.0
 11
114.7999999999999
 21
547.75
 31
0.0
  0
LINE
  5
2F3
330
1E
100
AcDbEntity
  8
0
100
AcDbLine
 10
101.2999999999999
 20
547.75
 30
0.0
 11
107.6
 21
547.75
 31
0.0
  0
LINE
  5
2F4
330
1E
100
AcDbEntity
  8
0
100
AcDbLine
 10
96.5
 20
547.75
 30
0.0
 11
101.2999999999999
 21
547.75
 31
0.0
  0
LINE
  5
2F5
330
1E
100
AcDbEntity
  8
0
100
AcDbLine
 10
93.59999999999999
 20
547.75
 30
0.0
 11
96.5
 21
547.75
 31
0.0
  0
LINE
  5
2F6
330
1E
100
AcDbEntity
  8
0
100
AcDbLine
 10
110.4999999999999
 20
524.75
 30
0.0
 11
112.5
 21
526.75
 31
0.0
  0
LINE
  5
2F7
330
1E
100
AcDbEntity
  8
0
100
AcDbLine
 10
110.4999999999999
 20
524.75
 30
0.0
 11
110.8999999999999
 21
524.75
 31
0.0
  0
LINE
  5
2F8
330
1E
100
AcDbEntity
  8
0
100
AcDbLine
 10
110.4999999999999
 20
524.75
 30
0.0
 11
110.4999999999999
 21
497.75
 31
0.0
  0
LINE
  5
2F9
330
1E
100
AcDbEntity
  8
0
100
AcDbLine
 10
110.8999999999999
 20
524.75
 30
0.0
 11
112.0999999999999
 21
524.75
 31
0.0
  0
LINE
  5
2FA
330
1E
100
AcDbEntity
  8
0
100
AcDbLine
 10
110.8999999999999
 20
528.75
 30
0.0
 11
112.0999999999999
 21
528.75
 31
0.0
  0
LINE
  5
2FB
330
1E
100
AcDbEntity
  8
0
100
AcDbLine
 10
112.0999999999999
 20
524.75
 30
0.0
 11
114.0
 21
524.75
 31
0.0
  0
LINE
  5
2FC
330
1E
100
AcDbEntity
  8
0
100
AcDbLine
 10
114.0
 20
524.75
 30
0.0
 11
116.5
 21
524.75
 31
0.0
  0
LINE
  5
2FD
330
1E
100
AcDbEntity
  8
0
100
AcDbLine
 10
113.7999999999999
 20
526.75
 30
0.0
 11
115.4
 21
526.75
 31
0.0
  0
LINE
  5
2FE
330
1E
100
AcDbEntity
  8
0
100
AcDbLine
 10
112.9
 20
526.75
 30
0.0
 11
113.7999999999999
 21
526.75
 31
0.0
  0
LINE
  5
2FF
330
1E
100
AcDbEntity
  8
0
100
AcDbLine
 10
112.5
 20
526.75
 30
0.0
 11
112.9
 21
526.75
 31
0.0
  0
LINE
  5
300
330
1E
100
AcDbEntity
  8
0
100
AcDbLine
 10
114.0
 20
528.75
 30
0.0
 11
116.5
 21
528.75
 31
0.0
  0
LINE
  5
301
330
1E
100
AcDbEntity
  8
0
100
AcDbLine
 10
112.0999999999999
 20
528.75
 30
0.0
 11
114.0
 21
528.75
 31
0.0
  0
LINE
  5
302
330
1E
100
AcDbEntity
  8
0
100
AcDbLine
 10
116.5
 20
524.75
 30
0.0
 11
119.4
 21
524.75
 31
0.0
  0
LINE
  5
303
330
1E
100
AcDbEntity
  8
0
100
AcDbLine
 10
119.4
 20
524.75
 30
0.0
 11
122.5
 21
524.75
 31
0.0
  0
LINE
  5
304
330
1E
100
AcDbEntity
  8
0
100
AcDbLine
 10
117.5
 20
526.75
 30
0.0
 11
119.9
 21
526.75
 31
0.0
  0
LINE
  5
305
330
1E
100
AcDbEntity
  8
0
100
AcDbLine
 10
115.4
 20
526.75
 30
0.0
 11
117.5
 21
526.75
 31
0.0
  0
LINE
  5
306
330
1E
100
AcDbEntity
  8
0
100
AcDbLine
 10
119.4
 20
528.75
 30
0.0
 11
122.5
 21
528.75
 31
0.0
  0
LINE
  5
307
330
1E
100
AcDbEntity
  8
0
100
AcDbLine
 10
116.5
 20
528.75
 30
0.0
 11
119.4
 21
528.75
 31
0.0
  0
LINE
  5
308
330
1E
100
AcDbEntity
  8
0
100
AcDbLine
 10
122.5
 20
524.75
 30
0.0
 11
125.6
 21
524.75
 31
0.0
  0
LINE
  5
309
330
1E
100
AcDbEntity
  8
0
100
AcDbLine
 10
125.6
 20
524.75
 30
0.0
 11
128.4999999999999
 21
524.75
 31
0.0
  0
LINE
  5
30A
330
1E
100
AcDbEntity
  8
0
100
AcDbLine
 10
122.5
 20
526.75
 30
0.0
 11
125.0999999999999
 21
526.75
 31
0.0
  0
LINE
  5
30B
330
1E
100
AcDbEntity
  8
0
100
AcDbLine
 10
125.0999999999999
 20
526.75
 30
0.0
 11
127.5
 21
526.75
 31
0.0
  0
LINE
  5
30C
330
1E
100
AcDbEntity
  8
0
100
AcDbLine
 10
128.4999999999999
 20
524.75
 30
0.0
 11
131.0
 21
524.75
 31
0.0
  0
LINE
  5
30D
330
1E
100
AcDbEntity
  8
0
100
AcDbLine
 10
131.0
 20
524.75
 30
0.0
 11
132.9
 21
524.75
 31
0.0
  0
LINE
  5
30E
330
1E
100
AcDbEntity
  8
0
100
AcDbLine
 10
127.5
 20
526.75
 30
0.0
 11
129.6
 21
526.75
 31
0.0
  0
LINE
  5
30F
330
1E
100
AcDbEntity
  8
0
100
AcDbLine
 10
129.6
 20
526.75
 30
0.0
 11
131.1999999999999
 21
526.75
 31
0.0
  0
LINE
  5
310
330
1E
100
AcDbEntity
  8
0
100
AcDbLine
 10
131.1999999999999
 20
526.75
 30
0.0
 11
132.0999999999999
 21
526.75
 31
0.0
  0
LINE
  5
311
330
1E
100
AcDbEntity
  8
0
100
AcDbLine
 10
132.0999999999999
 20
526.75
 30
0.0
 11
132.4999999999999
 21
526.75
 31
0.0
  0
LINE
  5
313
330
1E
100
AcDbEntity
  8
0
100
AcDbLine
 10
134.4999999999999
 20
519.879411764706
 30
0.0
 11
134.5999999999999
 21
519.7499999999999
 31
0.0
  0
LINE
  5
314
330
1E
100
AcDbEntity
  8
0
100
AcDbLine
 10
134.4999999999999
 20
524.75
 30
0.0
 11
134.4999999999999
 21
497.75
 31
0.0
  0
LINE
  5
315
330
1E
100
AcDbEntity
  8
0
100
AcDbLine
 10
132.9
 20
524.75
 30
0.0
 11
134.0999999999999
 21
524.75
 31
0.0
  0
LINE
  5
316
330
1E
100
AcDbEntity
  8
0
100
AcDbLine
 10
134.0999999999999
 20
524.75
 30
0.0
 11
134.4999999999999
 21
524.75
 31
0.0
  0
LINE
  5
317
330
1E
100
AcDbEntity
  8
0
100
AcDbLine
 10
132.4999999999999
 20
526.75
 30
0.0
 11
134.4999999999999
 21
528.75
 31
0.0
  0
LINE
  5
318
330
1E
100
AcDbEntity
  8
0
100
AcDbLine
 10
132.4999999999999
 20
526.75
 30
0.0
 11
134.4999999999999
 21
524.75
 31
0.0
  0
LINE
  5
319
330
1E
100
AcDbEntity
  8
0
100
AcDbLine
 10
122.5
 20
528.75
 30
0.0
 11
125.6
 21
528.75
 31
0.0
  0
LINE
  5
31A
330
1E
100
AcDbEntity
  8
0
100
AcDbLine
 10
125.6
 20
528.75
 30
0.0
 11
128.4999999999999
 21
528.75
 31
0.0
  0
LINE
  5
31B
330
1E
100
AcDbEntity
  8
0
100
AcDbLine
 10
128.4999999999999
 20
528.75
 30
0.0
 11
131.0
 21
528.75
 31
0.0
  0
LINE
  5
31C
330
1E
100
AcDbEntity
  8
0
100
AcDbLine
 10
122.5
 20
538.75
 30
0.0
 11
125.6
 21
538.75
 31
0.0
  0
LINE
  5
31D
330
1E
100
AcDbEntity
  8
0
100
AcDbLine
 10
125.6
 20
538.75
 30
0.0
 11
128.4999999999999
 21
538.75
 31
0.0
  0
LINE
  5
31E
330
1E
100
AcDbEntity
  8
0
100
AcDbLine
 10
131.0
 20
528.75
 30
0.0
 11
132.9
 21
528.75
 31
0.0
  0
LINE
  5
31F
330
1E
100
AcDbEntity
  8
0
100
AcDbLine
 10
132.9
 20
528.75
 30
0.0
 11
134.0999999999999
 21
528.75
 31
0.0
  0
LINE
  5
320
330
1E
100
AcDbEntity
  8
0
100
AcDbLine
 10
128.4999999999999
 20
538.75
 30
0.0
 11
131.0
 21
538.75
 31
0.0
  0
LINE
  5
321
330
1E
100
AcDbEntity
  8
0
100
AcDbLine
 10
131.0
 20
538.75
 30
0.0
 11
132.9
 21
538.75
 31
0.0
  0
LINE
  5
322
330
1E
100
AcDbEntity
  8
0
100
AcDbLine
 10
134.0999999999999
 20
528.75
 30
0.0
 11
134.4999999999999
 21
528.75
 31
0.0
  0
LINE
  5
323
330
1E
100
AcDbEntity
  8
0
100
AcDbLine
 10
134.4999999999999
 20
528.75
 30
0.0
 11
134.4999999999999
 21
538.75
 31
0.0
  0
LINE
  5
324
330
1E
100
AcDbEntity
  8
0
100
AcDbLine
 10
132.9
 20
538.75
 30
0.0
 11
134.0999999999999
 21
538.75
 31
0.0
  0
LINE
  5
325
330
1E
100
AcDbEntity
  8
0
100
AcDbLine
 10
134.0999999999999
 20
538.75
 30
0.0
 11
134.4999999999999
 21
538.75
 31
0.0
  0
LINE
  5
326
330
1E
100
AcDbEntity
  8
0
100
AcDbLine
 10
134.4999999999999
 20
538.75
 30
0.0
 11
152.5
 21
547.75
 31
0.0
  0
LINE
  5
327
330
1E
100
AcDbEntity
  8
0
100
AcDbLine
 10
134.4999999999999
 20
538.75
 30
0.0
 11
134.4999999999999
 21
528.75
 31
0.0
  0
LINE
  5
328
330
1E
100
AcDbEntity
  8
0
100
AcDbLine
 10
119.9
 20
526.75
 30
0.0
 11
122.5
 21
526.75
 31
0.0
  0
LINE
  5
329
330
1E
100
AcDbEntity
  8
0
100
AcDbLine
 10
119.4
 20
538.75
 30
0.0
 11
122.5
 21
538.75
 31
0.0
  0
LINE
  5
32A
330
1E
100
AcDbEntity
  8
0
100
AcDbLine
 10
116.5
 20
538.75
 30
0.0
 11
119.4
 21
538.75
 31
0.0
  0
LINE
  5
32B
330
1E
100
AcDbEntity
  8
0
100
AcDbLine
 10
114.0
 20
538.75
 30
0.0
 11
116.5
 21
538.75
 31
0.0
  0
LINE
  5
32C
330
1E
100
AcDbEntity
  8
0
100
AcDbLine
 10
122.5
 20
547.75
 30
0.0
 11
130.1999999999999
 21
547.75
 31
0.0
  0
LINE
  5
32D
330
1E
100
AcDbEntity
  8
0
100
AcDbLine
 10
130.1999999999999
 20
547.75
 30
0.0
 11
137.4
 21
547.75
 31
0.0
  0
LINE
  5
32E
330
1E
100
AcDbEntity
  8
0
100
AcDbLine
 10
137.4
 20
547.75
 30
0.0
 11
143.6999999999999
 21
547.75
 31
0.0
  0
LINE
  5
32F
330
1E
100
AcDbEntity
  8
0
100
AcDbLine
 10
143.6999999999999
 20
547.75
 30
0.0
 11
148.5
 21
547.75
 31
0.0
  0
LINE
  5
330
330
1E
100
AcDbEntity
  8
0
100
AcDbLine
 10
148.5
 20
547.75
 30
0.0
 11
151.4
 21
547.75
 31
0.0
  0
LINE
  5
331
330
1E
100
AcDbEntity
  8
0
100
AcDbLine
 10
151.4
 20
547.75
 30
0.0
 11
152.5
 21
547.75
 31
0.0
  0
LINE
  5
332
330
1E
100
AcDbEntity
  8
0
100
AcDbLine
 10
152.5
 20
547.75
 30
0.0
 11
152.5
 21
552.7499999999999
 31
0.0
  0
LINE
  5
333
330
1E
100
AcDbEntity
  8
0
100
AcDbLine
 10
112.0999999999999
 20
538.75
 30
0.0
 11
114.0
 21
538.75
 31
0.0
  0
LINE
  5
334
330
1E
100
AcDbEntity
  8
0
100
AcDbLine
 10
110.8999999999999
 20
538.75
 30
0.0
 11
112.0999999999999
 21
538.75
 31
0.0
  0
LINE
  5
335
330
1E
100
AcDbEntity
  8
0
100
AcDbLine
 10
114.7999999999999
 20
547.75
 30
0.0
 11
122.5
 21
547.75
 31
0.0
  0
LINE
  5
336
330
1E
100
AcDbEntity
  8
0
100
AcDbLine
 10
110.4999999999999
 20
528.75
 30
0.0
 11
110.4999999999999
 21
538.75
 31
0.0
  0
LINE
  5
337
330
1E
100
AcDbEntity
  8
0
100
AcDbLine
 10
110.4999999999999
 20
528.75
 30
0.0
 11
112.5
 21
526.75
 31
0.0
  0
LINE
  5
338
330
1E
100
AcDbEntity
  8
0
100
AcDbLine
 10
110.4999999999999
 20
528.75
 30
0.0
 11
110.8999999999999
 21
528.75
 31
0.0
  0
LINE
  5
339
330
1E
100
AcDbEntity
  8
0
100
AcDbLine
 10
92.5
 20
547.75
 30
0.0
 11
92.5
 21
552.7499999999999
 31
0.0
  0
LINE
  5
33A
330
1E
100
AcDbEntity
  8
0
100
AcDbLine
 10
92.5
 20
547.75
 30
0.0
 11
110.4999999999999
 21
538.75
 31
0.0
  0
LINE
  5
33B
330
1E
100
AcDbEntity
  8
0
100
AcDbLine
 10
92.5
 20
547.75
 30
0.0
 11
93.59999999999999
 21
547.75
 31
0.0
  0
LINE
  5
33C
330
1E
100
AcDbEntity
  8
0
100
AcDbLine
 10
90.5
 20
552.7499999999999
 30
0.0
 11
92.5
 21
552.7499999999999
 31
0.0
  0
LINE
  5
33D
330
1E
100
AcDbEntity
  8
0
100
AcDbLine
 10
86.79999999999999
 20
552.7499999999999
 30
0.0
 11
90.5
 21
552.7499999999999
 31
0.0
  0
LINE
  5
33E
330
1E
100
AcDbEntity
  8
0
100
AcDbLine
 10
152.5
 20
552.7499999999999
 30
0.0
 11
154.4999999999999
 21
552.7499999999999
 31
0.0
  0
LINE
  5
33F
330
1E
100
AcDbEntity
  8
0
100
AcDbLine
 10
122.5
 20
552.7499999999999
 30
0.0
 11
130.1999999999999
 21
552.7499999999999
 31
0.0
  0
LINE
  5
340
330
1E
100
AcDbEntity
  8
0
100
AcDbLine
 10
130.1999999999999
 20
552.7499999999999
 30
0.0
 11
137.4
 21
552.7499999999999
 31
0.0
  0
LINE
  5
341
330
1E
100
AcDbEntity
  8
0
100
AcDbLine
 10
137.4
 20
552.7499999999999
 30
0.0
 11
143.6999999999999
 21
552.7499999999999
 31
0.0
  0
LINE
  5
342
330
1E
100
AcDbEntity
  8
0
100
AcDbLine
 10
143.6999999999999
 20
552.7499999999999
 30
0.0
 11
148.5
 21
552.7499999999999
 31
0.0
  0
LINE
  5
343
330
1E
100
AcDbEntity
  8
0
100
AcDbLine
 10
148.5
 20
552.7499999999999
 30
0.0
 11
151.4
 21
552.7499999999999
 31
0.0
  0
LINE
  5
344
330
1E
100
AcDbEntity
  8
0
100
AcDbLine
 10
152.5
 20
552.7499999999999
 30
0.0
 11
152.5
 21
547.75
 31
0.0
  0
LINE
  5
345
330
1E
100
AcDbEntity
  8
0
100
AcDbLine
 10
151.4
 20
552.7499999999999
 30
0.0
 11
152.5
 21
552.7499999999999
 31
0.0
  0
LINE
  5
346
330
1E
100
AcDbEntity
  8
0
100
AcDbLine
 10
114.7999999999999
 20
552.7499999999999
 30
0.0
 11
122.5
 21
552.7499999999999
 31
0.0
  0
LINE
  5
347
330
1E
100
AcDbEntity
  8
0
100
AcDbLine
 10
107.6
 20
552.7499999999999
 30
0.0
 11
114.7999999999999
 21
552.7499999999999
 31
0.0
  0
LINE
  5
348
330
1E
100
AcDbEntity
  8
0
100
AcDbLine
 10
101.2999999999999
 20
552.7499999999999
 30
0.0
 11
107.6
 21
552.7499999999999
 31
0.0
  0
LINE
  5
349
330
1E
100
AcDbEntity
  8
0
100
AcDbLine
 10
96.5
 20
552.7499999999999
 30
0.0
 11
101.2999999999999
 21
552.7499999999999
 31
0.0
  0
LINE
  5
34A
330
1E
100
AcDbEntity
  8
0
100
AcDbLine
 10
93.59999999999999
 20
552.7499999999999
 30
0.0
 11
96.5
 21
552.7499999999999
 31
0.0
  0
LINE
  5
34B
330
1E
100
AcDbEntity
  8
0
100
AcDbLine
 10
92.5
 20
552.7499999999999
 30
0.0
 11
93.59999999999999
 21
552.7499999999999
 31
0.0
  0
LINE
  5
34C
330
1E
100
AcDbEntity
  8
0
100
AcDbLine
 10
92.5
 20
552.7499999999999
 30
0.0
 11
92.5
 21
547.75
 31
0.0
  0
LINE
  5
34D
330
1E
100
AcDbEntity
  8
0
100
AcDbLine
 10
154.4999999999999
 20
552.7499999999999
 30
0.0
 11
158.1999999999999
 21
552.7499999999999
 31
0.0
  0
LINE
  5
34E
330
1E
100
AcDbEntity
  8
0
100
AcDbLine
 10
159.4999999999999
 20
542.75
 30
0.0
 11
159.4999999999999
 21
552.7499999999999
 31
0.0
  0
LINE
  5
34F
330
1E
100
AcDbEntity
  8
0
100
AcDbLine
 10
159.4999999999999
 20
542.75
 30
0.0
 11
174.5
 21
542.75
 31
0.0
  0
LINE
  5
350
330
1E
100
AcDbEntity
  8
0
100
AcDbLine
 10
158.1999999999999
 20
552.7499999999999
 30
0.0
 11
159.4999999999999
 21
552.7499999999999
 31
0.0
  0
LINE
  5
351
330
1E
100
AcDbEntity
  8
0
100
AcDbLine
 10
159.4999999999999
 20
542.75
 30
0.0
 11
159.4999999999999
 21
491.75
 31
0.0
  0
LINE
  5
352
330
1E
100
AcDbEntity
  8
0
100
AcDbLine
 10
159.4999999999999
 20
517.75
 30
0.0
 11
174.5
 21
517.75
 31
0.0
  0
LINE
  5
353
330
1E
100
AcDbEntity
  8
0
100
AcDbLine
 10
168.5929999999999
 20
507.4539999999999
 30
0.0
 11
187.492
 21
505.3009999999999
 31
0.0
  0
LINE
  5
354
330
1E
100
AcDbEntity
  8
0
100
AcDbLine
 10
171.589
 20
544.7499999999999
 30
0.0
 11
172.5379999999999
 21
544.7499999999999
 31
0.0
  0
LINE
  5
355
330
1E
100
AcDbEntity
  8
0
100
AcDbLine
 10
172.5379999999999
 20
544.7499999999999
 30
0.0
 11
174.5
 21
544.7499999999999
 31
0.0
  0
LINE
  5
356
330
1E
100
AcDbEntity
  8
0
100
AcDbLine
 10
166.483
 20
548.1319999999999
 30
0.0
 11
171.589
 21
544.7499999999999
 31
0.0
  0
LINE
  5
357
330
1E
100
AcDbEntity
  8
0
100
AcDbLine
 10
174.5
 20
542.75
 30
0.0
 11
174.5
 21
544.7499999999999
 31
0.0
  0
LINE
  5
358
330
1E
100
AcDbEntity
  8
0
100
AcDbLine
 10
174.5
 20
511.568
 30
0.0
 11
174.9109999999999
 21
510.205
 31
0.0
  0
LINE
  5
359
330
1E
100
AcDbEntity
  8
0
100
AcDbLine
 10
174.5
 20
511.568
 30
0.0
 11
174.5
 21
542.75
 31
0.0
  0
LINE
  5
35A
330
1E
100
AcDbEntity
  8
0
100
AcDbLine
 10
176.882
 20
509.75
 30
0.0
 11
178.5
 21
509.75
 31
0.0
  0
LINE
  5
35B
330
1E
100
AcDbEntity
  8
0
100
AcDbLine
 10
176.143
 20
509.75
 30
0.0
 11
176.882
 21
509.75
 31
0.0
  0
LINE
  5
35C
330
1E
100
AcDbEntity
  8
0
100
AcDbLine
 10
175.7319999999999
 20
510.205
 30
0.0
 11
177.9499999999999
 21
510.205
 31
0.0
  0
LINE
  5
35D
330
1E
100
AcDbEntity
  8
0
100
AcDbLine
 10
174.9109999999999
 20
510.205
 30
0.0
 11
175.7319999999999
 21
510.205
 31
0.0
  0
LINE
  5
35E
330
1E
100
AcDbEntity
  8
0
100
AcDbLine
 10
174.9109999999999
 20
510.205
 30
0.0
 11
176.143
 21
509.75
 31
0.0
  0
LINE
  5
35F
330
1E
100
AcDbEntity
  8
0
100
AcDbLine
 10
181.002
 20
507.7499999999999
 30
0.0
 11
182.671
 21
507.7499999999999
 31
0.0
  0
LINE
  5
360
330
1E
100
AcDbEntity
  8
0
100
AcDbLine
 10
180.354
 20
507.7499999999999
 30
0.0
 11
181.002
 21
507.7499999999999
 31
0.0
  0
LINE
  5
361
330
1E
100
AcDbEntity
  8
0
100
AcDbLine
 10
179.6119999999999
 20
508.25
 30
0.0
 11
181.4659999999999
 21
508.25
 31
0.0
  0
LINE
  5
362
330
1E
100
AcDbEntity
  8
0
100
AcDbLine
 10
181.002
 20
509.75
 30
0.0
 11
184.0609999999999
 21
509.75
 31
0.0
  0
LINE
  5
363
330
1E
100
AcDbEntity
  8
0
100
AcDbLine
 10
179.149
 20
509.75
 30
0.0
 11
181.002
 21
509.75
 31
0.0
  0
LINE
  5
364
330
1E
100
AcDbEntity
  8
0
100
AcDbLine
 10
178.963
 20
508.25
 30
0.0
 11
179.6119999999999
 21
508.25
 31
0.0
  0
LINE
  5
365
330
1E
100
AcDbEntity
  8
0
100
AcDbLine
 10
178.963
 20
508.25
 30
0.0
 11
180.354
 21
507.7499999999999
 31
0.0
  0
LINE
  5
366
330
1E
100
AcDbEntity
  8
0
100
AcDbLine
 10
178.5
 20
509.75
 30
0.0
 11
178.963
 21
508.25
 31
0.0
  0
LINE
  5
367
330
1E
100
AcDbEntity
  8
0
100
AcDbLine
 10
178.5
 20
509.75
 30
0.0
 11
179.149
 21
509.75
 31
0.0
  0
LINE
  5
368
330
1E
100
AcDbEntity
  8
0
100
AcDbLine
 10
177.9499999999999
 20
510.205
 30
0.0
 11
181.564
 21
510.205
 31
0.0
  0
LINE
  5
369
330
1E
100
AcDbEntity
  8
0
100
AcDbLine
 10
177.539
 20
544.7499999999999
 30
0.0
 11
181.2359999999999
 21
544.7499999999999
 31
0.0
  0
LINE
  5
36A
330
1E
100
AcDbEntity
  8
0
100
AcDbLine
 10
175.3209999999999
 20
544.7499999999999
 30
0.0
 11
177.539
 21
544.7499999999999
 31
0.0
  0
LINE
  5
36B
330
1E
100
AcDbEntity
  8
0
100
AcDbLine
 10
174.5
 20
542.75
 30
0.0
 11
174.5
 21
511.568
 31
0.0
  0
LINE
  5
36C
330
1E
100
AcDbEntity
  8
0
100
AcDbLine
 10
174.5
 20
544.7499999999999
 30
0.0
 11
174.5
 21
542.75
 31
0.0
  0
LINE
  5
36D
330
1E
100
AcDbEntity
  8
0
100
AcDbLine
 10
174.5
 20
544.7499999999999
 30
0.0
 11
175.3209999999999
 21
544.7499999999999
 31
0.0
  0
LINE
  5
36E
330
1E
100
AcDbEntity
  8
0
100
AcDbLine
 10
181.4659999999999
 20
508.25
 30
0.0
 11
184.432
 21
508.25
 31
0.0
  0
LINE
  5
36F
330
1E
100
AcDbEntity
  8
0
100
AcDbLine
 10
182.671
 20
507.7499999999999
 30
0.0
 11
185.359
 21
507.7499999999999
 31
0.0
  0
LINE
  5
370
330
1E
100
AcDbEntity
  8
0
100
AcDbLine
 10
187.492
 20
505.3009999999999
 30
0.0
 11
206.0979999999999
 21
503.2969999999999
 31
0.0
  0
LINE
  5
371
330
1E
100
AcDbEntity
  8
0
100
AcDbLine
 10
185.359
 20
507.7499999999999
 30
0.0
 11
188.9729999999999
 21
507.7499999999999
 31
0.0
  0
LINE
  5
372
330
1E
100
AcDbEntity
  8
0
100
AcDbLine
 10
184.432
 20
508.25
 30
0.0
 11
188.324
 21
508.25
 31
0.0
  0
LINE
  5
373
330
1E
100
AcDbEntity
  8
0
100
AcDbLine
 10
184.0609999999999
 20
509.75
 30
0.0
 11
188.046
 21
509.75
 31
0.0
  0
LINE
  5
374
330
1E
100
AcDbEntity
  8
0
100
AcDbLine
 10
188.324
 20
508.25
 30
0.0
 11
192.773
 21
508.25
 31
0.0
  0
LINE
  5
375
330
1E
100
AcDbEntity
  8
0
100
AcDbLine
 10
188.046
 20
509.75
 30
0.0
 11
192.588
 21
509.75
 31
0.0
  0
LINE
  5
376
330
1E
100
AcDbEntity
  8
0
100
AcDbLine
 10
181.564
 20
510.205
 30
0.0
 11
186.2459999999999
 21
510.205
 31
0.0
  0
LINE
  5
377
330
1E
100
AcDbEntity
  8
0
100
AcDbLine
 10
186.2459999999999
 20
510.205
 30
0.0
 11
191.668
 21
510.205
 31
0.0
  0
LINE
  5
378
330
1E
100
AcDbEntity
  8
0
100
AcDbLine
 10
181.2359999999999
 20
544.7499999999999
 30
0.0
 11
186.082
 21
544.7499999999999
 31
0.0
  0
LINE
  5
379
330
1E
100
AcDbEntity
  8
0
100
AcDbLine
 10
186.082
 20
544.7499999999999
 30
0.0
 11
191.5859999999999
 21
544.7499999999999
 31
0.0
  0
LINE
  5
37A
330
1E
100
AcDbEntity
  8
0
100
AcDbLine
 10
188.9729999999999
 20
507.7499999999999
 30
0.0
 11
193.0509999999999
 21
507.7499999999999
 31
0.0
  0
LINE
  5
37B
330
1E
100
AcDbEntity
  8
0
100
AcDbLine
 10
193.0509999999999
 20
507.7499999999999
 30
0.0
 11
197.5
 21
507.7499999999999
 31
0.0
  0
LINE
  5
37C
330
1E
100
AcDbEntity
  8
0
100
AcDbLine
 10
201.949
 20
507.7499999999999
 30
0.0
 11
206.027
 21
507.7499999999999
 31
0.0
  0
LINE
  5
37D
330
1E
100
AcDbEntity
  8
0
100
AcDbLine
 10
197.5
 20
507.7499999999999
 30
0.0
 11
201.949
 21
507.7499999999999
 31
0.0
  0
LINE
  5
37E
330
1E
100
AcDbEntity
  8
0
100
AcDbLine
 10
206.0979999999999
 20
503.2969999999999
 30
0.0
 11
227.3979999999999
 21
501.0799999999999
 31
0.0
  0
LINE
  5
37F
330
1E
100
AcDbEntity
  8
0
100
AcDbLine
 10
206.027
 20
507.7499999999999
 30
0.0
 11
209.641
 21
507.7499999999999
 31
0.0
  0
LINE
  5
380
330
1E
100
AcDbEntity
  8
0
100
AcDbLine
 10
209.641
 20
507.7499999999999
 30
0.0
 11
212.3289999999999
 21
507.7499999999999
 31
0.0
  0
LINE
  5
381
330
1E
100
AcDbEntity
  8
0
100
AcDbLine
 10
206.6759999999999
 20
508.25
 30
0.0
 11
210.5679999999999
 21
508.25
 31
0.0
  0
LINE
  5
382
330
1E
100
AcDbEntity
  8
0
100
AcDbLine
 10
202.227
 20
508.25
 30
0.0
 11
206.6759999999999
 21
508.25
 31
0.0
  0
LINE
  5
383
330
1E
100
AcDbEntity
  8
0
100
AcDbLine
 10
197.5
 20
508.25
 30
0.0
 11
202.227
 21
508.25
 31
0.0
  0
LINE
  5
384
330
1E
100
AcDbEntity
  8
0
100
AcDbLine
 10
212.3289999999999
 20
507.7499999999999
 30
0.0
 11
213.9979999999999
 21
507.7499999999999
 31
0.0
  0
LINE
  5
385
330
1E
100
AcDbEntity
  8
0
100
AcDbLine
 10
213.9979999999999
 20
507.7499999999999
 30
0.0
 11
214.6459999999999
 21
507.7499999999999
 31
0.0
  0
LINE
  5
386
330
1E
100
AcDbEntity
  8
0
100
AcDbLine
 10
214.6459999999999
 20
507.7499999999999
 30
0.0
 11
216.0369999999999
 21
508.25
 31
0.0
  0
LINE
  5
387
330
1E
100
AcDbEntity
  8
0
100
AcDbLine
 10
210.5679999999999
 20
508.25
 30
0.0
 11
213.534
 21
508.25
 31
0.0
  0
LINE
  5
388
330
1E
100
AcDbEntity
  8
0
100
AcDbLine
 10
206.9539999999999
 20
509.75
 30
0.0
 11
210.939
 21
509.75
 31
0.0
  0
LINE
  5
389
330
1E
100
AcDbEntity
  8
0
100
AcDbLine
 10
202.4119999999999
 20
509.75
 30
0.0
 11
206.9539999999999
 21
509.75
 31
0.0
  0
LINE
  5
38A
330
1E
100
AcDbEntity
  8
0
100
AcDbLine
 10
197.5
 20
509.75
 30
0.0
 11
202.4119999999999
 21
509.75
 31
0.0
  0
LINE
  5
38B
330
1E
100
AcDbEntity
  8
0
100
AcDbLine
 10
210.939
 20
509.75
 30
0.0
 11
213.9979999999999
 21
509.75
 31
0.0
  0
LINE
  5
38C
330
1E
100
AcDbEntity
  8
0
100
AcDbLine
 10
213.9979999999999
 20
509.75
 30
0.0
 11
215.851
 21
509.75
 31
0.0
  0
LINE
  5
38D
330
1E
100
AcDbEntity
  8
0
100
AcDbLine
 10
213.534
 20
508.25
 30
0.0
 11
215.388
 21
508.25
 31
0.0
  0
LINE
  5
38E
330
1E
100
AcDbEntity
  8
0
100
AcDbLine
 10
352.8
 20
486.05
 30
0.0
 11
353.97380952381
 21
484.592857142857
 31
0.0
  0
LINE
  5
38F
330
1E
100
AcDbEntity
  8
0
100
AcDbLine
 10
353.3
 20
486.2499999999999
 30
0.0
 11
353.459908883827
 21
486.0427107061499
 31
0.0
  0
LINE
  5
390
330
1E
100
AcDbEntity
  8
0
100
AcDbLine
 10
360.0
 20
477.0299999999999
 30
0.0
 11
360.0
 21
481.13
 31
0.0
  0
LINE
  5
391
330
1E
100
AcDbEntity
  8
0
100
AcDbLine
 10
360.0
 20
477.0299999999999
 30
0.0
 11
360.0
 21
472.63
 31
0.0
  0
LINE
  5
392
330
1E
100
AcDbEntity
  8
0
100
AcDbLine
 10
360.0
 20
481.13
 30
0.0
 11
360.0
 21
484.6499999999999
 31
0.0
  0
LINE
  5
393
330
1E
100
AcDbEntity
  8
0
100
AcDbLine
 10
360.0
 20
481.13
 30
0.0
 11
360.0
 21
477.0299999999999
 31
0.0
  0
LINE
  5
394
330
1E
100
AcDbEntity
  8
0
100
AcDbLine
 10
358.8
 20
480.429
 30
0.0
 11
360.0
 21
479.496111111111
 31
0.0
  0
LINE
  5
395
330
1E
100
AcDbEntity
  8
0
100
AcDbLine
 10
359.8999999999999
 20
481.5299999999999
 30
0.0
 11
360.0
 21
481.4508333333329
 31
0.0
  0
LINE
  5
396
330
1E
100
AcDbEntity
  8
0
100
AcDbLine
 10
357.3999999999999
 20
479.03
 30
0.0
 11
360.0
 21
477.0170967741929
 31
0.0
  0
LINE
  5
397
330
1E
100
AcDbEntity
  8
0
100
AcDbLine
 10
355.5
 20
486.3299999999999
 30
0.0
 11
356.7
 21
483.1299999999999
 31
0.0
  0
LINE
  5
398
330
1E
100
AcDbEntity
  8
0
100
AcDbLine
 10
355.0
 20
489.63
 30
0.0
 11
355.5
 21
486.3299999999999
 31
0.0
  0
LINE
  5
399
330
1E
100
AcDbEntity
  8
0
100
AcDbLine
 10
355.0
 20
489.63
 30
0.0
 11
355.5
 21
492.93
 31
0.0
  0
LINE
  5
39C
330
1E
100
AcDbEntity
  8
0
100
AcDbLine
 10
356.7
 20
483.1299999999999
 30
0.0
 11
358.8
 21
480.429
 31
0.0
  0
LINE
  5
39D
330
1E
100
AcDbEntity
  8
0
100
AcDbLine
 10
360.0
 20
489.63
 30
0.0
 11
360.0
 21
489.05
 31
0.0
  0
LINE
  5
39E
330
1E
100
AcDbEntity
  8
0
100
AcDbLine
 10
360.0
 20
489.63
 30
0.0
 11
360.288
 21
491.6780000000001
 31
0.0
  0
LINE
  5
3A0
330
1E
100
AcDbEntity
  8
0
100
AcDbLine
 10
360.0
 20
489.05
 30
0.0
 11
360.0
 21
487.352
 31
0.0
  0
LINE
  5
3A1
330
1E
100
AcDbEntity
  8
0
100
AcDbLine
 10
360.0
 20
489.05
 30
0.0
 11
360.0
 21
489.63
 31
0.0
  0
LINE
  5
3A2
330
1E
100
AcDbEntity
  8
0
100
AcDbLine
 10
360.0
 20
487.352
 30
0.0
 11
360.0
 21
489.05
 31
0.0
  0
LINE
  5
3A3
330
1E
100
AcDbEntity
  8
0
100
AcDbLine
 10
360.0
 20
487.352
 30
0.0
 11
360.0
 21
484.6499999999999
 31
0.0
  0
LINE
  5
3A4
330
1E
100
AcDbEntity
  8
0
100
AcDbLine
 10
360.0
 20
484.6499999999999
 30
0.0
 11
360.0
 21
481.13
 31
0.0
  0
LINE
  5
3A5
330
1E
100
AcDbEntity
  8
0
100
AcDbLine
 10
360.0
 20
484.6499999999999
 30
0.0
 11
360.0
 21
487.352
 31
0.0
  0
LINE
  5
3A6
330
1E
100
AcDbEntity
  8
0
100
AcDbLine
 10
356.8999999999999
 20
486.6299999999999
 30
0.0
 11
358.0
 21
483.929
 31
0.0
  0
LINE
  5
3A7
330
1E
100
AcDbEntity
  8
0
100
AcDbLine
 10
358.0
 20
483.929
 30
0.0
 11
359.8999999999999
 21
481.5299999999999
 31
0.0
  0
LINE
  5
3A8
330
1E
100
AcDbEntity
  8
0
100
AcDbLine
 10
356.4999999999999
 20
489.63
 30
0.0
 11
356.8999999999999
 21
486.6299999999999
 31
0.0
  0
LINE
  5
3A9
330
1E
100
AcDbEntity
  8
0
100
AcDbLine
 10
356.4999999999999
 20
489.63
 30
0.0
 11
356.8999999999999
 21
492.63
 31
0.0
  0
LINE
  5
3AA
330
1E
100
AcDbEntity
  8
0
100
AcDbLine
 10
355.0
 20
482.1299999999999
 30
0.0
 11
357.3999999999999
 21
479.03
 31
0.0
  0
LINE
  5
3AB
330
1E
100
AcDbEntity
  8
0
100
AcDbLine
 10
353.5
 20
485.73
 30
0.0
 11
355.0
 21
482.1299999999999
 31
0.0
  0
LINE
  5
3AC
330
1E
100
AcDbEntity
  8
0
100
AcDbLine
 10
351.6
 20
490.35
 30
0.0
 11
353.3
 21
486.2499999999999
 31
0.0
  0
LINE
  5
3AD
330
1E
100
AcDbEntity
  8
0
100
AcDbLine
 10
351.1
 20
490.2499999999999
 30
0.0
 11
352.8
 21
486.05
 31
0.0
  0
LINE
  5
3AE
330
1E
100
AcDbEntity
  8
0
100
AcDbLine
 10
353.0
 20
489.63
 30
0.0
 11
353.5
 21
493.5299999999999
 31
0.0
  0
LINE
  5
3AF
330
1E
100
AcDbEntity
  8
0
100
AcDbLine
 10
353.0
 20
489.63
 30
0.0
 11
353.5
 21
485.73
 31
0.0
  0
LINE
  5
3B0
330
1E
100
AcDbEntity
  8
0
100
AcDbLine
 10
343.4309999999999
 20
490.8219999999999
 30
0.0
 11
351.084545507763
 21
490.365908691776
 31
0.0
  0
LINE
  5
3B1
330
1E
100
AcDbEntity
  8
0
100
AcDbLine
 10
360.288
 20
491.6780000000001
 30
0.0
 11
361.0559999999999
 21
493.5979999999999
 31
0.0
  0
LINE
  5
3B2
330
1E
100
AcDbEntity
  8
0
100
AcDbLine
 10
355.5
 20
492.93
 30
0.0
 11
356.7
 21
496.13
 31
0.0
  0
LINE
  5
3B3
330
1E
100
AcDbEntity
  8
0
100
AcDbLine
 10
356.8999999999999
 20
492.63
 30
0.0
 11
358.0
 21
495.3299999999999
 31
0.0
  0
LINE
  5
3B5
330
1E
100
AcDbEntity
  8
0
100
AcDbLine
 10
361.0559999999999
 20
493.5979999999999
 30
0.0
 11
362.336
 21
495.294
 31
0.0
  0
LINE
  5
3B7
330
1E
100
AcDbEntity
  8
0
100
AcDbLine
 10
353.5
 20
493.5299999999999
 30
0.0
 11
355.0
 21
497.13
 31
0.0
  0
LINE
  5
3B8
330
1E
100
AcDbEntity
  8
0
100
AcDbLine
 10
332.2459999999999
 20
491.5759999999999
 30
0.0
 11
343.4309999999999
 21
490.8219999999999
 31
0.0
  0
LINE
  5
3B9
330
1E
100
AcDbEntity
  8
0
100
AcDbLine
 10
317.382
 20
492.763
 30
0.0
 11
332.2459999999999
 21
491.5759999999999
 31
0.0
  0
LINE
  5
3BA
330
1E
100
AcDbEntity
  8
0
100
AcDbLine
 10
351.0
 20
494.7499999999999
 30
0.0
 11
351.6
 21
499.15
 31
0.0
  0
LINE
  5
3BB
330
1E
100
AcDbEntity
  8
0
100
AcDbLine
 10
351.0
 20
494.7499999999999
 30
0.0
 11
351.6
 21
490.35
 31
0.0
  0
LINE
  5
3BC
330
1E
100
AcDbEntity
  8
0
100
AcDbLine
 10
353.0
 20
494.7499999999999
 30
0.0
 11
353.5
 21
498.6499999999999
 31
0.0
  0
LINE
  5
3BD
330
1E
100
AcDbEntity
  8
0
100
AcDbLine
 10
353.0
 20
494.7499999999999
 30
0.0
 11
353.328205128205
 21
492.1899999999999
 31
0.0
  0
LINE
  5
3BE
330
1E
100
AcDbEntity
  8
0
100
AcDbLine
 10
353.5
 20
494.7499999999999
 30
0.0
 11
354.0
 21
498.4499999999999
 31
0.0
  0
LINE
  5
3BF
330
1E
100
AcDbEntity
  8
0
100
AcDbLine
 10
353.5
 20
494.7499999999999
 30
0.0
 11
353.6244897959179
 21
493.828775510204
 31
0.0
  0
LINE
  5
3C0
330
1E
100
AcDbEntity
  8
0
100
AcDbLine
 10
350.4999999999999
 20
494.7499999999999
 30
0.0
 11
351.1
 21
490.2499999999999
 31
0.0
  0
LINE
  5
3C1
330
1E
100
AcDbEntity
  8
0
100
AcDbLine
 10
350.4999999999999
 20
494.7499999999999
 30
0.0
 11
351.1
 21
499.2499999999999
 31
0.0
  0
LINE
  5
3C2
330
1E
100
AcDbEntity
  8
0
100
AcDbLine
 10
356.7
 20
496.13
 30
0.0
 11
358.8
 21
498.8299999999999
 31
0.0
  0
LINE
  5
3C3
330
1E
100
AcDbEntity
  8
0
100
AcDbLine
 10
362.336
 20
495.294
 30
0.0
 11
364.032
 21
496.574
 31
0.0
  0
LINE
  5
3C4
330
1E
100
AcDbEntity
  8
0
100
AcDbLine
 10
358.0
 20
495.3299999999999
 30
0.0
 11
359.8999999999999
 21
497.73
 31
0.0
  0
LINE
  5
3C5
330
1E
100
AcDbEntity
  8
0
100
AcDbLine
 10
359.8999999999999
 20
497.73
 30
0.0
 11
362.3
 21
499.6299999999999
 31
0.0
  0
LINE
  5
3C6
330
1E
100
AcDbEntity
  8
0
100
AcDbLine
 10
355.0
 20
497.13
 30
0.0
 11
357.3999999999999
 21
500.2299999999999
 31
0.0
  0
LINE
  5
3C7
330
1E
100
AcDbEntity
  8
0
100
AcDbLine
 10
298.4259999999999
 20
494.348
 30
0.0
 11
317.382
 21
492.763
 31
0.0
  0
LINE
  5
3C8
330
1E
100
AcDbEntity
  8
0
100
AcDbLine
 10
279.787
 20
496.0219999999999
 30
0.0
 11
298.4259999999999
 21
494.348
 31
0.0
  0
LINE
  5
3C9
330
1E
100
AcDbEntity
  8
0
100
AcDbLine
 10
351.6
 20
499.15
 30
0.0
 11
353.3
 21
503.2499999999999
 31
0.0
  0
LINE
  5
3CA
330
1E
100
AcDbEntity
  8
0
100
AcDbLine
 10
353.5
 20
498.6499999999999
 30
0.0
 11
355.0
 21
502.2499999999999
 31
0.0
  0
LINE
  5
3CB
330
1E
100
AcDbEntity
  8
0
100
AcDbLine
 10
354.0
 20
498.4499999999999
 30
0.0
 11
355.3999999999999
 21
501.9499999999999
 31
0.0
  0
LINE
  5
3CC
330
1E
100
AcDbEntity
  8
0
100
AcDbLine
 10
357.367407407407
 20
500.187901234568
 30
0.0
 11
357.6
 21
500.75
 31
0.0
  0
LINE
  5
3CD
330
1E
100
AcDbEntity
  8
0
100
AcDbLine
 10
351.1
 20
499.2499999999999
 30
0.0
 11
352.8
 21
503.45
 31
0.0
  0
LINE
  5
3CE
330
1E
100
AcDbEntity
  8
0
100
AcDbLine
 10
358.8
 20
498.8299999999999
 30
0.0
 11
361.5
 21
500.93
 31
0.0
  0
LINE
  5
3CF
330
1E
100
AcDbEntity
  8
0
100
AcDbLine
 10
357.6
 20
500.75
 30
0.0
 11
359.5
 21
503.2499999999999
 31
0.0
  0
LINE
  5
3D0
330
1E
100
AcDbEntity
  8
0
100
AcDbLine
 10
361.5
 20
500.93
 30
0.0
 11
364.6999999999999
 21
502.13
 31
0.0
  0
LINE
  5
3D1
330
1E
100
AcDbEntity
  8
0
100
AcDbLine
 10
362.3
 20
499.6299999999999
 30
0.0
 11
365.0
 21
500.7299999999999
 31
0.0
  0
LINE
  5
3D2
330
1E
100
AcDbEntity
  8
0
100
AcDbLine
 10
357.3999999999999
 20
500.2299999999999
 30
0.0
 11
360.4999999999999
 21
502.6299999999999
 31
0.0
  0
LINE
  5
3D3
330
1E
100
AcDbEntity
  8
0
100
AcDbLine
 10
258.462
 20
498.013
 30
0.0
 11
279.787
 21
496.0219999999999
 31
0.0
  0
LINE
  5
3D4
330
1E
100
AcDbEntity
  8
0
100
AcDbLine
 10
242.9279999999999
 20
499.5169999999999
 30
0.0
 11
258.462
 21
498.013
 31
0.0
  0
LINE
  5
3D5
330
1E
100
AcDbEntity
  8
0
100
AcDbLine
 10
353.3
 20
503.2499999999999
 30
0.0
 11
356.0
 21
506.7499999999999
 31
0.0
  0
LINE
  5
3D6
330
1E
100
AcDbEntity
  8
0
100
AcDbLine
 10
355.0
 20
502.2499999999999
 30
0.0
 11
357.3999999999999
 21
505.35
 31
0.0
  0
LINE
  5
3D7
330
1E
100
AcDbEntity
  8
0
100
AcDbLine
 10
355.3999999999999
 20
501.9499999999999
 30
0.0
 11
357.8
 21
504.95
 31
0.0
  0
LINE
  5
3D8
330
1E
100
AcDbEntity
  8
0
100
AcDbLine
 10
359.5
 20
503.2499999999999
 30
0.0
 11
362.0
 21
505.1499999999999
 31
0.0
  0
LINE
  5
3D9
330
1E
100
AcDbEntity
  8
0
100
AcDbLine
 10
357.3999999999999
 20
505.35
 30
0.0
 11
360.4999999999999
 21
507.7499999999999
 31
0.0
  0
LINE
  5
3DA
330
1E
100
AcDbEntity
  8
0
100
AcDbLine
 10
357.8
 20
504.95
 30
0.0
 11
360.8
 21
507.35
 31
0.0
  0
LINE
  5
3DB
330
1E
100
AcDbEntity
  8
0
100
AcDbLine
 10
352.8
 20
503.45
 30
0.0
 11
355.6999999999999
 21
507.05
 31
0.0
  0
LINE
  5
3DC
330
1E
100
AcDbEntity
  8
0
100
AcDbLine
 10
362.0
 20
505.1499999999999
 30
0.0
 11
364.9
 21
506.35
 31
0.0
  0
LINE
  5
3DD
330
1E
100
AcDbEntity
  8
0
100
AcDbLine
 10
360.4999999999999
 20
502.6299999999999
 30
0.0
 11
364.1
 21
504.1299999999999
 31
0.0
  0
LINE
  5
3DE
330
1E
100
AcDbEntity
  8
0
100
AcDbLine
 10
227.3979999999999
 20
501.0799999999999
 30
0.0
 11
242.9279999999999
 21
499.5169999999999
 31
0.0
  0
LINE
  5
3DF
330
1E
100
AcDbEntity
  8
0
100
AcDbLine
 10
364.032
 20
496.574
 30
0.0
 11
365.952
 21
497.3419999999999
 31
0.0
  0
LINE
  5
3E0
330
1E
100
AcDbEntity
  8
0
100
AcDbLine
 10
364.6999999999999
 20
502.13
 30
0.0
 11
368.0
 21
502.6299999999999
 31
0.0
  0
LINE
  5
3E2
330
1E
100
AcDbEntity
  8
0
100
AcDbLine
 10
365.0
 20
500.7299999999999
 30
0.0
 11
368.0
 21
501.13
 31
0.0
  0
LINE
  5
3E4
330
1E
100
AcDbEntity
  8
0
100
AcDbLine
 10
368.0
 20
502.6299999999999
 30
0.0
 11
371.3
 21
502.13
 31
0.0
  0
LINE
  5
3E6
330
1E
100
AcDbEntity
  8
0
100
AcDbLine
 10
368.0
 20
501.13
 30
0.0
 11
371.0
 21
500.7299999999999
 31
0.0
  0
LINE
  5
3E7
330
1E
100
AcDbEntity
  8
0
100
AcDbLine
 10
368.0
 20
497.63
 30
0.0
 11
370.048
 21
497.3419999999999
 31
0.0
  0
LINE
  5
3E8
330
1E
100
AcDbEntity
  8
0
100
AcDbLine
 10
365.952
 20
497.3419999999999
 30
0.0
 11
368.0
 21
497.63
 31
0.0
  0
LINE
  5
3E9
330
1E
100
AcDbEntity
  8
0
100
AcDbLine
 10
368.0
 20
504.63
 30
0.0
 11
371.8999999999999
 21
504.1299999999999
 31
0.0
  0
LINE
  5
3EA
330
1E
100
AcDbEntity
  8
0
100
AcDbLine
 10
364.1
 20
504.1299999999999
 30
0.0
 11
368.0
 21
504.63
 31
0.0
  0
LINE
  5
3EC
330
1E
100
AcDbEntity
  8
0
100
AcDbLine
 10
364.9
 20
506.35
 30
0.0
 11
368.0
 21
506.7499999999999
 31
0.0
  0
LINE
  5
3ED
330
1E
100
AcDbEntity
  8
0
100
AcDbLine
 10
355.6999999999999
 20
507.05
 30
0.0
 11
359.2999999999999
 21
509.9499999999999
 31
0.0
  0
LINE
  5
3EE
330
1E
100
AcDbEntity
  8
0
100
AcDbLine
 10
356.0
 20
506.7499999999999
 30
0.0
 11
359.5
 21
509.45
 31
0.0
  0
LINE
  5
3EF
330
1E
100
AcDbEntity
  8
0
100
AcDbLine
 10
360.4999999999999
 20
507.7499999999999
 30
0.0
 11
364.1
 21
509.25
 31
0.0
  0
LINE
  5
3F0
330
1E
100
AcDbEntity
  8
0
100
AcDbLine
 10
368.0
 20
506.7499999999999
 30
0.0
 11
371.1
 21
506.35
 31
0.0
  0
LINE
  5
3F1
330
1E
100
AcDbEntity
  8
0
100
AcDbLine
 10
360.8
 20
507.35
 30
0.0
 11
364.3
 21
508.75
 31
0.0
  0
LINE
  5
3F2
330
1E
100
AcDbEntity
  8
0
100
AcDbLine
 10
345.023
 20
506.718
 30
0.0
 11
354.954225243187
 21
506.124210646715
 31
0.0
  0
LINE
  5
3F3
330
1E
100
AcDbEntity
  8
0
100
AcDbLine
 10
333.838
 20
507.472
 30
0.0
 11
345.023
 21
506.718
 31
0.0
  0
LINE
  5
3F5
330
1E
100
AcDbEntity
  8
0
100
AcDbLine
 10
376.0
 20
477.0299999999999
 30
0.0
 11
376.0
 21
472.63
 31
0.0
  0
LINE
  5
3F6
330
1E
100
AcDbEntity
  8
0
100
AcDbLine
 10
376.0
 20
477.0299999999999
 30
0.0
 11
376.0
 21
481.13
 31
0.0
  0
LINE
  5
3F7
330
1E
100
AcDbEntity
  8
0
100
AcDbLine
 10
376.0
 20
477.0170967741929
 30
0.0
 11
378.6
 21
479.03
 31
0.0
  0
LINE
  5
3F8
330
1E
100
AcDbEntity
  8
0
100
AcDbLine
 10
376.0
 20
479.496111111111
 30
0.0
 11
377.1999999999999
 21
480.429
 31
0.0
  0
LINE
  5
3F9
330
1E
100
AcDbEntity
  8
0
100
AcDbLine
 10
376.0
 20
481.4508333333329
 30
0.0
 11
376.1
 21
481.5299999999999
 31
0.0
  0
LINE
  5
3FA
330
1E
100
AcDbEntity
  8
0
100
AcDbLine
 10
376.0
 20
484.6499999999999
 30
0.0
 11
376.0
 21
487.352
 31
0.0
  0
LINE
  5
3FB
330
1E
100
AcDbEntity
  8
0
100
AcDbLine
 10
376.0
 20
484.6499999999999
 30
0.0
 11
376.0
 21
481.13
 31
0.0
  0
LINE
  5
3FC
330
1E
100
AcDbEntity
  8
0
100
AcDbLine
 10
377.1999999999999
 20
480.429
 30
0.0
 11
379.3
 21
483.1299999999999
 31
0.0
  0
LINE
  5
3FD
330
1E
100
AcDbEntity
  8
0
100
AcDbLine
 10
379.3
 20
483.1299999999999
 30
0.0
 11
380.5
 21
486.3299999999999
 31
0.0
  0
LINE
  5
3FE
330
1E
100
AcDbEntity
  8
0
100
AcDbLine
 10
378.0
 20
483.929
 30
0.0
 11
379.1
 21
486.6299999999999
 31
0.0
  0
LINE
  5
3FF
330
1E
100
AcDbEntity
  8
0
100
AcDbLine
 10
376.1
 20
481.5299999999999
 30
0.0
 11
378.0
 21
483.929
 31
0.0
  0
LINE
  5
400
330
1E
100
AcDbEntity
  8
0
100
AcDbLine
 10
376.0
 20
481.13
 30
0.0
 11
376.0
 21
484.6499999999999
 31
0.0
  0
LINE
  5
401
330
1E
100
AcDbEntity
  8
0
100
AcDbLine
 10
376.0
 20
481.13
 30
0.0
 11
376.0
 21
477.0299999999999
 31
0.0
  0
LINE
  5
402
330
1E
100
AcDbEntity
  8
0
100
AcDbLine
 10
378.6
 20
479.03
 30
0.0
 11
381.0
 21
482.1299999999999
 31
0.0
  0
LINE
  5
403
330
1E
100
AcDbEntity
  8
0
100
AcDbLine
 10
382.0261904761899
 20
484.592857142857
 30
0.0
 11
383.1999999999999
 21
486.05
 31
0.0
  0
LINE
  5
404
330
1E
100
AcDbEntity
  8
0
100
AcDbLine
 10
381.0
 20
482.1299999999999
 30
0.0
 11
382.5
 21
485.73
 31
0.0
  0
LINE
  5
405
330
1E
100
AcDbEntity
  8
0
100
AcDbLine
 10
371.968
 20
496.574
 30
0.0
 11
373.6639999999999
 21
495.294
 31
0.0
  0
LINE
  5
406
330
1E
100
AcDbEntity
  8
0
100
AcDbLine
 10
373.6639999999999
 20
495.294
 30
0.0
 11
374.944
 21
493.5979999999999
 31
0.0
  0
LINE
  5
408
330
1E
100
AcDbEntity
  8
0
100
AcDbLine
 10
374.944
 20
493.5979999999999
 30
0.0
 11
375.712
 21
491.6780000000001
 31
0.0
  0
LINE
  5
40A
330
1E
100
AcDbEntity
  8
0
100
AcDbLine
 10
380.5
 20
486.3299999999999
 30
0.0
 11
381.0
 21
489.63
 31
0.0
  0
LINE
  5
40C
330
1E
100
AcDbEntity
  8
0
100
AcDbLine
 10
379.1
 20
486.6299999999999
 30
0.0
 11
379.4999999999999
 21
489.63
 31
0.0
  0
LINE
  5
40D
330
1E
100
AcDbEntity
  8
0
100
AcDbLine
 10
376.0
 20
489.05
 30
0.0
 11
376.0
 21
487.352
 31
0.0
  0
LINE
  5
40E
330
1E
100
AcDbEntity
  8
0
100
AcDbLine
 10
376.0
 20
489.05
 30
0.0
 11
376.0
 21
489.63
 31
0.0
  0
LINE
  5
40F
330
1E
100
AcDbEntity
  8
0
100
AcDbLine
 10
375.712
 20
491.6780000000001
 30
0.0
 11
376.0
 21
489.63
 31
0.0
  0
LINE
  5
411
330
1E
100
AcDbEntity
  8
0
100
AcDbLine
 10
379.3
 20
496.13
 30
0.0
 11
380.5
 21
492.93
 31
0.0
  0
LINE
  5
412
330
1E
100
AcDbEntity
  8
0
100
AcDbLine
 10
382.375510204082
 20
493.828775510204
 30
0.0
 11
382.5
 21
494.7499999999999
 31
0.0
  0
LINE
  5
413
330
1E
100
AcDbEntity
  8
0
100
AcDbLine
 10
380.5
 20
492.93
 30
0.0
 11
381.0
 21
489.63
 31
0.0
  0
LINE
  5
415
330
1E
100
AcDbEntity
  8
0
100
AcDbLine
 10
378.0
 20
495.3299999999999
 30
0.0
 11
379.1
 21
492.63
 31
0.0
  0
LINE
  5
416
330
1E
100
AcDbEntity
  8
0
100
AcDbLine
 10
379.1
 20
492.63
 30
0.0
 11
379.4999999999999
 21
489.63
 31
0.0
  0
LINE
  5
417
330
1E
100
AcDbEntity
  8
0
100
AcDbLine
 10
376.0
 20
489.63
 30
0.0
 11
376.0
 21
489.05
 31
0.0
  0
LINE
  5
418
330
1E
100
AcDbEntity
  8
0
100
AcDbLine
 10
376.0
 20
487.352
 30
0.0
 11
376.0
 21
484.6499999999999
 31
0.0
  0
LINE
  5
419
330
1E
100
AcDbEntity
  8
0
100
AcDbLine
 10
376.0
 20
487.352
 30
0.0
 11
376.0
 21
489.05
 31
0.0
  0
LINE
  5
41B
330
1E
100
AcDbEntity
  8
0
100
AcDbLine
 10
374.5
 20
500.93
 30
0.0
 11
377.1999999999999
 21
498.8299999999999
 31
0.0
  0
LINE
  5
41C
330
1E
100
AcDbEntity
  8
0
100
AcDbLine
 10
371.3
 20
502.13
 30
0.0
 11
374.5
 21
500.93
 31
0.0
  0
LINE
  5
41D
330
1E
100
AcDbEntity
  8
0
100
AcDbLine
 10
373.7
 20
499.6299999999999
 30
0.0
 11
376.1
 21
497.73
 31
0.0
  0
LINE
  5
41E
330
1E
100
AcDbEntity
  8
0
100
AcDbLine
 10
371.0
 20
500.7299999999999
 30
0.0
 11
373.7
 21
499.6299999999999
 31
0.0
  0
LINE
  5
41F
330
1E
100
AcDbEntity
  8
0
100
AcDbLine
 10
370.048
 20
497.3419999999999
 30
0.0
 11
371.968
 21
496.574
 31
0.0
  0
LINE
  5
420
330
1E
100
AcDbEntity
  8
0
100
AcDbLine
 10
376.5
 20
503.2499999999999
 30
0.0
 11
378.3999999999999
 21
500.75
 31
0.0
  0
LINE
  5
421
330
1E
100
AcDbEntity
  8
0
100
AcDbLine
 10
378.3999999999999
 20
500.75
 30
0.0
 11
378.632592592593
 21
500.187901234568
 31
0.0
  0
LINE
  5
422
330
1E
100
AcDbEntity
  8
0
100
AcDbLine
 10
377.1999999999999
 20
498.8299999999999
 30
0.0
 11
379.3
 21
496.13
 31
0.0
  0
LINE
  5
423
330
1E
100
AcDbEntity
  8
0
100
AcDbLine
 10
376.1
 20
497.73
 30
0.0
 11
378.0
 21
495.3299999999999
 31
0.0
  0
LINE
  5
424
330
1E
100
AcDbEntity
  8
0
100
AcDbLine
 10
375.4999999999999
 20
502.6299999999999
 30
0.0
 11
378.6
 21
500.2299999999999
 31
0.0
  0
LINE
  5
425
330
1E
100
AcDbEntity
  8
0
100
AcDbLine
 10
374.0
 20
505.1499999999999
 30
0.0
 11
376.5
 21
503.2499999999999
 31
0.0
  0
LINE
  5
426
330
1E
100
AcDbEntity
  8
0
100
AcDbLine
 10
375.4999999999999
 20
507.7499999999999
 30
0.0
 11
378.6
 21
505.35
 31
0.0
  0
LINE
  5
427
330
1E
100
AcDbEntity
  8
0
100
AcDbLine
 10
375.1999999999999
 20
507.35
 30
0.0
 11
378.2
 21
504.95
 31
0.0
  0
LINE
  5
428
330
1E
100
AcDbEntity
  8
0
100
AcDbLine
 10
371.1
 20
506.35
 30
0.0
 11
374.0
 21
505.1499999999999
 31
0.0
  0
LINE
  5
429
330
1E
100
AcDbEntity
  8
0
100
AcDbLine
 10
378.6
 20
505.35
 30
0.0
 11
381.0
 21
502.2499999999999
 31
0.0
  0
LINE
  5
42A
330
1E
100
AcDbEntity
  8
0
100
AcDbLine
 10
378.2
 20
504.95
 30
0.0
 11
380.6
 21
501.9499999999999
 31
0.0
  0
LINE
  5
42B
330
1E
100
AcDbEntity
  8
0
100
AcDbLine
 10
371.8999999999999
 20
504.1299999999999
 30
0.0
 11
375.4999999999999
 21
502.6299999999999
 31
0.0
  0
LINE
  5
42C
330
1E
100
AcDbEntity
  8
0
100
AcDbLine
 10
380.3
 20
507.05
 30
0.0
 11
383.1999999999999
 21
503.45
 31
0.0
  0
LINE
  5
42D
330
1E
100
AcDbEntity
  8
0
100
AcDbLine
 10
380.0
 20
506.7499999999999
 30
0.0
 11
382.6999999999999
 21
503.2499999999999
 31
0.0
  0
LINE
  5
42E
330
1E
100
AcDbEntity
  8
0
100
AcDbLine
 10
381.0
 20
502.2499999999999
 30
0.0
 11
382.5
 21
498.6499999999999
 31
0.0
  0
LINE
  5
42F
330
1E
100
AcDbEntity
  8
0
100
AcDbLine
 10
382.5
 20
498.6499999999999
 30
0.0
 11
383.0
 21
494.7499999999999
 31
0.0
  0
LINE
  5
430
330
1E
100
AcDbEntity
  8
0
100
AcDbLine
 10
380.6
 20
501.9499999999999
 30
0.0
 11
382.0
 21
498.4499999999999
 31
0.0
  0
LINE
  5
431
330
1E
100
AcDbEntity
  8
0
100
AcDbLine
 10
382.0
 20
498.4499999999999
 30
0.0
 11
382.5
 21
494.7499999999999
 31
0.0
  0
LINE
  5
432
330
1E
100
AcDbEntity
  8
0
100
AcDbLine
 10
378.6
 20
500.2299999999999
 30
0.0
 11
381.0
 21
497.13
 31
0.0
  0
LINE
  5
433
330
1E
100
AcDbEntity
  8
0
100
AcDbLine
 10
381.0
 20
497.13
 30
0.0
 11
382.5
 21
493.5299999999999
 31
0.0
  0
LINE
  5
434
330
1E
100
AcDbEntity
  8
0
100
AcDbLine
 10
383.1999999999999
 20
486.05
 30
0.0
 11
384.8999999999999
 21
490.2499999999999
 31
0.0
  0
LINE
  5
435
330
1E
100
AcDbEntity
  8
0
100
AcDbLine
 10
382.540091116173
 20
486.0427107061499
 30
0.0
 11
382.6999999999999
 21
486.2499999999999
 31
0.0
  0
LINE
  5
436
330
1E
100
AcDbEntity
  8
0
100
AcDbLine
 10
382.6999999999999
 20
486.2499999999999
 30
0.0
 11
384.3999999999999
 21
490.35
 31
0.0
  0
LINE
  5
437
330
1E
100
AcDbEntity
  8
0
100
AcDbLine
 10
384.8999999999999
 20
490.2499999999999
 30
0.0
 11
385.5
 21
494.7499999999999
 31
0.0
  0
LINE
  5
438
330
1E
100
AcDbEntity
  8
0
100
AcDbLine
 10
384.3999999999999
 20
490.35
 30
0.0
 11
385.0
 21
494.7499999999999
 31
0.0
  0
LINE
  5
439
330
1E
100
AcDbEntity
  8
0
100
AcDbLine
 10
383.1999999999999
 20
503.45
 30
0.0
 11
384.8999999999999
 21
499.2499999999999
 31
0.0
  0
LINE
  5
43A
330
1E
100
AcDbEntity
  8
0
100
AcDbLine
 10
382.6999999999999
 20
503.2499999999999
 30
0.0
 11
384.3999999999999
 21
499.15
 31
0.0
  0
LINE
  5
43B
330
1E
100
AcDbEntity
  8
0
100
AcDbLine
 10
384.8999999999999
 20
499.2499999999999
 30
0.0
 11
385.5
 21
494.7499999999999
 31
0.0
  0
LINE
  5
43C
330
1E
100
AcDbEntity
  8
0
100
AcDbLine
 10
384.3999999999999
 20
499.15
 30
0.0
 11
385.0
 21
494.7499999999999
 31
0.0
  0
LINE
  5
43D
330
1E
100
AcDbEntity
  8
0
100
AcDbLine
 10
382.6717948717949
 20
492.1899999999999
 30
0.0
 11
383.0
 21
494.7499999999999
 31
0.0
  0
LINE
  5
43E
330
1E
100
AcDbEntity
  8
0
100
AcDbLine
 10
382.5
 20
493.5299999999999
 30
0.0
 11
383.0
 21
489.63
 31
0.0
  0
LINE
  5
43F
330
1E
100
AcDbEntity
  8
0
100
AcDbLine
 10
382.5
 20
485.73
 30
0.0
 11
383.0
 21
489.63
 31
0.0
  0
LINE
  5
441
330
1E
100
AcDbEntity
  8
0
100
AcDbLine
 10
359.0
 20
509.7083333333329
 30
0.0
 11
359.0
 21
523.7499999999999
 31
0.0
  0
LINE
  5
442
330
1E
100
AcDbEntity
  8
0
100
AcDbLine
 10
359.5
 20
509.45
 30
0.0
 11
363.6
 21
511.1499999999999
 31
0.0
  0
LINE
  5
443
330
1E
100
AcDbEntity
  8
0
100
AcDbLine
 10
364.1
 20
509.25
 30
0.0
 11
368.0
 21
509.75
 31
0.0
  0
LINE
  5
444
330
1E
100
AcDbEntity
  8
0
100
AcDbLine
 10
371.8999999999999
 20
509.25
 30
0.0
 11
375.4999999999999
 21
507.7499999999999
 31
0.0
  0
LINE
  5
445
330
1E
100
AcDbEntity
  8
0
100
AcDbLine
 10
371.7
 20
508.75
 30
0.0
 11
375.1999999999999
 21
507.35
 31
0.0
  0
LINE
  5
446
330
1E
100
AcDbEntity
  8
0
100
AcDbLine
 10
377.0
 20
509.7083333333329
 30
0.0
 11
377.0
 21
523.7499999999999
 31
0.0
  0
LINE
  5
447
330
1E
100
AcDbEntity
  8
0
100
AcDbLine
 10
376.5
 20
509.45
 30
0.0
 11
380.0
 21
506.7499999999999
 31
0.0
  0
LINE
  5
448
330
1E
100
AcDbEntity
  8
0
100
AcDbLine
 10
368.0
 20
509.75
 30
0.0
 11
371.8999999999999
 21
509.25
 31
0.0
  0
LINE
  5
449
330
1E
100
AcDbEntity
  8
0
100
AcDbLine
 10
368.0
 20
509.25
 30
0.0
 11
371.7
 21
508.75
 31
0.0
  0
LINE
  5
44A
330
1E
100
AcDbEntity
  8
0
100
AcDbLine
 10
364.3
 20
508.75
 30
0.0
 11
368.0
 21
509.25
 31
0.0
  0
LINE
  5
44B
330
1E
100
AcDbEntity
  8
0
100
AcDbLine
 10
318.964
 20
508.66
 30
0.0
 11
333.838
 21
507.472
 31
0.0
  0
LINE
  5
44C
330
1E
100
AcDbEntity
  8
0
100
AcDbLine
 10
216.5
 20
509.75
 30
0.0
 11
218.1179999999999
 21
509.75
 31
0.0
  0
LINE
  5
44D
330
1E
100
AcDbEntity
  8
0
100
AcDbLine
 10
218.1179999999999
 20
509.75
 30
0.0
 11
218.8569999999999
 21
509.75
 31
0.0
  0
LINE
  5
44E
330
1E
100
AcDbEntity
  8
0
100
AcDbLine
 10
215.851
 20
509.75
 30
0.0
 11
216.5
 21
509.75
 31
0.0
  0
LINE
  5
44F
330
1E
100
AcDbEntity
  8
0
100
AcDbLine
 10
216.0369999999999
 20
508.25
 30
0.0
 11
216.5
 21
509.75
 31
0.0
  0
LINE
  5
450
330
1E
100
AcDbEntity
  8
0
100
AcDbLine
 10
215.388
 20
508.25
 30
0.0
 11
216.0369999999999
 21
508.25
 31
0.0
  0
LINE
  5
451
330
1E
100
AcDbEntity
  8
0
100
AcDbLine
 10
218.8569999999999
 20
509.75
 30
0.0
 11
220.089
 21
510.205
 31
0.0
  0
LINE
  5
452
330
1E
100
AcDbEntity
  8
0
100
AcDbLine
 10
192.773
 20
508.25
 30
0.0
 11
197.5
 21
508.25
 31
0.0
  0
LINE
  5
453
330
1E
100
AcDbEntity
  8
0
100
AcDbLine
 10
197.5
 20
510.205
 30
0.0
 11
203.3319999999999
 21
510.205
 31
0.0
  0
LINE
  5
454
330
1E
100
AcDbEntity
  8
0
100
AcDbLine
 10
208.754
 20
510.205
 30
0.0
 11
213.436
 21
510.205
 31
0.0
  0
LINE
  5
455
330
1E
100
AcDbEntity
  8
0
100
AcDbLine
 10
203.3319999999999
 20
510.205
 30
0.0
 11
208.754
 21
510.205
 31
0.0
  0
LINE
  5
456
330
1E
100
AcDbEntity
  8
0
100
AcDbLine
 10
213.436
 20
510.205
 30
0.0
 11
217.05
 21
510.205
 31
0.0
  0
LINE
  5
457
330
1E
100
AcDbEntity
  8
0
100
AcDbLine
 10
217.05
 20
510.205
 30
0.0
 11
219.268
 21
510.205
 31
0.0
  0
LINE
  5
458
330
1E
100
AcDbEntity
  8
0
100
AcDbLine
 10
219.268
 20
510.205
 30
0.0
 11
220.089
 21
510.205
 31
0.0
  0
LINE
  5
459
330
1E
100
AcDbEntity
  8
0
100
AcDbLine
 10
376.6999999999999
 20
509.9499999999999
 30
0.0
 11
380.3
 21
507.05
 31
0.0
  0
LINE
  5
45A
330
1E
100
AcDbEntity
  8
0
100
AcDbLine
 10
359.2999999999999
 20
509.9499999999999
 30
0.0
 11
363.5
 21
511.65
 31
0.0
  0
LINE
  5
45B
330
1E
100
AcDbEntity
  8
0
100
AcDbLine
 10
372.3999999999999
 20
511.1499999999999
 30
0.0
 11
376.5
 21
509.45
 31
0.0
  0
LINE
  5
45C
330
1E
100
AcDbEntity
  8
0
100
AcDbLine
 10
363.6
 20
511.1499999999999
 30
0.0
 11
368.0
 21
511.7499999999999
 31
0.0
  0
LINE
  5
45D
330
1E
100
AcDbEntity
  8
0
100
AcDbLine
 10
300.0179999999999
 20
510.244
 30
0.0
 11
318.964
 21
508.66
 31
0.0
  0
LINE
  5
45E
330
1E
100
AcDbEntity
  8
0
100
AcDbLine
 10
220.089
 20
510.205
 30
0.0
 11
220.5
 21
511.568
 31
0.0
  0
LINE
  5
45F
330
1E
100
AcDbEntity
  8
0
100
AcDbLine
 10
213.764
 20
544.7499999999999
 30
0.0
 11
217.4609999999999
 21
544.7499999999999
 31
0.0
  0
LINE
  5
460
330
1E
100
AcDbEntity
  8
0
100
AcDbLine
 10
217.4609999999999
 20
544.7499999999999
 30
0.0
 11
219.679
 21
544.7499999999999
 31
0.0
  0
LINE
  5
461
330
1E
100
AcDbEntity
  8
0
100
AcDbLine
 10
220.5
 20
517.860217297399
 30
0.0
 11
228.9789999999999
 21
516.9780000000001
 31
0.0
  0
LINE
  5
462
330
1E
100
AcDbEntity
  8
0
100
AcDbLine
 10
220.5
 20
544.7499999999999
 30
0.0
 11
222.462
 21
544.7499999999999
 31
0.0
  0
LINE
  5
463
330
1E
100
AcDbEntity
  8
0
100
AcDbLine
 10
220.5
 20
544.7499999999999
 30
0.0
 11
220.5
 21
511.568
 31
0.0
  0
LINE
  5
464
330
1E
100
AcDbEntity
  8
0
100
AcDbLine
 10
372.5
 20
511.65
 30
0.0
 11
376.6999999999999
 21
509.9499999999999
 31
0.0
  0
LINE
  5
465
330
1E
100
AcDbEntity
  8
0
100
AcDbLine
 10
368.0
 20
512.25
 30
0.0
 11
372.5
 21
511.65
 31
0.0
  0
LINE
  5
466
330
1E
100
AcDbEntity
  8
0
100
AcDbLine
 10
368.0
 20
511.7499999999999
 30
0.0
 11
372.3999999999999
 21
511.1499999999999
 31
0.0
  0
LINE
  5
467
330
1E
100
AcDbEntity
  8
0
100
AcDbLine
 10
363.5
 20
511.65
 30
0.0
 11
368.0
 21
512.25
 31
0.0
  0
LINE
  5
468
330
1E
100
AcDbEntity
  8
0
100
AcDbLine
 10
281.3779999999999
 20
511.918
 30
0.0
 11
300.0179999999999
 21
510.244
 31
0.0
  0
LINE
  5
469
330
1E
100
AcDbEntity
  8
0
100
AcDbLine
 10
260.054
 20
513.909
 30
0.0
 11
281.3779999999999
 21
511.918
 31
0.0
  0
LINE
  5
46A
330
1E
100
AcDbEntity
  8
0
100
AcDbLine
 10
244.519
 20
515.413
 30
0.0
 11
260.054
 21
513.909
 31
0.0
  0
LINE
  5
46B
330
1E
100
AcDbEntity
  8
0
100
AcDbLine
 10
351.1
 20
536.577
 30
0.0
 11
352.8
 21
536.577
 31
0.0
  0
LINE
  5
46C
330
1E
100
AcDbEntity
  8
0
100
AcDbLine
 10
365.6959999999999
 20
523.7499999999999
 30
0.0
 11
368.0
 21
523.7499999999999
 31
0.0
  0
LINE
  5
46D
330
1E
100
AcDbEntity
  8
0
100
AcDbLine
 10
363.5359999999999
 20
523.7499999999999
 30
0.0
 11
365.6959999999999
 21
523.7499999999999
 31
0.0
  0
LINE
  5
46E
330
1E
100
AcDbEntity
  8
0
100
AcDbLine
 10
361.628
 20
523.7499999999999
 30
0.0
 11
363.5359999999999
 21
523.7499999999999
 31
0.0
  0
LINE
  5
46F
330
1E
100
AcDbEntity
  8
0
100
AcDbLine
 10
360.188
 20
523.7499999999999
 30
0.0
 11
361.628
 21
523.7499999999999
 31
0.0
  0
LINE
  5
470
330
1E
100
AcDbEntity
  8
0
100
AcDbLine
 10
359.324
 20
523.7499999999999
 30
0.0
 11
360.188
 21
523.7499999999999
 31
0.0
  0
LINE
  5
471
330
1E
100
AcDbEntity
  8
0
100
AcDbLine
 10
368.0
 20
523.7499999999999
 30
0.0
 11
370.304
 21
523.7499999999999
 31
0.0
  0
LINE
  5
472
330
1E
100
AcDbEntity
  8
0
100
AcDbLine
 10
370.304
 20
523.7499999999999
 30
0.0
 11
372.4639999999999
 21
523.7499999999999
 31
0.0
  0
LINE
  5
473
330
1E
100
AcDbEntity
  8
0
100
AcDbLine
 10
372.4639999999999
 20
523.7499999999999
 30
0.0
 11
374.3719999999999
 21
523.7499999999999
 31
0.0
  0
LINE
  5
474
330
1E
100
AcDbEntity
  8
0
100
AcDbLine
 10
374.3719999999999
 20
523.7499999999999
 30
0.0
 11
375.8119999999999
 21
523.7499999999999
 31
0.0
  0
LINE
  5
475
330
1E
100
AcDbEntity
  8
0
100
AcDbLine
 10
375.8119999999999
 20
523.7499999999999
 30
0.0
 11
376.676
 21
523.7499999999999
 31
0.0
  0
LINE
  5
476
330
1E
100
AcDbEntity
  8
0
100
AcDbLine
 10
376.676
 20
523.7499999999999
 30
0.0
 11
377.0
 21
523.7499999999999
 31
0.0
  0
LINE
  5
477
330
1E
100
AcDbEntity
  8
0
100
AcDbLine
 10
359.0
 20
523.7499999999999
 30
0.0
 11
359.0
 21
509.7083333333329
 31
0.0
  0
LINE
  5
478
330
1E
100
AcDbEntity
  8
0
100
AcDbLine
 10
359.0
 20
523.7499999999999
 30
0.0
 11
359.324
 21
523.7499999999999
 31
0.0
  0
LINE
  5
479
330
1E
100
AcDbEntity
  8
0
100
AcDbLine
 10
377.0
 20
523.7499999999999
 30
0.0
 11
377.1999999999999
 21
523.7499999999999
 31
0.0
  0
LINE
  5
47A
330
1E
100
AcDbEntity
  8
0
100
AcDbLine
 10
377.0
 20
523.7499999999999
 30
0.0
 11
377.0
 21
509.7083333333329
 31
0.0
  0
LINE
  5
47B
330
1E
100
AcDbEntity
  8
0
100
AcDbLine
 10
377.1999999999999
 20
523.7499999999999
 30
0.0
 11
379.3
 21
523.7499999999999
 31
0.0
  0
LINE
  5
47C
330
1E
100
AcDbEntity
  8
0
100
AcDbLine
 10
379.3
 20
523.7499999999999
 30
0.0
 11
380.5
 21
523.7499999999999
 31
0.0
  0
LINE
  5
47D
330
1E
100
AcDbEntity
  8
0
100
AcDbLine
 10
380.5
 20
523.7499999999999
 30
0.0
 11
381.0
 21
523.7499999999999
 31
0.0
  0
LINE
  5
47E
330
1E
100
AcDbEntity
  8
0
100
AcDbLine
 10
381.0
 20
523.7499999999999
 30
0.0
 11
382.5
 21
524.3079999999999
 31
0.0
  0
LINE
  5
47F
330
1E
100
AcDbEntity
  8
0
100
AcDbLine
 10
358.8
 20
523.7499999999999
 30
0.0
 11
359.0
 21
523.7499999999999
 31
0.0
  0
LINE
  5
480
330
1E
100
AcDbEntity
  8
0
100
AcDbLine
 10
356.7
 20
523.7499999999999
 30
0.0
 11
358.8
 21
523.7499999999999
 31
0.0
  0
LINE
  5
481
330
1E
100
AcDbEntity
  8
0
100
AcDbLine
 10
355.5
 20
523.7499999999999
 30
0.0
 11
356.7
 21
523.7499999999999
 31
0.0
  0
LINE
  5
482
330
1E
100
AcDbEntity
  8
0
100
AcDbLine
 10
353.5
 20
534.904
 30
0.0
 11
355.0
 21
534.904
 31
0.0
  0
LINE
  5
483
330
1E
100
AcDbEntity
  8
0
100
AcDbLine
 10
355.3999999999999
 20
524.3079999999999
 30
0.0
 11
357.8
 21
524.3079999999999
 31
0.0
  0
LINE
  5
484
330
1E
100
AcDbEntity
  8
0
100
AcDbLine
 10
354.0
 20
524.3079999999999
 30
0.0
 11
355.3999999999999
 21
524.3079999999999
 31
0.0
  0
LINE
  5
485
330
1E
100
AcDbEntity
  8
0
100
AcDbLine
 10
357.8
 20
524.3079999999999
 30
0.0
 11
360.8
 21
524.3079999999999
 31
0.0
  0
LINE
  5
486
330
1E
100
AcDbEntity
  8
0
100
AcDbLine
 10
360.8
 20
524.3079999999999
 30
0.0
 11
364.3
 21
524.3079999999999
 31
0.0
  0
LINE
  5
487
330
1E
100
AcDbEntity
  8
0
100
AcDbLine
 10
378.2
 20
524.3079999999999
 30
0.0
 11
380.6
 21
524.3079999999999
 31
0.0
  0
LINE
  5
488
330
1E
100
AcDbEntity
  8
0
100
AcDbLine
 10
380.6
 20
524.3079999999999
 30
0.0
 11
382.0
 21
524.3079999999999
 31
0.0
  0
LINE
  5
489
330
1E
100
AcDbEntity
  8
0
100
AcDbLine
 10
382.0
 20
524.3079999999999
 30
0.0
 11
382.5
 21
524.3079999999999
 31
0.0
  0
LINE
  5
48A
330
1E
100
AcDbEntity
  8
0
100
AcDbLine
 10
375.1999999999999
 20
524.3079999999999
 30
0.0
 11
378.2
 21
524.3079999999999
 31
0.0
  0
LINE
  5
48B
330
1E
100
AcDbEntity
  8
0
100
AcDbLine
 10
371.7
 20
524.3079999999999
 30
0.0
 11
375.1999999999999
 21
524.3079999999999
 31
0.0
  0
LINE
  5
48C
330
1E
100
AcDbEntity
  8
0
100
AcDbLine
 10
368.0
 20
524.3079999999999
 30
0.0
 11
371.7
 21
524.3079999999999
 31
0.0
  0
LINE
  5
48D
330
1E
100
AcDbEntity
  8
0
100
AcDbLine
 10
364.3
 20
524.3079999999999
 30
0.0
 11
368.0
 21
524.3079999999999
 31
0.0
  0
LINE
  5
48E
330
1E
100
AcDbEntity
  8
0
100
AcDbLine
 10
355.0
 20
534.904
 30
0.0
 11
357.3999999999999
 21
534.904
 31
0.0
  0
LINE
  5
48F
330
1E
100
AcDbEntity
  8
0
100
AcDbLine
 10
357.3999999999999
 20
534.904
 30
0.0
 11
360.4999999999999
 21
534.904
 31
0.0
  0
LINE
  5
490
330
1E
100
AcDbEntity
  8
0
100
AcDbLine
 10
360.4999999999999
 20
534.904
 30
0.0
 11
364.1
 21
534.904
 31
0.0
  0
LINE
  5
491
330
1E
100
AcDbEntity
  8
0
100
AcDbLine
 10
378.6
 20
534.904
 30
0.0
 11
381.0
 21
534.904
 31
0.0
  0
LINE
  5
492
330
1E
100
AcDbEntity
  8
0
100
AcDbLine
 10
381.0
 20
534.904
 30
0.0
 11
382.5
 21
534.904
 31
0.0
  0
LINE
  5
493
330
1E
100
AcDbEntity
  8
0
100
AcDbLine
 10
382.5
 20
534.904
 30
0.0
 11
383.0
 21
534.904
 31
0.0
  0
LINE
  5
494
330
1E
100
AcDbEntity
  8
0
100
AcDbLine
 10
375.4999999999999
 20
534.904
 30
0.0
 11
378.6
 21
534.904
 31
0.0
  0
LINE
  5
495
330
1E
100
AcDbEntity
  8
0
100
AcDbLine
 10
371.8999999999999
 20
534.904
 30
0.0
 11
375.4999999999999
 21
534.904
 31
0.0
  0
LINE
  5
496
330
1E
100
AcDbEntity
  8
0
100
AcDbLine
 10
368.0
 20
534.904
 30
0.0
 11
371.8999999999999
 21
534.904
 31
0.0
  0
LINE
  5
497
330
1E
100
AcDbEntity
  8
0
100
AcDbLine
 10
364.1
 20
534.904
 30
0.0
 11
368.0
 21
534.904
 31
0.0
  0
LINE
  5
498
330
1E
100
AcDbEntity
  8
0
100
AcDbLine
 10
382.5
 20
524.3079999999999
 30
0.0
 11
383.0
 21
525.9809999999999
 31
0.0
  0
LINE
  5
499
330
1E
100
AcDbEntity
  8
0
100
AcDbLine
 10
383.0
 20
525.9809999999999
 30
0.0
 11
383.0
 21
534.904
 31
0.0
  0
LINE
  5
49A
330
1E
100
AcDbEntity
  8
0
100
AcDbLine
 10
383.0
 20
534.904
 30
0.0
 11
384.0
 21
536.019
 31
0.0
  0
LINE
  5
49B
330
1E
100
AcDbEntity
  8
0
100
AcDbLine
 10
383.0
 20
534.904
 30
0.0
 11
383.0
 21
525.9809999999999
 31
0.0
  0
LINE
  5
49C
330
1E
100
AcDbEntity
  8
0
100
AcDbLine
 10
353.5
 20
524.3079999999999
 30
0.0
 11
355.0
 21
523.7499999999999
 31
0.0
  0
LINE
  5
49D
330
1E
100
AcDbEntity
  8
0
100
AcDbLine
 10
353.5
 20
524.3079999999999
 30
0.0
 11
354.0
 21
524.3079999999999
 31
0.0
  0
LINE
  5
49E
330
1E
100
AcDbEntity
  8
0
100
AcDbLine
 10
355.0
 20
523.7499999999999
 30
0.0
 11
355.5
 21
523.7499999999999
 31
0.0
  0
LINE
  5
49F
330
1E
100
AcDbEntity
  8
0
100
AcDbLine
 10
353.0
 20
525.9809999999999
 30
0.0
 11
353.5
 21
524.3079999999999
 31
0.0
  0
LINE
  5
4A0
330
1E
100
AcDbEntity
  8
0
100
AcDbLine
 10
353.0
 20
525.9809999999999
 30
0.0
 11
353.0
 21
534.904
 31
0.0
  0
LINE
  5
4A1
330
1E
100
AcDbEntity
  8
0
100
AcDbLine
 10
352.8
 20
536.577
 30
0.0
 11
355.6
 21
536.577
 31
0.0
  0
LINE
  5
4A2
330
1E
100
AcDbEntity
  8
0
100
AcDbLine
 10
355.6
 20
536.577
 30
0.0
 11
359.2999999999999
 21
536.577
 31
0.0
  0
LINE
  5
4A3
330
1E
100
AcDbEntity
  8
0
100
AcDbLine
 10
359.2999999999999
 20
536.577
 30
0.0
 11
363.5
 21
536.577
 31
0.0
  0
LINE
  5
4A4
330
1E
100
AcDbEntity
  8
0
100
AcDbLine
 10
380.3999999999999
 20
536.577
 30
0.0
 11
383.1999999999999
 21
536.577
 31
0.0
  0
LINE
  5
4A5
330
1E
100
AcDbEntity
  8
0
100
AcDbLine
 10
383.1999999999999
 20
536.577
 30
0.0
 11
384.8999999999999
 21
536.577
 31
0.0
  0
LINE
  5
4A6
330
1E
100
AcDbEntity
  8
0
100
AcDbLine
 10
384.8999999999999
 20
536.577
 30
0.0
 11
385.5
 21
536.577
 31
0.0
  0
LINE
  5
4A7
330
1E
100
AcDbEntity
  8
0
100
AcDbLine
 10
376.6999999999999
 20
536.577
 30
0.0
 11
380.3999999999999
 21
536.577
 31
0.0
  0
LINE
  5
4A8
330
1E
100
AcDbEntity
  8
0
100
AcDbLine
 10
372.5
 20
536.577
 30
0.0
 11
376.6999999999999
 21
536.577
 31
0.0
  0
LINE
  5
4A9
330
1E
100
AcDbEntity
  8
0
100
AcDbLine
 10
368.0
 20
536.577
 30
0.0
 11
372.5
 21
536.577
 31
0.0
  0
LINE
  5
4AA
330
1E
100
AcDbEntity
  8
0
100
AcDbLine
 10
363.5
 20
536.577
 30
0.0
 11
368.0
 21
536.577
 31
0.0
  0
LINE
  5
4AB
330
1E
100
AcDbEntity
  8
0
100
AcDbLine
 10
384.0
 20
536.019
 30
0.0
 11
385.5
 21
536.577
 31
0.0
  0
LINE
  5
4AC
330
1E
100
AcDbEntity
  8
0
100
AcDbLine
 10
385.5
 20
536.577
 30
0.0
 11
386.0
 21
538.25
 31
0.0
  0
LINE
  5
4AD
330
1E
100
AcDbEntity
  8
0
100
AcDbLine
 10
353.0
 20
534.904
 30
0.0
 11
353.0
 21
525.9809999999999
 31
0.0
  0
LINE
  5
4AE
330
1E
100
AcDbEntity
  8
0
100
AcDbLine
 10
353.0
 20
534.904
 30
0.0
 11
353.5
 21
534.904
 31
0.0
  0
LINE
  5
4AF
330
1E
100
AcDbEntity
  8
0
100
AcDbLine
 10
352.0
 20
536.019
 30
0.0
 11
353.0
 21
534.904
 31
0.0
  0
LINE
  5
4B0
330
1E
100
AcDbEntity
  8
0
100
AcDbLine
 10
386.0
 20
538.25
 30
0.0
 11
386.0
 21
539.365
 31
0.0
  0
LINE
  5
4B1
330
1E
100
AcDbEntity
  8
0
100
AcDbLine
 10
386.0
 20
539.365
 30
0.0
 11
387.5
 21
543.827
 31
0.0
  0
LINE
  5
4B2
330
1E
100
AcDbEntity
  8
0
100
AcDbLine
 10
386.0
 20
539.365
 30
0.0
 11
386.0
 21
538.25
 31
0.0
  0
LINE
  5
4B3
330
1E
100
AcDbEntity
  8
0
100
AcDbLine
 10
350.4999999999999
 20
536.577
 30
0.0
 11
352.0
 21
536.019
 31
0.0
  0
LINE
  5
4B4
330
1E
100
AcDbEntity
  8
0
100
AcDbLine
 10
350.4999999999999
 20
536.577
 30
0.0
 11
351.1
 21
536.577
 31
0.0
  0
LINE
  5
4B5
330
1E
100
AcDbEntity
  8
0
100
AcDbLine
 10
350.0
 20
538.25
 30
0.0
 11
350.4999999999999
 21
536.577
 31
0.0
  0
LINE
  5
4B6
330
1E
100
AcDbEntity
  8
0
100
AcDbLine
 10
350.0
 20
538.25
 30
0.0
 11
350.0
 21
539.365
 31
0.0
  0
LINE
  5
4B7
330
1E
100
AcDbEntity
  8
0
100
AcDbLine
 10
387.5
 20
543.827
 30
0.0
 11
390.5
 21
547.731
 31
0.0
  0
LINE
  5
4B8
330
1E
100
AcDbEntity
  8
0
100
AcDbLine
 10
350.0
 20
539.365
 30
0.0
 11
350.0
 21
538.25
 31
0.0
  0
LINE
  5
4B9
330
1E
100
AcDbEntity
  8
0
100
AcDbLine
 10
348.4999999999999
 20
543.827
 30
0.0
 11
350.0
 21
539.365
 31
0.0
  0
LINE
  5
4BA
330
1E
100
AcDbEntity
  8
0
100
AcDbLine
 10
228.9789999999999
 20
516.9780000000001
 30
0.0
 11
244.519
 21
515.413
 31
0.0
  0
LINE
  5
4BB
330
1E
100
AcDbEntity
  8
0
100
AcDbLine
 10
222.462
 20
544.7499999999999
 30
0.0
 11
223.4109999999999
 21
544.7499999999999
 31
0.0
  0
LINE
  5
4BC
330
1E
100
AcDbEntity
  8
0
100
AcDbLine
 10
223.4109999999999
 20
544.7499999999999
 30
0.0
 11
228.5169999999999
 21
548.1319999999999
 31
0.0
  0
LINE
  5
4BD
330
1E
100
AcDbEntity
  8
0
100
AcDbLine
 10
219.679
 20
544.7499999999999
 30
0.0
 11
220.5
 21
544.7499999999999
 31
0.0
  0
LINE
  5
4BE
330
1E
100
AcDbEntity
  8
0
100
AcDbLine
 10
220.5
 20
511.568
 30
0.0
 11
220.5
 21
544.7499999999999
 31
0.0
  0
LINE
  5
4BF
330
1E
100
AcDbEntity
  8
0
100
AcDbLine
 10
208.918
 20
544.7499999999999
 30
0.0
 11
213.764
 21
544.7499999999999
 31
0.0
  0
LINE
  5
4C0
330
1E
100
AcDbEntity
  8
0
100
AcDbLine
 10
203.414
 20
544.7499999999999
 30
0.0
 11
208.918
 21
544.7499999999999
 31
0.0
  0
LINE
  5
4C1
330
1E
100
AcDbEntity
  8
0
100
AcDbLine
 10
197.5
 20
544.7499999999999
 30
0.0
 11
203.414
 21
544.7499999999999
 31
0.0
  0
LINE
  5
4C2
330
1E
100
AcDbEntity
  8
0
100
AcDbLine
 10
192.588
 20
509.75
 30
0.0
 11
197.5
 21
509.75
 31
0.0
  0
LINE
  5
4C3
330
1E
100
AcDbEntity
  8
0
100
AcDbLine
 10
191.668
 20
510.205
 30
0.0
 11
197.5
 21
510.205
 31
0.0
  0
LINE
  5
4C4
330
1E
100
AcDbEntity
  8
0
100
AcDbLine
 10
197.5
 20
552.7499999999999
 30
0.0
 11
206.472
 21
552.7499999999999
 31
0.0
  0
LINE
  5
4C5
330
1E
100
AcDbEntity
  8
0
100
AcDbLine
 10
206.472
 20
552.7499999999999
 30
0.0
 11
214.909
 21
552.7499999999999
 31
0.0
  0
LINE
  5
4C6
330
1E
100
AcDbEntity
  8
0
100
AcDbLine
 10
214.909
 20
552.7499999999999
 30
0.0
 11
222.182
 21
552.7499999999999
 31
0.0
  0
LINE
  5
4C7
330
1E
100
AcDbEntity
  8
0
100
AcDbLine
 10
228.5169999999999
 20
548.1319999999999
 30
0.0
 11
232.5
 21
552.7499999999999
 31
0.0
  0
LINE
  5
4C8
330
1E
100
AcDbEntity
  8
0
100
AcDbLine
 10
222.182
 20
552.7499999999999
 30
0.0
 11
227.8259999999999
 21
552.7499999999999
 31
0.0
  0
LINE
  5
4C9
330
1E
100
AcDbEntity
  8
0
100
AcDbLine
 10
227.8259999999999
 20
552.7499999999999
 30
0.0
 11
231.2459999999999
 21
552.7499999999999
 31
0.0
  0
LINE
  5
4CA
330
1E
100
AcDbEntity
  8
0
100
AcDbLine
 10
342.5
 20
549.961
 30
0.0
 11
345.0
 21
549.961
 31
0.0
  0
LINE
  5
4CB
330
1E
100
AcDbEntity
  8
0
100
AcDbLine
 10
390.5
 20
547.731
 30
0.0
 11
393.0
 21
549.404
 31
0.0
  0
LINE
  5
4CC
330
1E
100
AcDbEntity
  8
0
100
AcDbLine
 10
345.0
 20
549.961
 30
0.0
 11
349.3
 21
549.961
 31
0.0
  0
LINE
  5
4CD
330
1E
100
AcDbEntity
  8
0
100
AcDbLine
 10
349.3
 20
549.961
 30
0.0
 11
354.8
 21
549.961
 31
0.0
  0
LINE
  5
4CE
330
1E
100
AcDbEntity
  8
0
100
AcDbLine
 10
354.8
 20
549.961
 30
0.0
 11
361.2
 21
549.961
 31
0.0
  0
LINE
  5
4CF
330
1E
100
AcDbEntity
  8
0
100
AcDbLine
 10
386.6999999999999
 20
549.961
 30
0.0
 11
391.0
 21
549.961
 31
0.0
  0
LINE
  5
4D0
330
1E
100
AcDbEntity
  8
0
100
AcDbLine
 10
391.0
 20
549.961
 30
0.0
 11
393.5
 21
549.961
 31
0.0
  0
LINE
  5
4D1
330
1E
100
AcDbEntity
  8
0
100
AcDbLine
 10
393.5
 20
549.961
 30
0.0
 11
394.5
 21
549.961
 31
0.0
  0
LINE
  5
4D2
330
1E
100
AcDbEntity
  8
0
100
AcDbLine
 10
381.1999999999999
 20
549.961
 30
0.0
 11
386.6999999999999
 21
549.961
 31
0.0
  0
LINE
  5
4D3
330
1E
100
AcDbEntity
  8
0
100
AcDbLine
 10
374.8
 20
549.961
 30
0.0
 11
381.1999999999999
 21
549.961
 31
0.0
  0
LINE
  5
4D4
330
1E
100
AcDbEntity
  8
0
100
AcDbLine
 10
368.0
 20
549.961
 30
0.0
 11
374.8
 21
549.961
 31
0.0
  0
LINE
  5
4D5
330
1E
100
AcDbEntity
  8
0
100
AcDbLine
 10
361.2
 20
549.961
 30
0.0
 11
368.0
 21
549.961
 31
0.0
  0
LINE
  5
4D6
330
1E
100
AcDbEntity
  8
0
100
AcDbLine
 10
393.0
 20
549.404
 30
0.0
 11
394.5
 21
549.961
 31
0.0
  0
LINE
  5
4D7
330
1E
100
AcDbEntity
  8
0
100
AcDbLine
 10
394.5
 20
549.961
 30
0.0
 11
395.0
 21
551.635
 31
0.0
  0
LINE
  5
4D8
330
1E
100
AcDbEntity
  8
0
100
AcDbLine
 10
345.5
 20
547.731
 30
0.0
 11
348.4999999999999
 21
543.827
 31
0.0
  0
LINE
  5
4D9
330
1E
100
AcDbEntity
  8
0
100
AcDbLine
 10
343.0
 20
549.404
 30
0.0
 11
345.5
 21
547.731
 31
0.0
  0
LINE
  5
4DA
330
1E
100
AcDbEntity
  8
0
100
AcDbLine
 10
344.6
 20
552.7499999999999
 30
0.0
 11
348.8999999999999
 21
552.7499999999999
 31
0.0
  0
LINE
  5
4DB
330
1E
100
AcDbEntity
  8
0
100
AcDbLine
 10
342.0
 20
552.7499999999999
 30
0.0
 11
344.6
 21
552.7499999999999
 31
0.0
  0
LINE
  5
4DC
330
1E
100
AcDbEntity
  8
0
100
AcDbLine
 10
348.8999999999999
 20
552.7499999999999
 30
0.0
 11
354.6
 21
552.7499999999999
 31
0.0
  0
LINE
  5
4DD
330
1E
100
AcDbEntity
  8
0
100
AcDbLine
 10
387.1
 20
552.7499999999999
 30
0.0
 11
391.3999999999999
 21
552.7499999999999
 31
0.0
  0
LINE
  5
4DE
330
1E
100
AcDbEntity
  8
0
100
AcDbLine
 10
391.3999999999999
 20
552.7499999999999
 30
0.0
 11
394.0
 21
552.7499999999999
 31
0.0
  0
LINE
  5
4DF
330
1E
100
AcDbEntity
  8
0
100
AcDbLine
 10
395.0
 20
552.7499999999999
 30
0.0
 11
395.0
 21
551.635
 31
0.0
  0
LINE
  5
4E0
330
1E
100
AcDbEntity
  8
0
100
AcDbLine
 10
394.0
 20
552.7499999999999
 30
0.0
 11
395.0
 21
552.7499999999999
 31
0.0
  0
LINE
  5
4E1
330
1E
100
AcDbEntity
  8
0
100
AcDbLine
 10
381.4
 20
552.7499999999999
 30
0.0
 11
387.1
 21
552.7499999999999
 31
0.0
  0
LINE
  5
4E2
330
1E
100
AcDbEntity
  8
0
100
AcDbLine
 10
374.8999999999999
 20
552.7499999999999
 30
0.0
 11
381.4
 21
552.7499999999999
 31
0.0
  0
LINE
  5
4E3
330
1E
100
AcDbEntity
  8
0
100
AcDbLine
 10
368.0
 20
552.7499999999999
 30
0.0
 11
374.8999999999999
 21
552.7499999999999
 31
0.0
  0
LINE
  5
4E4
330
1E
100
AcDbEntity
  8
0
100
AcDbLine
 10
354.6
 20
552.7499999999999
 30
0.0
 11
361.1
 21
552.7499999999999
 31
0.0
  0
LINE
  5
4E5
330
1E
100
AcDbEntity
  8
0
100
AcDbLine
 10
361.1
 20
552.7499999999999
 30
0.0
 11
368.0
 21
552.7499999999999
 31
0.0
  0
LINE
  5
4E6
330
1E
100
AcDbEntity
  8
0
100
AcDbLine
 10
395.0
 20
551.635
 30
0.0
 11
395.0
 21
552.7499999999999
 31
0.0
  0
LINE
  5
4E7
330
1E
100
AcDbEntity
  8
0
100
AcDbLine
 10
341.5
 20
549.961
 30
0.0
 11
343.0
 21
549.404
 31
0.0
  0
LINE
  5
4E8
330
1E
100
AcDbEntity
  8
0
100
AcDbLine
 10
341.5
 20
549.961
 30
0.0
 11
342.5
 21
549.961
 31
0.0
  0
LINE
  5
4E9
330
1E
100
AcDbEntity
  8
0
100
AcDbLine
 10
341.0
 20
551.635
 30
0.0
 11
341.5
 21
549.961
 31
0.0
  0
LINE
  5
4EA
330
1E
100
AcDbEntity
  8
0
100
AcDbLine
 10
341.0
 20
551.635
 30
0.0
 11
341.0
 21
552.7499999999999
 31
0.0
  0
LINE
  5
4EB
330
1E
100
AcDbEntity
  8
0
100
AcDbLine
 10
341.0
 20
552.7499999999999
 30
0.0
 11
341.0
 21
551.635
 31
0.0
  0
LINE
  5
4EC
330
1E
100
AcDbEntity
  8
0
100
AcDbLine
 10
341.0
 20
552.7499999999999
 30
0.0
 11
342.0
 21
552.7499999999999
 31
0.0
  0
LINE
  5
4ED
330
1E
100
AcDbEntity
  8
0
100
AcDbLine
 10
231.2459999999999
 20
552.7499999999999
 30
0.0
 11
232.5
 21
552.7499999999999
 31
0.0
  0
LINE
  5
4EE
330
1E
100
AcDbEntity
  8
0
100
AcDbLine
 10
191.5859999999999
 20
544.7499999999999
 30
0.0
 11
197.5
 21
544.7499999999999
 31
0.0
  0
LINE
  5
4EF
330
1E
100
AcDbEntity
  8
0
100
AcDbLine
 10
188.5279999999999
 20
552.7499999999999
 30
0.0
 11
197.5
 21
552.7499999999999
 31
0.0
  0
LINE
  5
4F0
330
1E
100
AcDbEntity
  8
0
100
AcDbLine
 10
180.0909999999999
 20
552.7499999999999
 30
0.0
 11
188.5279999999999
 21
552.7499999999999
 31
0.0
  0
LINE
  5
4F1
330
1E
100
AcDbEntity
  8
0
100
AcDbLine
 10
172.8179999999999
 20
552.7499999999999
 30
0.0
 11
180.0909999999999
 21
552.7499999999999
 31
0.0
  0
LINE
  5
4F2
330
1E
100
AcDbEntity
  8
0
100
AcDbLine
 10
167.1739999999999
 20
552.7499999999999
 30
0.0
 11
172.8179999999999
 21
552.7499999999999
 31
0.0
  0
LINE
  5
4F3
330
1E
100
AcDbEntity
  8
0
100
AcDbLine
 10
163.7539999999999
 20
552.7499999999999
 30
0.0
 11
167.1739999999999
 21
552.7499999999999
 31
0.0
  0
LINE
  5
4F4
330
1E
100
AcDbEntity
  8
0
100
AcDbLine
 10
162.5
 20
552.7499999999999
 30
0.0
 11
163.7539999999999
 21
552.7499999999999
 31
0.0
  0
LINE
  5
4F5
330
1E
100
AcDbEntity
  8
0
100
AcDbLine
 10
162.5
 20
552.7499999999999
 30
0.0
 11
166.483
 21
548.1319999999999
 31
0.0
  0
LINE
  5
4F6
330
1E
100
AcDbEntity
  8
0
100
AcDbLine
 10
159.4999999999999
 20
552.7499999999999
 30
0.0
 11
159.4999999999999
 21
542.75
 31
0.0
  0
LINE
  5
4F7
330
1E
100
AcDbEntity
  8
0
100
AcDbLine
 10
92.5
 20
472.75
 30
0.0
 11
93.59999999999999
 21
472.75
 31
0.0
  0
LINE
  5
4F8
330
1E
100
AcDbEntity
  8
0
100
AcDbLine
 10
85.5
 20
491.75
 30
0.0
 11
85.5
 21
542.75
 31
0.0
  0
LINE
  5
4F9
330
1E
100
AcDbEntity
  8
0
100
AcDbLine
 10
85.5
 20
491.75
 30
0.0
 11
86.5
 21
490.7499999999999
 31
0.0
  0
LINE
  5
4FA
330
1E
100
AcDbEntity
  8
0
100
AcDbLine
 10
85.5
 20
491.75
 30
0.0
 11
86.79999999999999
 21
491.75
 31
0.0
  0
LINE
  5
4FF
330
1E
100
AcDbEntity
  8
0
100
AcDbLine
 10
209.0399999999999
 20
36.20969999999999
 30
0.0
 11
228.535
 21
61.76339999999999
 31
0.0
  0
LINE
  5
500
330
1E
100
AcDbEntity
  8
0
100
AcDbLine
 10
154.113
 20
4.728499999999969
 30
0.0
 11
122.5
 21
0.249999999999974
 31
0.0
  0
LINE
  5
501
330
1E
100
AcDbEntity
  8
0
100
AcDbLine
 10
125.0999999999999
 20
113.15
 30
0.0
 11
127.5
 21
114.05
 31
0.0
  0
LINE
  5
502
330
1E
100
AcDbEntity
  8
0
100
AcDbLine
 10
119.9
 20
113.15
 30
0.0
 11
117.295583127634
 21
114.0529482412012
 31
0.0
  0
LINE
  5
503
330
1E
100
AcDbEntity
  8
0
100
AcDbLine
 10
117.295583127634
 20
114.0529482412012
 30
0.0
 11
115.1576593229842
 21
115.4009814360567
 31
0.0
  0
LINE
  5
504
330
1E
100
AcDbEntity
  8
0
100
AcDbLine
 10
115.1576593229842
 20
115.4009814360567
 30
0.0
 11
113.4778610858438
 21
117.4611833802482
 31
0.0
  0
LINE
  5
505
330
1E
100
AcDbEntity
  8
0
100
AcDbLine
 10
113.4778610858438
 20
117.4611833802482
 30
0.0
 11
112.9
 21
120.15
 31
0.0
  0
LINE
  5
506
330
1E
100
AcDbEntity
  8
0
100
AcDbLine
 10
-0.0000000000000095
 20
122.75
 30
0.0
 11
4.4785
 21
154.363
 31
0.0
  0
LINE
  5
507
330
1E
100
AcDbEntity
  8
0
100
AcDbLine
 10
240.5209999999999
 20
154.363
 30
0.0
 11
230.8487754039483
 21
180.7211935446812
 31
0.0
  0
LINE
  5
508
330
1E
100
AcDbEntity
  8
0
100
AcDbLine
 10
230.8487754039483
 20
180.7211935446812
 30
0.0
 11
214.3220334093571
 21
205.0091016831101
 31
0.0
  0
LINE
  5
509
330
1E
100
AcDbEntity
  8
0
100
AcDbLine
 10
214.3220334093571
 20
205.0091016831101
 30
0.0
 11
198.1841576436172
 21
218.8046333398165
 31
0.0
  0
LINE
  5
50A
330
1E
100
AcDbEntity
  8
0
100
AcDbLine
 10
198.1841576436172
 20
218.8046333398165
 30
0.0
 11
183.487
 21
228.785
 31
0.0
  0
ENDSEC
  0
SECTION
  2
OBJECTS
  0
DICTIONARY
  5
C
330
0
100
AcDbDictionary
281
     1
  3
ACAD_GROUP
350
D
  3
ACAD_LAYOUT
350
19
  3
ACAD_MLINESTYLE
350
16
  3
ACAD_PLOTSETTINGS
350
18
  3
ACAD_PLOTSTYLENAME
350
E
  3
AcDbVariableDictionary
350
50B
  0
DICTIONARY
  5
D
102
{ACAD_REACTORS
330
C
102
}
330
C
100
AcDbDictionary
281
     1
  0
DICTIONARY
  5
19
102
{ACAD_REACTORS
330
C
102
}
330
C
100
AcDbDictionary
281
     1
  3
Layout1
350
1D
  3
Model
350
21
  0
DICTIONARY
  5
16
102
{ACAD_REACTORS
330
C
102
}
330
C
100
AcDbDictionary
281
     1
  3
Standard
350
17
  0
DICTIONARY
  5
18
102
{ACAD_REACTORS
330
C
102
}
330
C
100
AcDbDictionary
281
     1
  0
ACDBDICTIONARYWDFLT
  5
E
102
{ACAD_REACTORS
330
C
102
}
330
C
100
AcDbDictionary
281
     1
  3
Normal
350
F
100
AcDbDictionaryWithDefault
340
F
  0
DICTIONARY
  5
50B
102
{ACAD_REACTORS
330
C
102
}
330
C
100
AcDbDictionary
281
     1
  3
DIMASSOC
350
50C
  0
LAYOUT
  5
1D
102
{ACAD_REACTORS
330
19
102
}
330
19
100
AcDbPlotSettings
  1

  2
hp deskjet 980c series
  4

  6

 40
0.0
 41
0.0
 42
0.0
 43
0.0
 44
0.0
 45
0.0
 46
0.0
 47
0.0
 48
0.0
 49
0.0
140
0.0
141
0.0
142
1.0
143
1.0
 70
   688
 72
     0
 73
     0
 74
     5
  7

 75
    16
147
1.0
148
0.0
149
0.0
100
AcDbLayout
  1
Layout1
 70
     1
 71
     1
 10
0.0
 20
0.0
 11
12.0
 21
9.0
 12
0.0
 22
0.0
 32
0.0
 14
1.000000000000000E+20
 24
1.000000000000000E+20
 34
1.000000000000000E+20
 15
-1.000000000000000E+20
 25
-1.000000000000000E+20
 35
-1.000000000000000E+20
146
0.0
 13
0.0
 23
0.0
 33
0.0
 16
1.0
 26
0.0
 36
0.0
 17
0.0
 27
1.0
 37
0.0
 76
     0
330
1A
  0
LAYOUT
  5
21
102
{ACAD_REACTORS
330
19
102
}
330
19
100
AcDbPlotSettings
  1

  2
hp deskjet 980c series
  4

  6

 40
0.0
 41
0.0
 42
0.0
 43
0.0
 44
0.0
 45
0.0
 46
0.0
 47
0.0
 48
0.0
 49
0.0
140
0.0
141
0.0
142
1.0
143
1.0
 70
  1712
 72
     0
 73
     0
 74
     0
  7

 75
     0
147
1.0
148
0.0
149
0.0
100
AcDbLayout
  1
Model
 70
     1
 71
     0
 10
0.0
 20
0.0
 11
12.0
 21
9.0
 12
0.0
 22
0.0
 32
0.0
 14
0.0
 24
0.0
 34
0.0
 15
0.0
 25
0.0
 35
0.0
146
0.0
 13
0.0
 23
0.0
 33
0.0
 16
1.0
 26
0.0
 36
0.0
 17
0.0
 27
1.0
 37
0.0
 76
     0
330
1E
  0
MLINESTYLE
  5
17
102
{ACAD_REACTORS
330
16
102
}
330
16
100
AcDbMlineStyle
  2
STANDARD
 70
     0
  3

 62
   256
 51
90.0
 52
90.0
 71
     2
 49
0.5
 62
   256
  6
BYLAYER
 49
-0.5
 62
   256
  6
BYLAYER
  0
ACDBPLACEHOLDER
  5
F
102
{ACAD_REACTORS
330
E
102
}
330
E
  0
DICTIONARYVAR
  5
50C
102
{ACAD_REACTORS
330
50B
102
}
330
50B
100
DictionaryVariables
280
     0
  1
1
  0
ENDSEC
  0
EOF
