  0
SECTION
  2
HEADER
  9
$ACADVER
  1
AC1014
  9
$ACADMAINTVER
 70
     9
  9
$DWGCODEPAGE
  3
ANSI_1252
  9
$INSBASE
 10
0.0
 20
0.0
 30
0.0
  9
$EXTMIN
 10
0.0000000000000169
 20
-0.0000000000000215
 30
0.0
  9
$EXTMAX
 10
212.0
 20
318.0
 30
0.0
  9
$LIMMIN
 10
0.0
 20
0.0
  9
$LIMMAX
 10
12.0
 20
9.0
  9
$ORTHOMODE
 70
     0
  9
$REGENMODE
 70
     1
  9
$FILLMODE
 70
     1
  9
$QTEXTMODE
 70
     0
  9
$MIRRTEXT
 70
     1
  9
$DRAGMODE
 70
     2
  9
$LTSCALE
 40
1.0
  9
$OSMODE
 70
    37
  9
$ATTMODE
 70
     1
  9
$TEXTSIZE
 40
0.2
  9
$TRACEWID
 40
0.05
  9
$TEXTSTYLE
  7
STANDARD
  9
$CLAYER
  8
0
  9
$CELTYPE
  6
CONTINUOUS
  9
$CECOLOR
 62
   256
  9
$CELTSCALE
 40
1.0
  9
$DELOBJ
 70
     1
  9
$DISPSILH
 70
     0
  9
$DIMSCALE
 40
1.0
  9
$DIMASZ
 40
0.18
  9
$DIMEXO
 40
0.0625
  9
$DIMDLI
 40
0.38
  9
$DIMRND
 40
0.0
  9
$DIMDLE
 40
0.0
  9
$DIMEXE
 40
0.18
  9
$DIMTP
 40
0.0
  9
$DIMTM
 40
0.0
  9
$DIMTXT
 40
0.18
  9
$DIMCEN
 40
0.09
  9
$DIMTSZ
 40
0.0
  9
$DIMTOL
 70
     0
  9
$DIMLIM
 70
     0
  9
$DIMTIH
 70
     1
  9
$DIMTOH
 70
     1
  9
$DIMSE1
 70
     0
  9
$DIMSE2
 70
     0
  9
$DIMTAD
 70
     0
  9
$DIMZIN
 70
     0
  9
$DIMBLK
  1

  9
$DIMASO
 70
     1
  9
$DIMSHO
 70
     1
  9
$DIMPOST
  1

  9
$DIMAPOST
  1

  9
$DIMALT
 70
     0
  9
$DIMALTD
 70
     2
  9
$DIMALTF
 40
25.4
  9
$DIMLFAC
 40
1.0
  9
$DIMTOFL
 70
     0
  9
$DIMTVP
 40
0.0
  9
$DIMTIX
 70
     0
  9
$DIMSOXD
 70
     0
  9
$DIMSAH
 70
     0
  9
$DIMBLK1
  1

  9
$DIMBLK2
  1

  9
$DIMSTYLE
  2
STANDARD
  9
$DIMCLRD
 70
     0
  9
$DIMCLRE
 70
     0
  9
$DIMCLRT
 70
     0
  9
$DIMTFAC
 40
1.0
  9
$DIMGAP
 40
0.09
  9
$DIMJUST
 70
     0
  9
$DIMSD1
 70
     0
  9
$DIMSD2
 70
     0
  9
$DIMTOLJ
 70
     1
  9
$DIMTZIN
 70
     0
  9
$DIMALTZ
 70
     0
  9
$DIMALTTZ
 70
     0
  9
$DIMFIT
 70
     3
  9
$DIMUPT
 70
     0
  9
$DIMUNIT
 70
     2
  9
$DIMDEC
 70
     4
  9
$DIMTDEC
 70
     4
  9
$DIMALTU
 70
     2
  9
$DIMALTTD
 70
     2
  9
$DIMTXSTY
  7
STANDARD
  9
$DIMAUNIT
 70
     0
  9
$LUNITS
 70
     2
  9
$LUPREC
 70
     4
  9
$SKETCHINC
 40
0.1
  9
$FILLETRAD
 40
0.0
  9
$AUNITS
 70
     0
  9
$AUPREC
 70
     0
  9
$MENU
  1
.
  9
$ELEVATION
 40
0.0
  9
$PELEVATION
 40
0.0
  9
$THICKNESS
 40
0.0
  9
$LIMCHECK
 70
     0
  9
$BLIPMODE
 70
     0
  9
$CHAMFERA
 40
0.0
  9
$CHAMFERB
 40
0.0
  9
$CHAMFERC
 40
0.0
  9
$CHAMFERD
 40
0.0
  9
$SKPOLY
 70
     0
  9
$TDCREATE
 40
2454691.852197442
  9
$TDUPDATE
 40
2454691.854273900
  9
$TDINDWG
 40
0.0020766435
  9
$TDUSRTIMER
 40
0.0020766435
  9
$USRTIMER
 70
     1
  9
$ANGBASE
 50
0.0
  9
$ANGDIR
 70
     0
  9
$PDMODE
 70
     0
  9
$PDSIZE
 40
0.0
  9
$PLINEWID
 40
0.0
  9
$COORDS
 70
     1
  9
$SPLFRAME
 70
     0
  9
$SPLINETYPE
 70
     6
  9
$SPLINESEGS
 70
     8
  9
$ATTDIA
 70
     0
  9
$ATTREQ
 70
     1
  9
$HANDLING
 70
 22529
  9
$HANDSEED
  5
1D9
  9
$SURFTAB1
 70
     6
  9
$SURFTAB2
 70
     6
  9
$SURFTYPE
 70
     6
  9
$SURFU
 70
     6
  9
$SURFV
 70
     6
  9
$UCSNAME
  2

  9
$UCSORG
 10
0.0
 20
0.0
 30
0.0
  9
$UCSXDIR
 10
1.0
 20
0.0
 30
0.0
  9
$UCSYDIR
 10
0.0
 20
1.0
 30
0.0
  9
$PUCSNAME
  2

  9
$PUCSORG
 10
0.0
 20
0.0
 30
0.0
  9
$PUCSXDIR
 10
1.0
 20
0.0
 30
0.0
  9
$PUCSYDIR
 10
0.0
 20
1.0
 30
0.0
  9
$USERI1
 70
     0
  9
$USERI2
 70
     0
  9
$USERI3
 70
     0
  9
$USERI4
 70
     0
  9
$USERI5
 70
     0
  9
$USERR1
 40
0.0
  9
$USERR2
 40
0.0
  9
$USERR3
 40
0.0
  9
$USERR4
 40
0.0
  9
$USERR5
 40
0.0
  9
$WORLDVIEW
 70
     1
  9
$SHADEDGE
 70
     3
  9
$SHADEDIF
 70
    70
  9
$TILEMODE
 70
     1
  9
$MAXACTVP
 70
    64
  9
$PINSBASE
 10
0.0
 20
0.0
 30
0.0
  9
$PLIMCHECK
 70
     0
  9
$PEXTMIN
 10
1.000000000000000E+20
 20
1.000000000000000E+20
 30
1.000000000000000E+20
  9
$PEXTMAX
 10
-1.000000000000000E+20
 20
-1.000000000000000E+20
 30
-1.000000000000000E+20
  9
$PLIMMIN
 10
0.0
 20
0.0
  9
$PLIMMAX
 10
12.0
 20
9.0
  9
$UNITMODE
 70
     0
  9
$VISRETAIN
 70
     1
  9
$PLINEGEN
 70
     0
  9
$PSLTSCALE
 70
     1
  9
$TREEDEPTH
 70
  3020
  9
$PICKSTYLE
 70
     1
  9
$CMLSTYLE
  2
STANDARD
  9
$CMLJUST
 70
     0
  9
$CMLSCALE
 40
1.0
  9
$PROXYGRAPHICS
 70
     1
  9
$MEASUREMENT
 70
     0
  0
ENDSEC
  0
SECTION
  2
CLASSES
  0
CLASS
  1
ACDBDICTIONARYWDFLT
  2
AcDbDictionaryWithDefault
  3
AutoCAD 2000
 90
        0
280
     0
281
     0
  0
CLASS
  1
ACDBPLACEHOLDER
  2
AcDbPlaceHolder
  3
AutoCAD 2000
 90
        0
280
     0
281
     0
  0
CLASS
  1
LAYOUT
  2
AcDbLayout
  3
AutoCAD 2000
 90
        0
280
     0
281
     0
  0
CLASS
  1
DICTIONARYVAR
  2
AcDbDictionaryVar
  3
AutoCAD 2000
 90
        0
280
     0
281
     0
  0
CLASS
  1
LONG_TRANSACTION
  2
AcDbLongTransaction
  3
AutoCAD 2000
 90
        0
280
     0
281
     0
  0
CLASS
  1
LWPOLYLINE
  2
AcDbPolyline
  3
AutoCAD 2000
 90
        0
280
     0
281
     1
  0
CLASS
  1
HATCH
  2
AcDbHatch
  3
AutoCAD 2000
 90
        0
280
     0
281
     1
  0
CLASS
  1
XRECORD
  2
AcDbXrecord
  3
AutoCAD 2000
 90
        0
280
     0
281
     0
  0
ENDSEC
  0
SECTION
  2
TABLES
  0
TABLE
  2
VPORT
  5
8
330
0
100
AcDbSymbolTable
 70
     2
  0
VPORT
  5
1B4
330
8
100
AcDbSymbolTableRecord
100
AcDbViewportTableRecord
  2
*ACTIVE
 70
     0
 10
0.0
 20
0.0
 11
1.0
 21
1.0
 12
106.0
 22
158.9999999999999
 13
0.0
 23
0.0
 14
1.0
 24
1.0
 15
0.0
 25
0.0
 16
0.0
 26
0.0
 36
1.0
 17
0.0
 27
0.0
 37
0.0
 40
320.4398976982097
 41
2.078104993597951
 42
50.0
 43
0.0
 44
0.0
 50
0.0
 51
0.0
 71
     0
 72
   100
 73
     1
 74
     3
 75
     0
 76
     0
 77
     0
 78
     0
  0
ENDTAB
  0
TABLE
  2
LTYPE
  5
5
330
0
100
AcDbSymbolTable
 70
     1
  0
LTYPE
  5
13
330
5
100
AcDbSymbolTableRecord
100
AcDbLinetypeTableRecord
  2
BYBLOCK
 70
     0
  3

 72
    65
 73
     0
 40
0.0
  0
LTYPE
  5
14
330
5
100
AcDbSymbolTableRecord
100
AcDbLinetypeTableRecord
  2
BYLAYER
 70
     0
  3

 72
    65
 73
     0
 40
0.0
  0
LTYPE
  5
15
330
5
100
AcDbSymbolTableRecord
100
AcDbLinetypeTableRecord
  2
CONTINUOUS
 70
     0
  3
Solid line
 72
    65
 73
     0
 40
0.0
  0
ENDTAB
  0
TABLE
  2
LAYER
  5
2
330
0
100
AcDbSymbolTable
 70
     1
  0
LAYER
  5
10
330
2
100
AcDbSymbolTableRecord
100
AcDbLayerTableRecord
  2
0
 70
     0
 62
     7
  6
CONTINUOUS
  0
ENDTAB
  0
TABLE
  2
STYLE
  5
3
330
0
100
AcDbSymbolTable
 70
     1
  0
STYLE
  5
11
330
3
100
AcDbSymbolTableRecord
100
AcDbTextStyleTableRecord
  2
STANDARD
 70
     0
 40
0.0
 41
1.0
 50
0.0
 71
     0
 42
0.2
  3
txt
  4

  0
ENDTAB
  0
TABLE
  2
VIEW
  5
6
330
0
100
AcDbSymbolTable
 70
     0
  0
ENDTAB
  0
TABLE
  2
UCS
  5
7
330
0
100
AcDbSymbolTable
 70
     0
  0
ENDTAB
  0
TABLE
  2
APPID
  5
9
330
0
100
AcDbSymbolTable
 70
     1
  0
APPID
  5
12
330
9
100
AcDbSymbolTableRecord
100
AcDbRegAppTableRecord
  2
ACAD
 70
     0
  0
ENDTAB
  0
TABLE
  2
DIMSTYLE
  5
A
330
0
100
AcDbSymbolTable
 70
     1
  0
DIMSTYLE
105
1AE
330
A
100
AcDbSymbolTableRecord
100
AcDbDimStyleTableRecord
  2
STANDARD
 70
     0
  3

  4

  5

  6

  7

 40
1.0
 41
0.18
 42
0.0625
 43
0.38
 44
0.18
 45
0.0
 46
0.0
 47
0.0
 48
0.0
140
0.18
141
0.09
142
0.0
143
25.4
144
1.0
145
0.0
146
1.0
147
0.09
 71
     0
 72
     0
 73
     1
 74
     1
 75
     0
 76
     0
 77
     0
 78
     0
170
     0
171
     2
172
     0
173
     0
174
     0
175
     0
176
     0
177
     0
178
     0
270
     2
271
     4
272
     4
273
     2
274
     2
340
11
275
     0
280
     0
281
     0
282
     0
283
     1
284
     0
285
     0
286
     0
287
     3
288
     0
  0
ENDTAB
  0
TABLE
  2
BLOCK_RECORD
  5
1
330
0
100
AcDbSymbolTable
 70
     0
  0
BLOCK_RECORD
  5
1E
102
{ACAD_XDICTIONARY
360
1D7
102
}
330
1
100
AcDbSymbolTableRecord
100
AcDbBlockTableRecord
  2
*MODEL_SPACE
  0
BLOCK_RECORD
  5
1A
102
{ACAD_XDICTIONARY
360
1D5
102
}
330
1
100
AcDbSymbolTableRecord
100
AcDbBlockTableRecord
  2
*PAPER_SPACE
  0
ENDTAB
  0
ENDSEC
  0
SECTION
  2
BLOCKS
  0
BLOCK
  5
1F
330
1E
100
AcDbEntity
  8
0
100
AcDbBlockBegin
  2
*MODEL_SPACE
 70
     0
 10
0.0
 20
0.0
 30
0.0
  3
*MODEL_SPACE
  1

  0
ENDBLK
  5
20
330
1E
100
AcDbEntity
  8
0
100
AcDbBlockEnd
  0
BLOCK
  5
1B
330
1A
100
AcDbEntity
 67
     1
  8
0
100
AcDbBlockBegin
  2
*PAPER_SPACE
 70
     0
 10
0.0
 20
0.0
 30
0.0
  3
*PAPER_SPACE
  1

  0
ENDBLK
  5
1C
330
1A
100
AcDbEntity
 67
     1
  8
0
100
AcDbBlockEnd
  0
ENDSEC
  0
SECTION
  2
ENTITIES
  0
LINE
  5
22
330
1E
100
AcDbEntity
  8
0
100
AcDbLine
 10
158.4999999999999
 20
2.999999999999979
 30
0.0
 11
159.4999999999999
 21
2.999999999999979
 31
0.0
  0
LINE
  5
23
330
1E
100
AcDbEntity
  8
0
100
AcDbLine
 10
158.0
 20
2.49999999999998
 30
0.0
 11
158.0
 21
-0.0000000000000182
 31
0.0
  0
LINE
  5
24
330
1E
100
AcDbEntity
  8
0
100
AcDbLine
 10
158.0
 20
2.49999999999998
 30
0.0
 11
159.0
 21
2.49999999999998
 31
0.0
  0
LINE
  5
25
330
1E
100
AcDbEntity
  8
0
100
AcDbLine
 10
158.0
 20
2.49999999999998
 30
0.0
 11
158.4999999999999
 21
2.999999999999979
 31
0.0
  0
LINE
  5
26
330
1E
100
AcDbEntity
  8
0
100
AcDbLine
 10
159.0
 20
2.49999999999998
 30
0.0
 11
161.5999999999999
 21
2.49999999999998
 31
0.0
  0
LINE
  5
27
330
1E
100
AcDbEntity
  8
0
100
AcDbLine
 10
158.0
 20
-0.0000000000000182
 30
0.0
 11
159.0
 21
-0.0000000000000183
 31
0.0
  0
LINE
  5
28
330
1E
100
AcDbEntity
  8
0
100
AcDbLine
 10
158.0
 20
-0.0000000000000182
 30
0.0
 11
158.0
 21
2.49999999999998
 31
0.0
  0
LINE
  5
29
330
1E
100
AcDbEntity
  8
0
100
AcDbLine
 10
159.4999999999999
 20
2.999999999999979
 30
0.0
 11
162.0
 21
2.999999999999979
 31
0.0
  0
LINE
  5
2A
330
1E
100
AcDbEntity
  8
0
100
AcDbLine
 10
163.4999999999999
 20
3.499999999999979
 30
0.0
 11
164.3
 21
3.499999999999979
 31
0.0
  0
LINE
  5
2B
330
1E
100
AcDbEntity
  8
0
100
AcDbLine
 10
163.4999999999999
 20
3.499999999999979
 30
0.0
 11
164.0
 21
4.99999999999998
 31
0.0
  0
LINE
  5
2C
330
1E
100
AcDbEntity
  8
0
100
AcDbLine
 10
162.5
 20
2.999999999999979
 30
0.0
 11
163.4999999999999
 21
3.499999999999979
 31
0.0
  0
LINE
  5
2D
330
1E
100
AcDbEntity
  8
0
100
AcDbLine
 10
164.0
 20
4.99999999999998
 30
0.0
 11
164.0
 21
53.0
 31
0.0
  0
LINE
  5
2E
330
1E
100
AcDbEntity
  8
0
100
AcDbLine
 10
164.3
 20
3.499999999999979
 30
0.0
 11
166.4
 21
3.499999999999979
 31
0.0
  0
LINE
  5
2F
330
1E
100
AcDbEntity
  8
0
100
AcDbLine
 10
162.0
 20
2.999999999999979
 30
0.0
 11
166.3
 21
2.999999999999979
 31
0.0
  0
LINE
  5
30
330
1E
100
AcDbEntity
  8
0
100
AcDbLine
 10
161.5999999999999
 20
2.49999999999998
 30
0.0
 11
166.0
 21
2.49999999999998
 31
0.0
  0
LINE
  5
31
330
1E
100
AcDbEntity
  8
0
100
AcDbLine
 10
159.0
 20
-0.0000000000000183
 30
0.0
 11
161.5999999999999
 21
-0.0000000000000184
 31
0.0
  0
LINE
  5
32
330
1E
100
AcDbEntity
  8
0
100
AcDbLine
 10
161.5999999999999
 20
-0.0000000000000184
 30
0.0
 11
166.0
 21
-0.0000000000000187
 31
0.0
  0
LINE
  5
33
330
1E
100
AcDbEntity
  8
0
100
AcDbLine
 10
164.8
 20
47.6
 30
0.0
 11
166.8
 21
42.6
 31
0.0
  0
LINE
  5
34
330
1E
100
AcDbEntity
  8
0
100
AcDbLine
 10
166.8
 20
42.6
 30
0.0
 11
170.1999999999999
 21
38.2
 31
0.0
  0
LINE
  5
35
330
1E
100
AcDbEntity
  8
0
100
AcDbLine
 10
166.4
 20
3.499999999999979
 30
0.0
 11
169.8
 21
3.499999999999979
 31
0.0
  0
LINE
  5
36
330
1E
100
AcDbEntity
  8
0
100
AcDbLine
 10
166.3
 20
2.999999999999979
 30
0.0
 11
171.8
 21
2.999999999999979
 31
0.0
  0
LINE
  5
37
330
1E
100
AcDbEntity
  8
0
100
AcDbLine
 10
166.0
 20
2.49999999999998
 30
0.0
 11
171.6
 21
2.49999999999998
 31
0.0
  0
LINE
  5
38
330
1E
100
AcDbEntity
  8
0
100
AcDbLine
 10
166.0
 20
-0.0000000000000187
 30
0.0
 11
171.6
 21
-0.0000000000000191
 31
0.0
  0
LINE
  5
39
330
1E
100
AcDbEntity
  8
0
100
AcDbLine
 10
169.1
 20
2.999999999999979
 30
0.0
 11
171.8
 21
2.999999999999979
 31
0.0
  0
LINE
  5
3A
330
1E
100
AcDbEntity
  8
0
100
AcDbLine
 10
170.1999999999999
 20
38.2
 30
0.0
 11
174.5999999999999
 21
34.79999999999999
 31
0.0
  0
LINE
  5
3B
330
1E
100
AcDbEntity
  8
0
100
AcDbLine
 10
169.8
 20
3.499999999999979
 30
0.0
 11
174.3
 21
3.499999999999979
 31
0.0
  0
LINE
  5
3C
330
1E
100
AcDbEntity
  8
0
100
AcDbLine
 10
173.8
 20
2.999999999999979
 30
0.0
 11
179.1999999999999
 21
2.999999999999979
 31
0.0
  0
LINE
  5
3D
330
1E
100
AcDbEntity
  8
0
100
AcDbLine
 10
174.5999999999999
 20
34.79999999999999
 30
0.0
 11
179.6
 21
32.79999999999999
 31
0.0
  0
LINE
  5
3E
330
1E
100
AcDbEntity
  8
0
100
AcDbLine
 10
174.3
 20
3.499999999999979
 30
0.0
 11
179.4999999999999
 21
3.499999999999979
 31
0.0
  0
LINE
  5
3F
330
1E
100
AcDbEntity
  8
0
100
AcDbLine
 10
171.8
 20
2.999999999999979
 30
0.0
 11
178.2
 21
2.999999999999979
 31
0.0
  0
LINE
  5
40
330
1E
100
AcDbEntity
  8
0
100
AcDbLine
 10
171.8
 20
2.999999999999979
 30
0.0
 11
173.8
 21
2.999999999999979
 31
0.0
  0
LINE
  5
41
330
1E
100
AcDbEntity
  8
0
100
AcDbLine
 10
171.6
 20
2.49999999999998
 30
0.0
 11
178.0999999999999
 21
2.49999999999998
 31
0.0
  0
LINE
  5
42
330
1E
100
AcDbEntity
  8
0
100
AcDbLine
 10
171.6
 20
-0.0000000000000191
 30
0.0
 11
178.0999999999999
 21
-0.0000000000000195
 31
0.0
  0
LINE
  5
43
330
1E
100
AcDbEntity
  8
0
100
AcDbLine
 10
178.0999999999999
 20
-0.0000000000000195
 30
0.0
 11
185.0
 21
-0.0000000000000199
 31
0.0
  0
LINE
  5
44
330
1E
100
AcDbEntity
  8
0
100
AcDbLine
 10
179.1999999999999
 20
2.999999999999979
 30
0.0
 11
185.0
 21
2.999999999999979
 31
0.0
  0
LINE
  5
45
330
1E
100
AcDbEntity
  8
0
100
AcDbLine
 10
179.4999999999999
 20
3.499999999999979
 30
0.0
 11
185.0
 21
3.499999999999979
 31
0.0
  0
LINE
  5
46
330
1E
100
AcDbEntity
  8
0
100
AcDbLine
 10
178.2
 20
2.999999999999979
 30
0.0
 11
185.0
 21
2.999999999999979
 31
0.0
  0
LINE
  5
47
330
1E
100
AcDbEntity
  8
0
100
AcDbLine
 10
178.0999999999999
 20
2.49999999999998
 30
0.0
 11
185.0
 21
2.49999999999998
 31
0.0
  0
LINE
  5
48
330
1E
100
AcDbEntity
  8
0
100
AcDbLine
 10
185.0
 20
3.499999999999979
 30
0.0
 11
190.5
 21
3.499999999999979
 31
0.0
  0
LINE
  5
49
330
1E
100
AcDbEntity
  8
0
100
AcDbLine
 10
185.0
 20
2.999999999999979
 30
0.0
 11
191.8
 21
2.999999999999979
 31
0.0
  0
LINE
  5
4A
330
1E
100
AcDbEntity
  8
0
100
AcDbLine
 10
185.0
 20
2.49999999999998
 30
0.0
 11
191.9
 21
2.49999999999998
 31
0.0
  0
LINE
  5
4B
330
1E
100
AcDbEntity
  8
0
100
AcDbLine
 10
185.0
 20
-0.0000000000000199
 30
0.0
 11
191.9
 21
-0.0000000000000203
 31
0.0
  0
LINE
  5
4C
330
1E
100
AcDbEntity
  8
0
100
AcDbLine
 10
185.0
 20
32.45
 30
0.0
 11
189.7249999999999
 21
33.2
 31
0.0
  0
LINE
  5
4E
330
1E
100
AcDbEntity
  8
0
100
AcDbLine
 10
185.0
 20
32.0
 30
0.0
 11
190.4
 21
32.79999999999999
 31
0.0
  0
LINE
  5
4F
330
1E
100
AcDbEntity
  8
0
100
AcDbLine
 10
179.6
 20
32.79999999999999
 30
0.0
 11
185.0
 21
32.0
 31
0.0
  0
LINE
  5
50
330
1E
100
AcDbEntity
  8
0
100
AcDbLine
 10
180.2749999999999
 20
33.2
 30
0.0
 11
185.0
 21
32.45
 31
0.0
  0
LINE
  5
51
330
1E
100
AcDbEntity
  8
0
100
AcDbLine
 10
175.175
 20
35.29999999999999
 30
0.0
 11
180.2749999999999
 21
33.2
 31
0.0
  0
LINE
  5
54
330
1E
100
AcDbEntity
  8
0
100
AcDbLine
 10
170.75
 20
38.75
 30
0.0
 11
175.175
 21
35.29999999999999
 31
0.0
  0
LINE
  5
55
330
1E
100
AcDbEntity
  8
0
100
AcDbLine
 10
167.3
 20
43.17499999999999
 30
0.0
 11
170.75
 21
38.75
 31
0.0
  0
LINE
  5
58
330
1E
100
AcDbEntity
  8
0
100
AcDbLine
 10
165.1999999999999
 20
48.275
 30
0.0
 11
167.3
 21
43.17499999999999
 31
0.0
  0
LINE
  5
5A
330
1E
100
AcDbEntity
  8
0
100
AcDbLine
 10
164.4499999999999
 20
53.0
 30
0.0
 11
165.1999999999999
 21
57.725
 31
0.0
  0
LINE
  5
5B
330
1E
100
AcDbEntity
  8
0
100
AcDbLine
 10
164.4499999999999
 20
53.0
 30
0.0
 11
165.1999999999999
 21
48.275
 31
0.0
  0
LINE
  5
5C
330
1E
100
AcDbEntity
  8
0
100
AcDbLine
 10
164.0
 20
95.0
 30
0.0
 11
164.0
 21
53.0
 31
0.0
  0
LINE
  5
5D
330
1E
100
AcDbEntity
  8
0
100
AcDbLine
 10
164.0
 20
95.0
 30
0.0
 11
164.8
 21
95.0
 31
0.0
  0
LINE
  5
5E
330
1E
100
AcDbEntity
  8
0
100
AcDbLine
 10
164.0
 20
95.0
 30
0.0
 11
165.0
 21
96.0
 31
0.0
  0
LINE
  5
5F
330
1E
100
AcDbEntity
  8
0
100
AcDbLine
 10
164.8
 20
58.39999999999999
 30
0.0
 11
166.8
 21
63.39999999999999
 31
0.0
  0
LINE
  5
60
330
1E
100
AcDbEntity
  8
0
100
AcDbLine
 10
167.3
 20
62.825
 30
0.0
 11
170.75
 21
67.25
 31
0.0
  0
LINE
  5
61
330
1E
100
AcDbEntity
  8
0
100
AcDbLine
 10
165.1999999999999
 20
57.725
 30
0.0
 11
167.3
 21
62.825
 31
0.0
  0
LINE
  5
62
330
1E
100
AcDbEntity
  8
0
100
AcDbLine
 10
166.8
 20
63.39999999999999
 30
0.0
 11
170.1999999999999
 21
67.8
 31
0.0
  0
LINE
  5
63
330
1E
100
AcDbEntity
  8
0
100
AcDbLine
 10
164.8
 20
95.0
 30
0.0
 11
166.8
 21
95.0
 31
0.0
  0
LINE
  5
64
330
1E
100
AcDbEntity
  8
0
100
AcDbLine
 10
165.0
 20
96.0
 30
0.0
 11
165.7
 21
96.0
 31
0.0
  0
LINE
  5
65
330
1E
100
AcDbEntity
  8
0
100
AcDbLine
 10
165.7
 20
96.0
 30
0.0
 11
167.6999999999999
 21
96.0
 31
0.0
  0
LINE
  5
66
330
1E
100
AcDbEntity
  8
0
100
AcDbLine
 10
167.6999999999999
 20
96.0
 30
0.0
 11
170.9
 21
96.0
 31
0.0
  0
LINE
  5
67
330
1E
100
AcDbEntity
  8
0
100
AcDbLine
 10
166.8
 20
95.0
 30
0.0
 11
170.1999999999999
 21
95.0
 31
0.0
  0
LINE
  5
68
330
1E
100
AcDbEntity
  8
0
100
AcDbLine
 10
170.1999999999999
 20
95.0
 30
0.0
 11
173.0
 21
95.0
 31
0.0
  0
LINE
  5
69
330
1E
100
AcDbEntity
  8
0
100
AcDbLine
 10
170.1999999999999
 20
67.8
 30
0.0
 11
173.0
 21
69.96363636363629
 31
0.0
  0
LINE
  5
6A
330
1E
100
AcDbEntity
  8
0
100
AcDbLine
 10
175.939
 20
64.7971
 30
0.0
 11
176.1949999999999
 21
64.7612
 31
0.0
  0
LINE
  5
6B
330
1E
100
AcDbEntity
  8
0
100
AcDbLine
 10
175.699
 20
64.893
 30
0.0
 11
175.939
 21
64.7971
 31
0.0
  0
LINE
  5
6C
330
1E
100
AcDbEntity
  8
0
100
AcDbLine
 10
176.1949999999999
 20
64.7612
 30
0.0
 11
176.451
 21
64.7971
 31
0.0
  0
LINE
  5
6D
330
1E
100
AcDbEntity
  8
0
100
AcDbLine
 10
176.451
 20
64.7971
 30
0.0
 11
176.6909999999999
 21
64.893
 31
0.0
  0
LINE
  5
6E
330
1E
100
AcDbEntity
  8
0
100
AcDbLine
 10
175.4869999999999
 20
65.0528
 30
0.0
 11
175.699
 21
64.893
 31
0.0
  0
LINE
  5
6F
330
1E
100
AcDbEntity
  8
0
100
AcDbLine
 10
175.327
 20
65.2645
 30
0.0
 11
175.4869999999999
 21
65.0528
 31
0.0
  0
LINE
  5
70
330
1E
100
AcDbEntity
  8
0
100
AcDbLine
 10
176.6909999999999
 20
64.893
 30
0.0
 11
176.9029999999999
 21
65.0528
 31
0.0
  0
LINE
  5
71
330
1E
100
AcDbEntity
  8
0
100
AcDbLine
 10
176.9029999999999
 20
65.0528
 30
0.0
 11
177.0629999999999
 21
65.2645
 31
0.0
  0
LINE
  5
72
330
1E
100
AcDbEntity
  8
0
100
AcDbLine
 10
175.231
 20
65.50419999999999
 30
0.0
 11
175.327
 21
65.2645
 31
0.0
  0
LINE
  5
73
330
1E
100
AcDbEntity
  8
0
100
AcDbLine
 10
177.0629999999999
 20
65.2645
 30
0.0
 11
177.159
 21
65.50419999999999
 31
0.0
  0
LINE
  5
74
330
1E
100
AcDbEntity
  8
0
100
AcDbLine
 10
177.159
 20
65.50419999999999
 30
0.0
 11
177.1949999999999
 21
65.7598
 31
0.0
  0
LINE
  5
75
330
1E
100
AcDbEntity
  8
0
100
AcDbLine
 10
177.0629999999999
 20
66.2551
 30
0.0
 11
177.159
 21
66.0155
 31
0.0
  0
LINE
  5
76
330
1E
100
AcDbEntity
  8
0
100
AcDbLine
 10
177.159
 20
66.0155
 30
0.0
 11
177.1949999999999
 21
65.7598
 31
0.0
  0
LINE
  5
77
330
1E
100
AcDbEntity
  8
0
100
AcDbLine
 10
176.6909999999999
 20
66.62659999999999
 30
0.0
 11
176.9029999999999
 21
66.46689999999999
 31
0.0
  0
LINE
  5
78
330
1E
100
AcDbEntity
  8
0
100
AcDbLine
 10
176.9029999999999
 20
66.46689999999999
 30
0.0
 11
177.0629999999999
 21
66.2551
 31
0.0
  0
LINE
  5
79
330
1E
100
AcDbEntity
  8
0
100
AcDbLine
 10
176.1949999999999
 20
66.7585
 30
0.0
 11
176.451
 21
66.7225
 31
0.0
  0
LINE
  5
7A
330
1E
100
AcDbEntity
  8
0
100
AcDbLine
 10
176.451
 20
66.7225
 30
0.0
 11
176.6909999999999
 21
66.62659999999999
 31
0.0
  0
LINE
  5
7B
330
1E
100
AcDbEntity
  8
0
100
AcDbLine
 10
175.939
 20
66.7225
 30
0.0
 11
176.1949999999999
 21
66.7585
 31
0.0
  0
LINE
  5
7C
330
1E
100
AcDbEntity
  8
0
100
AcDbLine
 10
175.699
 20
66.62659999999999
 30
0.0
 11
175.939
 21
66.7225
 31
0.0
  0
LINE
  5
7D
330
1E
100
AcDbEntity
  8
0
100
AcDbLine
 10
175.4869999999999
 20
66.46689999999999
 30
0.0
 11
175.699
 21
66.62659999999999
 31
0.0
  0
LINE
  5
7E
330
1E
100
AcDbEntity
  8
0
100
AcDbLine
 10
175.327
 20
66.2551
 30
0.0
 11
175.4869999999999
 21
66.46689999999999
 31
0.0
  0
LINE
  5
7F
330
1E
100
AcDbEntity
  8
0
100
AcDbLine
 10
175.231
 20
66.0155
 30
0.0
 11
175.327
 21
66.2551
 31
0.0
  0
LINE
  5
80
330
1E
100
AcDbEntity
  8
0
100
AcDbLine
 10
175.1949999999999
 20
65.7598
 30
0.0
 11
175.231
 21
66.0155
 31
0.0
  0
LINE
  5
81
330
1E
100
AcDbEntity
  8
0
100
AcDbLine
 10
175.1949999999999
 20
65.7598
 30
0.0
 11
175.231
 21
65.50419999999999
 31
0.0
  0
LINE
  5
82
330
1E
100
AcDbEntity
  8
0
100
AcDbLine
 10
173.0
 20
69.6044655737705
 30
0.0
 11
173.0
 21
131.0
 31
0.0
  0
LINE
  5
83
330
1E
100
AcDbEntity
  8
0
100
AcDbLine
 10
175.175
 20
70.7
 30
0.0
 11
180.2749999999999
 21
72.8
 31
0.0
  0
LINE
  5
84
330
1E
100
AcDbEntity
  8
0
100
AcDbLine
 10
170.75
 20
67.25
 30
0.0
 11
175.175
 21
70.7
 31
0.0
  0
LINE
  5
85
330
1E
100
AcDbEntity
  8
0
100
AcDbLine
 10
170.9
 20
96.0
 30
0.0
 11
173.0
 21
96.0
 31
0.0
  0
LINE
  5
86
330
1E
100
AcDbEntity
  8
0
100
AcDbLine
 10
179.0
 20
96.0
 30
0.0
 11
179.9
 21
96.0
 31
0.0
  0
LINE
  5
87
330
1E
100
AcDbEntity
  8
0
100
AcDbLine
 10
179.0
 20
95.0
 30
0.0
 11
179.6
 21
95.0
 31
0.0
  0
LINE
  5
88
330
1E
100
AcDbEntity
  8
0
100
AcDbLine
 10
179.0
 20
72.95999999999999
 30
0.0
 11
179.6
 21
73.2
 31
0.0
  0
LINE
  5
89
330
1E
100
AcDbEntity
  8
0
100
AcDbLine
 10
179.0
 20
131.0
 30
0.0
 11
179.0
 21
72.77717391304349
 31
0.0
  0
LINE
  5
8A
330
1E
100
AcDbEntity
  8
0
100
AcDbLine
 10
179.0
 20
131.0
 30
0.0
 11
179.0999999999999
 21
131.8
 31
0.0
  0
LINE
  5
8B
330
1E
100
AcDbEntity
  8
0
100
AcDbLine
 10
173.3999999999999
 20
134.0999999999999
 30
0.0
 11
173.9
 21
135.4999999999999
 31
0.0
  0
LINE
  5
8C
330
1E
100
AcDbEntity
  8
0
100
AcDbLine
 10
173.0999999999999
 20
132.4999999999999
 30
0.0
 11
173.3999999999999
 21
134.0999999999999
 31
0.0
  0
LINE
  5
8D
330
1E
100
AcDbEntity
  8
0
100
AcDbLine
 10
174.374
 20
136.603039182283
 30
0.0
 11
174.374
 21
219.0539999999999
 31
0.0
  0
LINE
  5
8E
330
1E
100
AcDbEntity
  8
0
100
AcDbLine
 10
173.9
 20
135.4999999999999
 30
0.0
 11
174.4869999999999
 21
136.866
 31
0.0
  0
LINE
  5
8F
330
1E
100
AcDbEntity
  8
0
100
AcDbLine
 10
174.4869999999999
 20
136.866
 30
0.0
 11
175.356
 21
138.242
 31
0.0
  0
LINE
  5
90
330
1E
100
AcDbEntity
  8
0
100
AcDbLine
 10
175.356
 20
138.242
 30
0.0
 11
176.464
 21
139.589
 31
0.0
  0
LINE
  5
91
330
1E
100
AcDbEntity
  8
0
100
AcDbLine
 10
177.7579999999999
 20
140.644
 30
0.0
 11
179.134
 21
141.5129999999999
 31
0.0
  0
LINE
  5
92
330
1E
100
AcDbEntity
  8
0
100
AcDbLine
 10
176.464
 20
139.589
 30
0.0
 11
177.7579999999999
 21
140.644
 31
0.0
  0
LINE
  5
93
330
1E
100
AcDbEntity
  8
0
100
AcDbLine
 10
173.0
 20
131.0
 30
0.0
 11
173.0
 21
69.6044655737705
 31
0.0
  0
LINE
  5
94
330
1E
100
AcDbEntity
  8
0
100
AcDbLine
 10
173.0
 20
131.0
 30
0.0
 11
173.0999999999999
 21
132.4999999999999
 31
0.0
  0
LINE
  5
95
330
1E
100
AcDbEntity
  8
0
100
AcDbLine
 10
179.6
 20
73.2
 30
0.0
 11
185.0
 21
74.0
 31
0.0
  0
LINE
  5
96
330
1E
100
AcDbEntity
  8
0
100
AcDbLine
 10
180.2749999999999
 20
72.8
 30
0.0
 11
185.0
 21
73.55
 31
0.0
  0
LINE
  5
97
330
1E
100
AcDbEntity
  8
0
100
AcDbLine
 10
179.1999999999999
 20
132.6
 30
0.0
 11
179.4329999999999
 21
133.316
 31
0.0
  0
LINE
  5
98
330
1E
100
AcDbEntity
  8
0
100
AcDbLine
 10
179.0999999999999
 20
131.8
 30
0.0
 11
179.1999999999999
 21
132.6
 31
0.0
  0
LINE
  5
99
330
1E
100
AcDbEntity
  8
0
100
AcDbLine
 10
179.9
 20
96.0
 30
0.0
 11
185.0
 21
96.0
 31
0.0
  0
LINE
  5
9A
330
1E
100
AcDbEntity
  8
0
100
AcDbLine
 10
179.6
 20
95.0
 30
0.0
 11
185.0
 21
95.0
 31
0.0
  0
LINE
  5
9B
330
1E
100
AcDbEntity
  8
0
100
AcDbLine
 10
179.4329999999999
 20
133.316
 30
0.0
 11
179.757
 21
134.017
 31
0.0
  0
LINE
  5
9C
330
1E
100
AcDbEntity
  8
0
100
AcDbLine
 10
179.757
 20
134.017
 30
0.0
 11
180.2279999999999
 21
134.6709999999999
 31
0.0
  0
LINE
  5
9D
330
1E
100
AcDbEntity
  8
0
100
AcDbLine
 10
180.2279999999999
 20
134.6709999999999
 30
0.0
 11
180.699
 21
135.3249999999999
 31
0.0
  0
LINE
  5
9E
330
1E
100
AcDbEntity
  8
0
100
AcDbLine
 10
180.4999999999999
 20
142.1
 30
0.0
 11
181.9
 21
142.5999999999999
 31
0.0
  0
LINE
  5
9F
330
1E
100
AcDbEntity
  8
0
100
AcDbLine
 10
179.134
 20
141.5129999999999
 30
0.0
 11
180.4999999999999
 21
142.1
 31
0.0
  0
LINE
  5
A0
330
1E
100
AcDbEntity
  8
0
100
AcDbLine
 10
185.0
 20
96.0
 30
0.0
 11
190.0999999999999
 21
96.0
 31
0.0
  0
LINE
  5
A1
330
1E
100
AcDbEntity
  8
0
100
AcDbLine
 10
185.0
 20
95.0
 30
0.0
 11
190.4
 21
95.0
 31
0.0
  0
LINE
  5
A2
330
1E
100
AcDbEntity
  8
0
100
AcDbLine
 10
181.9
 20
142.5999999999999
 30
0.0
 11
183.4999999999999
 21
142.9
 31
0.0
  0
LINE
  5
A3
330
1E
100
AcDbEntity
  8
0
100
AcDbLine
 10
182.684
 20
136.567
 30
0.0
 11
183.3999999999999
 21
136.8
 31
0.0
  0
LINE
  5
A4
330
1E
100
AcDbEntity
  8
0
100
AcDbLine
 10
183.3999999999999
 20
136.8
 30
0.0
 11
184.1999999999999
 21
136.8999999999999
 31
0.0
  0
LINE
  5
A5
330
1E
100
AcDbEntity
  8
0
100
AcDbLine
 10
184.1999999999999
 20
136.8999999999999
 30
0.0
 11
185.0
 21
137.0
 31
0.0
  0
LINE
  5
A6
330
1E
100
AcDbEntity
  8
0
100
AcDbLine
 10
183.4999999999999
 20
142.9
 30
0.0
 11
185.0
 21
143.0
 31
0.0
  0
LINE
  5
A7
330
1E
100
AcDbEntity
  8
0
100
AcDbLine
 10
181.9829999999999
 20
136.243
 30
0.0
 11
182.684
 21
136.567
 31
0.0
  0
LINE
  5
A8
330
1E
100
AcDbEntity
  8
0
100
AcDbLine
 10
181.329
 20
135.772
 30
0.0
 11
181.9829999999999
 21
136.243
 31
0.0
  0
LINE
  5
A9
330
1E
100
AcDbEntity
  8
0
100
AcDbLine
 10
180.699
 20
135.3249999999999
 30
0.0
 11
181.329
 21
135.772
 31
0.0
  0
LINE
  5
AA
330
1E
100
AcDbEntity
  8
0
100
AcDbLine
 10
185.0
 20
73.55
 30
0.0
 11
189.7249999999999
 21
72.8
 31
0.0
  0
LINE
  5
AC
330
1E
100
AcDbEntity
  8
0
100
AcDbLine
 10
185.0
 20
74.0
 30
0.0
 11
190.4
 21
73.2
 31
0.0
  0
LINE
  5
AF
330
1E
100
AcDbEntity
  8
0
100
AcDbLine
 10
179.0
 20
72.77717391304349
 30
0.0
 11
179.0
 21
131.0
 31
0.0
  0
LINE
  5
B5
330
1E
100
AcDbEntity
  8
0
100
AcDbLine
 10
164.0
 20
53.0
 30
0.0
 11
164.8
 21
58.39999999999999
 31
0.0
  0
LINE
  5
B6
330
1E
100
AcDbEntity
  8
0
100
AcDbLine
 10
164.0
 20
53.0
 30
0.0
 11
164.0
 21
95.0
 31
0.0
  0
LINE
  5
B7
330
1E
100
AcDbEntity
  8
0
100
AcDbLine
 10
164.0
 20
53.0
 30
0.0
 11
164.8
 21
47.6
 31
0.0
  0
LINE
  5
B8
330
1E
100
AcDbEntity
  8
0
100
AcDbLine
 10
189.7249999999999
 20
33.2
 30
0.0
 11
194.8249999999999
 21
35.29999999999999
 31
0.0
  0
LINE
  5
B9
330
1E
100
AcDbEntity
  8
0
100
AcDbLine
 10
190.4
 20
32.79999999999999
 30
0.0
 11
195.4
 21
34.79999999999999
 31
0.0
  0
LINE
  5
BA
330
1E
100
AcDbEntity
  8
0
100
AcDbLine
 10
190.5
 20
3.499999999999979
 30
0.0
 11
195.6999999999999
 21
3.499999999999979
 31
0.0
  0
LINE
  5
BB
330
1E
100
AcDbEntity
  8
0
100
AcDbLine
 10
191.8
 20
2.999999999999979
 30
0.0
 11
198.2
 21
2.999999999999979
 31
0.0
  0
LINE
  5
BC
330
1E
100
AcDbEntity
  8
0
100
AcDbLine
 10
191.9
 20
2.49999999999998
 30
0.0
 11
198.4
 21
2.49999999999998
 31
0.0
  0
LINE
  5
BD
330
1E
100
AcDbEntity
  8
0
100
AcDbLine
 10
191.0
 20
72.77717391304349
 30
0.0
 11
191.0
 21
131.0
 31
0.0
  0
LINE
  5
BE
330
1E
100
AcDbEntity
  8
0
100
AcDbLine
 10
191.0
 20
72.77717391304349
 30
0.0
 11
191.0
 21
131.0
 31
0.0
  0
LINE
  5
C0
330
1E
100
AcDbEntity
  8
0
100
AcDbLine
 10
187.3159999999999
 20
136.567
 30
0.0
 11
188.0169999999999
 21
136.243
 31
0.0
  0
LINE
  5
C1
330
1E
100
AcDbEntity
  8
0
100
AcDbLine
 10
188.0169999999999
 20
136.243
 30
0.0
 11
188.6709999999999
 21
135.772
 31
0.0
  0
LINE
  5
C2
330
1E
100
AcDbEntity
  8
0
100
AcDbLine
 10
190.0999999999999
 20
96.0
 30
0.0
 11
191.0
 21
96.0
 31
0.0
  0
LINE
  5
C3
330
1E
100
AcDbEntity
  8
0
100
AcDbLine
 10
190.4
 20
73.2
 30
0.0
 11
191.0
 21
72.95999999999999
 31
0.0
  0
LINE
  5
C4
330
1E
100
AcDbEntity
  8
0
100
AcDbLine
 10
190.4
 20
95.0
 30
0.0
 11
191.0
 21
95.0
 31
0.0
  0
LINE
  5
C5
330
1E
100
AcDbEntity
  8
0
100
AcDbLine
 10
190.567
 20
133.316
 30
0.0
 11
190.8
 21
132.6
 31
0.0
  0
LINE
  5
C6
330
1E
100
AcDbEntity
  8
0
100
AcDbLine
 10
190.8
 20
132.6
 30
0.0
 11
190.8999999999999
 21
131.8
 31
0.0
  0
LINE
  5
C7
330
1E
100
AcDbEntity
  8
0
100
AcDbLine
 10
190.8999999999999
 20
131.8
 30
0.0
 11
191.0
 21
131.0
 31
0.0
  0
LINE
  5
C8
330
1E
100
AcDbEntity
  8
0
100
AcDbLine
 10
190.243
 20
134.017
 30
0.0
 11
190.567
 21
133.316
 31
0.0
  0
LINE
  5
C9
330
1E
100
AcDbEntity
  8
0
100
AcDbLine
 10
189.772
 20
134.6709999999999
 30
0.0
 11
190.243
 21
134.017
 31
0.0
  0
LINE
  5
CA
330
1E
100
AcDbEntity
  8
0
100
AcDbLine
 10
189.3009999999999
 20
135.3249999999999
 30
0.0
 11
189.772
 21
134.6709999999999
 31
0.0
  0
LINE
  5
CB
330
1E
100
AcDbEntity
  8
0
100
AcDbLine
 10
189.4999999999999
 20
142.1
 30
0.0
 11
190.8659999999999
 21
141.5129999999999
 31
0.0
  0
LINE
  5
CC
330
1E
100
AcDbEntity
  8
0
100
AcDbLine
 10
190.8659999999999
 20
141.5129999999999
 30
0.0
 11
192.242
 21
140.644
 31
0.0
  0
LINE
  5
CD
330
1E
100
AcDbEntity
  8
0
100
AcDbLine
 10
188.6709999999999
 20
135.772
 30
0.0
 11
189.3009999999999
 21
135.3249999999999
 31
0.0
  0
LINE
  5
CE
330
1E
100
AcDbEntity
  8
0
100
AcDbLine
 10
189.7249999999999
 20
72.8
 30
0.0
 11
194.8249999999999
 21
70.7
 31
0.0
  0
LINE
  5
CF
330
1E
100
AcDbEntity
  8
0
100
AcDbLine
 10
186.5999999999999
 20
136.8
 30
0.0
 11
187.3159999999999
 21
136.567
 31
0.0
  0
LINE
  5
D0
330
1E
100
AcDbEntity
  8
0
100
AcDbLine
 10
188.1
 20
142.5999999999999
 30
0.0
 11
189.4999999999999
 21
142.1
 31
0.0
  0
LINE
  5
D1
330
1E
100
AcDbEntity
  8
0
100
AcDbLine
 10
185.8
 20
136.8999999999999
 30
0.0
 11
186.5999999999999
 21
136.8
 31
0.0
  0
LINE
  5
D2
330
1E
100
AcDbEntity
  8
0
100
AcDbLine
 10
186.5
 20
142.9
 30
0.0
 11
188.1
 21
142.5999999999999
 31
0.0
  0
LINE
  5
D3
330
1E
100
AcDbEntity
  8
0
100
AcDbLine
 10
185.0
 20
137.0
 30
0.0
 11
185.8
 21
136.8999999999999
 31
0.0
  0
LINE
  5
D4
330
1E
100
AcDbEntity
  8
0
100
AcDbLine
 10
1.753990000000019
 20
212.139
 30
0.0
 11
3.39972000000002
 21
211.8419999999999
 31
0.0
  0
LINE
  5
D5
330
1E
100
AcDbEntity
  8
0
100
AcDbLine
 10
0.0000000000000169
 20
212.965
 30
0.0
 11
1.79233000000002
 21
223.3519999999999
 31
0.0
  0
LINE
  5
D6
330
1E
100
AcDbEntity
  8
0
100
AcDbLine
 10
0.3872300000000171
 20
212.895
 30
0.0
 11
1.452110000000019
 21
212.7029999999999
 31
0.0
  0
LINE
  5
D7
330
1E
100
AcDbEntity
  8
0
100
AcDbLine
 10
0.0000000000000171
 20
212.965
 30
0.0
 11
0.3986880000000171
 21
212.3829999999999
 31
0.0
  0
LINE
  5
D8
330
1E
100
AcDbEntity
  8
0
100
AcDbLine
 10
0.0000000000000171
 20
212.965
 30
0.0
 11
0.3872300000000171
 21
212.895
 31
0.0
  0
LINE
  5
D9
330
1E
100
AcDbEntity
  8
0
100
AcDbLine
 10
0.3872300000000171
 20
212.895
 30
0.0
 11
1.452110000000019
 21
212.7029999999999
 31
0.0
  0
LINE
  5
DA
330
1E
100
AcDbEntity
  8
0
100
AcDbLine
 10
1.452110000000019
 20
212.7029999999999
 30
0.0
 11
3.09784000000002
 21
212.407
 31
0.0
  0
LINE
  5
DB
330
1E
100
AcDbEntity
  8
0
100
AcDbLine
 10
0.3986880000000171
 20
212.3829999999999
 30
0.0
 11
0.7859180000000171
 21
212.3129999999999
 31
0.0
  0
LINE
  5
DC
330
1E
100
AcDbEntity
  8
0
100
AcDbLine
 10
1.79233000000002
 20
223.3519999999999
 30
0.0
 11
2.310500000000019
 21
223.463
 31
0.0
  0
LINE
  5
DD
330
1E
100
AcDbEntity
  8
0
100
AcDbLine
 10
1.79233000000002
 20
223.3519999999999
 30
0.0
 11
2.179550000000019
 21
223.2829999999999
 31
0.0
  0
LINE
  5
DE
330
1E
100
AcDbEntity
  8
0
100
AcDbLine
 10
0.0000000000000171
 20
212.965
 30
0.0
 11
0.3986880000000171
 21
212.3829999999999
 31
0.0
  0
LINE
  5
DF
330
1E
100
AcDbEntity
  8
0
100
AcDbLine
 10
0.0000000000000171
 20
212.965
 30
0.0
 11
0.3872300000000171
 21
212.895
 31
0.0
  0
LINE
  5
E0
330
1E
100
AcDbEntity
  8
0
100
AcDbLine
 10
0.0000000000000171
 20
212.965
 30
0.0
 11
1.79233000000002
 21
223.3519999999999
 31
0.0
  0
LINE
  5
E1
330
1E
100
AcDbEntity
  8
0
100
AcDbLine
 10
0.7859180000000171
 20
212.3129999999999
 30
0.0
 11
1.753990000000019
 21
212.139
 31
0.0
  0
LINE
  5
E2
330
1E
100
AcDbEntity
  8
0
100
AcDbLine
 10
7.938210000000019
 20
211.5349999999999
 30
0.0
 11
10.6488
 21
211.0459999999999
 31
0.0
  0
LINE
  5
E3
330
1E
100
AcDbEntity
  8
0
100
AcDbLine
 10
5.529480000000019
 20
211.459
 30
0.0
 11
7.949670000000018
 21
211.023
 31
0.0
  0
LINE
  5
E4
330
1E
100
AcDbEntity
  8
0
100
AcDbLine
 10
3.09784000000002
 20
212.407
 30
0.0
 11
5.324410000000019
 21
212.0059999999999
 31
0.0
  0
LINE
  5
E5
330
1E
100
AcDbEntity
  8
0
100
AcDbLine
 10
5.324410000000019
 20
212.0059999999999
 30
0.0
 11
7.938210000000019
 21
211.5349999999999
 31
0.0
  0
LINE
  5
E6
330
1E
100
AcDbEntity
  8
0
100
AcDbLine
 10
3.39972000000002
 20
211.8419999999999
 30
0.0
 11
5.529480000000019
 21
211.459
 31
0.0
  0
LINE
  5
E7
330
1E
100
AcDbEntity
  8
0
100
AcDbLine
 10
20.341
 20
208.7899999999999
 30
0.0
 11
20.7282
 21
208.72
 31
0.0
  0
LINE
  5
E8
330
1E
100
AcDbEntity
  8
0
100
AcDbLine
 10
20.7282
 20
208.72
 30
0.0
 11
21.2976
 21
209.127
 31
0.0
  0
LINE
  5
E9
330
1E
100
AcDbEntity
  8
0
100
AcDbLine
 10
20.9104
 20
209.1969999999999
 30
0.0
 11
21.2976
 21
209.127
 31
0.0
  0
LINE
  5
EA
330
1E
100
AcDbEntity
  8
0
100
AcDbLine
 10
19.8455
 20
209.389
 30
0.0
 11
20.9104
 21
209.1969999999999
 31
0.0
  0
LINE
  5
EB
330
1E
100
AcDbEntity
  8
0
100
AcDbLine
 10
18.1998
 20
209.6859999999999
 30
0.0
 11
19.8455
 21
209.389
 31
0.0
  0
LINE
  5
EC
330
1E
100
AcDbEntity
  8
0
100
AcDbLine
 10
17.7272
 20
209.261
 30
0.0
 11
19.3729
 21
208.964
 31
0.0
  0
LINE
  5
ED
330
1E
100
AcDbEntity
  8
0
100
AcDbLine
 10
21.2976
 20
209.127
 30
0.0
 11
23.09
 21
219.5149999999999
 31
0.0
  0
LINE
  5
EE
330
1E
100
AcDbEntity
  8
0
100
AcDbLine
 10
19.3729
 20
208.964
 30
0.0
 11
20.341
 21
208.7899999999999
 31
0.0
  0
LINE
  5
EF
330
1E
100
AcDbEntity
  8
0
100
AcDbLine
 10
15.5975
 20
209.6449999999999
 30
0.0
 11
17.7272
 21
209.261
 31
0.0
  0
LINE
  5
F0
330
1E
100
AcDbEntity
  8
0
100
AcDbLine
 10
15.9732
 20
210.087
 30
0.0
 11
18.1998
 21
209.6859999999999
 31
0.0
  0
LINE
  5
F1
330
1E
100
AcDbEntity
  8
0
100
AcDbLine
 10
22.2528
 20
219.87
 30
0.0
 11
22.6401
 21
219.7999999999999
 31
0.0
  0
LINE
  5
F2
330
1E
100
AcDbEntity
  8
0
100
AcDbLine
 10
21.6378
 20
219.7759999999999
 30
0.0
 11
22.7027
 21
219.585
 31
0.0
  0
LINE
  5
F3
330
1E
100
AcDbEntity
  8
0
100
AcDbLine
 10
13.3594
 20
210.5579999999999
 30
0.0
 11
15.9732
 21
210.087
 31
0.0
  0
LINE
  5
F4
330
1E
100
AcDbEntity
  8
0
100
AcDbLine
 10
10.6488
 20
211.0459999999999
 30
0.0
 11
13.3594
 21
210.5579999999999
 31
0.0
  0
LINE
  5
F5
330
1E
100
AcDbEntity
  8
0
100
AcDbLine
 10
10.56349999999999
 20
210.552
 30
0.0
 11
13.1773
 21
210.081
 31
0.0
  0
LINE
  5
F6
330
1E
100
AcDbEntity
  8
0
100
AcDbLine
 10
22.7027
 20
219.585
 30
0.0
 11
23.09
 21
219.5149999999999
 31
0.0
  0
LINE
  5
F7
330
1E
100
AcDbEntity
  8
0
100
AcDbLine
 10
22.6401
 20
219.7999999999999
 30
0.0
 11
23.09
 21
219.5149999999999
 31
0.0
  0
LINE
  5
F8
330
1E
100
AcDbEntity
  8
0
100
AcDbLine
 10
22.6401
 20
219.7999999999999
 30
0.0
 11
23.15819999999999
 21
219.91
 31
0.0
  0
LINE
  5
F9
330
1E
100
AcDbEntity
  8
0
100
AcDbLine
 10
13.1773
 20
210.081
 30
0.0
 11
15.5975
 21
209.6449999999999
 31
0.0
  0
LINE
  5
FA
330
1E
100
AcDbEntity
  8
0
100
AcDbLine
 10
7.949670000000018
 20
211.023
 30
0.0
 11
10.56349999999999
 21
210.552
 31
0.0
  0
LINE
  5
FB
330
1E
100
AcDbEntity
  8
0
100
AcDbLine
 10
2.310500000000019
 20
223.463
 30
0.0
 11
2.69773000000002
 21
223.3929999999999
 31
0.0
  0
LINE
  5
FC
330
1E
100
AcDbEntity
  8
0
100
AcDbLine
 10
2.69773000000002
 20
223.3929999999999
 30
0.0
 11
3.66581000000002
 21
223.219
 31
0.0
  0
LINE
  5
FD
330
1E
100
AcDbEntity
  8
0
100
AcDbLine
 10
2.179550000000019
 20
223.2829999999999
 30
0.0
 11
3.24444000000002
 21
223.0909999999999
 31
0.0
  0
LINE
  5
FE
330
1E
100
AcDbEntity
  8
0
100
AcDbLine
 10
2.247830000000019
 20
223.6779999999999
 30
0.0
 11
3.31272000000002
 21
223.4859999999999
 31
0.0
  0
LINE
  5
FF
330
1E
100
AcDbEntity
  8
0
100
AcDbLine
 10
3.24444000000002
 20
223.0909999999999
 30
0.0
 11
4.890160000000019
 21
222.794
 31
0.0
  0
LINE
  5
100
330
1E
100
AcDbEntity
  8
0
100
AcDbLine
 10
5.311530000000019
 20
222.922
 30
0.0
 11
7.441300000000018
 21
222.5379999999999
 31
0.0
  0
LINE
  5
101
330
1E
100
AcDbEntity
  8
0
100
AcDbLine
 10
4.890160000000019
 20
222.794
 30
0.0
 11
7.116730000000019
 21
222.393
 31
0.0
  0
LINE
  5
102
330
1E
100
AcDbEntity
  8
0
100
AcDbLine
 10
7.116730000000019
 20
222.393
 30
0.0
 11
9.730530000000019
 21
221.9219999999999
 31
0.0
  0
LINE
  5
103
330
1E
100
AcDbEntity
  8
0
100
AcDbLine
 10
12.4753
 20
221.6309999999999
 30
0.0
 11
15.0891
 21
221.16
 31
0.0
  0
LINE
  5
104
330
1E
100
AcDbEntity
  8
0
100
AcDbLine
 10
12.4411
 20
221.434
 30
0.0
 11
15.1517
 21
220.9449999999999
 31
0.0
  0
LINE
  5
105
330
1E
100
AcDbEntity
  8
0
100
AcDbLine
 10
9.861480000000019
 20
222.102
 30
0.0
 11
12.4753
 21
221.6309999999999
 31
0.0
  0
LINE
  5
106
330
1E
100
AcDbEntity
  8
0
100
AcDbLine
 10
9.730530000000019
 20
221.9219999999999
 30
0.0
 11
12.4411
 21
221.434
 31
0.0
  0
LINE
  5
107
330
1E
100
AcDbEntity
  8
0
100
AcDbLine
 10
17.5093
 20
220.724
 30
0.0
 11
19.63899999999999
 21
220.3409999999999
 31
0.0
  0
LINE
  5
108
330
1E
100
AcDbEntity
  8
0
100
AcDbLine
 10
17.7655
 20
220.474
 30
0.0
 11
19.9921
 21
220.0729999999999
 31
0.0
  0
LINE
  5
109
330
1E
100
AcDbEntity
  8
0
100
AcDbLine
 10
15.0891
 20
221.16
 30
0.0
 11
17.5093
 21
220.724
 31
0.0
  0
LINE
  5
10A
330
1E
100
AcDbEntity
  8
0
100
AcDbLine
 10
15.1517
 20
220.9449999999999
 30
0.0
 11
17.7655
 21
220.474
 31
0.0
  0
LINE
  5
10B
330
1E
100
AcDbEntity
  8
0
100
AcDbLine
 10
21.2848
 20
220.0439999999999
 30
0.0
 11
22.2528
 21
219.87
 31
0.0
  0
LINE
  5
10C
330
1E
100
AcDbEntity
  8
0
100
AcDbLine
 10
19.63899999999999
 20
220.3409999999999
 30
0.0
 11
21.2848
 21
220.0439999999999
 31
0.0
  0
LINE
  5
10D
330
1E
100
AcDbEntity
  8
0
100
AcDbLine
 10
19.9921
 20
220.0729999999999
 30
0.0
 11
21.6378
 21
219.7759999999999
 31
0.0
  0
LINE
  5
10E
330
1E
100
AcDbEntity
  8
0
100
AcDbLine
 10
22.771
 20
219.9799999999999
 30
0.0
 11
23.15819999999999
 21
219.91
 31
0.0
  0
LINE
  5
10F
330
1E
100
AcDbEntity
  8
0
100
AcDbLine
 10
21.70609999999999
 20
220.1719999999999
 30
0.0
 11
22.771
 21
219.9799999999999
 31
0.0
  0
LINE
  5
110
330
1E
100
AcDbEntity
  8
0
100
AcDbLine
 10
20.0604
 20
220.469
 30
0.0
 11
21.70609999999999
 21
220.1719999999999
 31
0.0
  0
LINE
  5
111
330
1E
100
AcDbEntity
  8
0
100
AcDbLine
 10
17.8338
 20
220.8699999999999
 30
0.0
 11
20.0604
 21
220.469
 31
0.0
  0
LINE
  5
112
330
1E
100
AcDbEntity
  8
0
100
AcDbLine
 10
15.22
 20
221.3409999999999
 30
0.0
 11
17.8338
 21
220.8699999999999
 31
0.0
  0
LINE
  5
113
330
1E
100
AcDbEntity
  8
0
100
AcDbLine
 10
12.50939999999999
 20
221.829
 30
0.0
 11
15.22
 21
221.3409999999999
 31
0.0
  0
LINE
  5
114
330
1E
100
AcDbEntity
  8
0
100
AcDbLine
 10
7.441300000000018
 20
222.5379999999999
 30
0.0
 11
9.861480000000019
 21
222.102
 31
0.0
  0
LINE
  5
115
330
1E
100
AcDbEntity
  8
0
100
AcDbLine
 10
9.798810000000019
 20
222.3179999999999
 30
0.0
 11
12.50939999999999
 21
221.829
 31
0.0
  0
LINE
  5
116
330
1E
100
AcDbEntity
  8
0
100
AcDbLine
 10
7.185010000000018
 20
222.789
 30
0.0
 11
9.798810000000019
 21
222.3179999999999
 31
0.0
  0
LINE
  5
117
330
1E
100
AcDbEntity
  8
0
100
AcDbLine
 10
3.66581000000002
 20
223.219
 30
0.0
 11
5.311530000000019
 21
222.922
 31
0.0
  0
LINE
  5
118
330
1E
100
AcDbEntity
  8
0
100
AcDbLine
 10
4.958440000000019
 20
223.1899999999999
 30
0.0
 11
7.185010000000018
 21
222.789
 31
0.0
  0
LINE
  5
119
330
1E
100
AcDbEntity
  8
0
100
AcDbLine
 10
3.31272000000002
 20
223.4859999999999
 30
0.0
 11
4.958440000000019
 21
223.1899999999999
 31
0.0
  0
LINE
  5
11A
330
1E
100
AcDbEntity
  8
0
100
AcDbLine
 10
26.5294
 20
238.944
 30
0.0
 11
29.675
 21
248.4869999999999
 31
0.0
  0
LINE
  5
11B
330
1E
100
AcDbEntity
  8
0
100
AcDbLine
 10
24.66169999999999
 20
229.0999999999999
 30
0.0
 11
26.5294
 21
238.944
 31
0.0
  0
LINE
  5
11C
330
1E
100
AcDbEntity
  8
0
100
AcDbLine
 10
3.13379000000002
 20
231.912
 30
0.0
 11
5.689610000000018
 21
244.6699999999999
 31
0.0
  0
LINE
  5
11D
330
1E
100
AcDbEntity
  8
0
100
AcDbLine
 10
23.15819999999999
 20
219.91
 30
0.0
 11
24.66169999999999
 21
229.0999999999999
 31
0.0
  0
LINE
  5
11E
330
1E
100
AcDbEntity
  8
0
100
AcDbLine
 10
1.86060000000002
 20
223.748
 30
0.0
 11
3.13379000000002
 21
231.912
 31
0.0
  0
LINE
  5
11F
330
1E
100
AcDbEntity
  8
0
100
AcDbLine
 10
1.86060000000002
 20
223.748
 30
0.0
 11
2.310500000000019
 21
223.463
 31
0.0
  0
LINE
  5
120
330
1E
100
AcDbEntity
  8
0
100
AcDbLine
 10
1.86060000000002
 20
223.748
 30
0.0
 11
2.247830000000019
 21
223.6779999999999
 31
0.0
  0
LINE
  5
121
330
1E
100
AcDbEntity
  8
0
100
AcDbLine
 10
29.675
 20
248.4869999999999
 30
0.0
 11
34.0002
 21
257.427
 31
0.0
  0
LINE
  5
122
330
1E
100
AcDbEntity
  8
0
100
AcDbLine
 10
34.0002
 20
257.427
 30
0.0
 11
39.50509999999999
 21
265.865
 31
0.0
  0
LINE
  5
123
330
1E
100
AcDbEntity
  8
0
100
AcDbLine
 10
9.719940000000018
 20
256.925
 30
0.0
 11
15.3231
 21
268.477
 31
0.0
  0
LINE
  5
124
330
1E
100
AcDbEntity
  8
0
100
AcDbLine
 10
5.689610000000018
 20
244.6699999999999
 30
0.0
 11
9.719940000000018
 21
256.925
 31
0.0
  0
LINE
  5
125
330
1E
100
AcDbEntity
  8
0
100
AcDbLine
 10
39.50509999999999
 20
265.865
 30
0.0
 11
45.99289999999999
 21
273.3989999999999
 31
0.0
  0
LINE
  5
126
330
1E
100
AcDbEntity
  8
0
100
AcDbLine
 10
15.3231
 20
268.477
 30
0.0
 11
22.30239999999999
 21
279.225
 31
0.0
  0
LINE
  5
127
330
1E
100
AcDbEntity
  8
0
100
AcDbLine
 10
22.30239999999999
 20
279.225
 30
0.0
 11
30.7563
 21
288.9689999999999
 31
0.0
  0
LINE
  5
128
330
1E
100
AcDbEntity
  8
0
100
AcDbLine
 10
45.99289999999999
 20
273.3989999999999
 30
0.0
 11
53.36549999999999
 21
280.029
 31
0.0
  0
LINE
  5
129
330
1E
100
AcDbEntity
  8
0
100
AcDbLine
 10
53.36549999999999
 20
280.029
 30
0.0
 11
61.62279999999999
 21
285.6539999999999
 31
0.0
  0
LINE
  5
12A
330
1E
100
AcDbEntity
  8
0
100
AcDbLine
 10
30.7563
 20
288.9689999999999
 30
0.0
 11
40.2915
 21
297.6079999999999
 31
0.0
  0
LINE
  5
12B
330
1E
100
AcDbEntity
  8
0
100
AcDbLine
 10
61.62279999999999
 20
285.6539999999999
 30
0.0
 11
70.3716
 21
290.074
 31
0.0
  0
LINE
  5
12C
330
1E
100
AcDbEntity
  8
0
100
AcDbLine
 10
70.3716
 20
290.074
 30
0.0
 11
79.71009999999999
 21
293.289
 31
0.0
  0
LINE
  5
12D
330
1E
100
AcDbEntity
  8
0
100
AcDbLine
 10
79.71009999999999
 20
293.289
 30
0.0
 11
89.34359999999999
 21
295.197
 31
0.0
  0
LINE
  5
12E
330
1E
100
AcDbEntity
  8
0
100
AcDbLine
 10
89.34359999999999
 20
295.197
 30
0.0
 11
99.1737
 21
295.8999999999999
 31
0.0
  0
LINE
  5
12F
330
1E
100
AcDbEntity
  8
0
100
AcDbLine
 10
40.2915
 20
297.6079999999999
 30
0.0
 11
50.8097
 21
304.74
 31
0.0
  0
LINE
  5
130
330
1E
100
AcDbEntity
  8
0
100
AcDbLine
 10
50.8097
 20
304.74
 30
0.0
 11
62.1143
 21
310.4659999999999
 31
0.0
  0
LINE
  5
131
330
1E
100
AcDbEntity
  8
0
100
AcDbLine
 10
62.1143
 20
310.4659999999999
 30
0.0
 11
74.107
 21
314.5849999999999
 31
0.0
  0
LINE
  5
132
330
1E
100
AcDbEntity
  8
0
100
AcDbLine
 10
74.107
 20
314.5849999999999
 30
0.0
 11
86.59119999999999
 21
317.1959999999999
 31
0.0
  0
LINE
  5
133
330
1E
100
AcDbEntity
  8
0
100
AcDbLine
 10
86.59119999999999
 20
317.1959999999999
 30
0.0
 11
99.1737
 21
318.0
 31
0.0
  0
LINE
  5
134
330
1E
100
AcDbEntity
  8
0
100
AcDbLine
 10
99.1737
 20
295.8999999999999
 30
0.0
 11
109.0039999999999
 21
295.197
 31
0.0
  0
LINE
  5
135
330
1E
100
AcDbEntity
  8
0
100
AcDbLine
 10
144.982
 20
280.029
 30
0.0
 11
152.3539999999999
 21
273.3989999999999
 31
0.0
  0
LINE
  5
136
330
1E
100
AcDbEntity
  8
0
100
AcDbLine
 10
158.056
 20
297.6079999999999
 30
0.0
 11
167.5909999999999
 21
288.9689999999999
 31
0.0
  0
LINE
  5
137
330
1E
100
AcDbEntity
  8
0
100
AcDbLine
 10
136.725
 20
285.6539999999999
 30
0.0
 11
144.982
 21
280.029
 31
0.0
  0
LINE
  5
138
330
1E
100
AcDbEntity
  8
0
100
AcDbLine
 10
147.5379999999999
 20
304.74
 30
0.0
 11
158.056
 21
297.6079999999999
 31
0.0
  0
LINE
  5
139
330
1E
100
AcDbEntity
  8
0
100
AcDbLine
 10
127.976
 20
290.074
 30
0.0
 11
136.725
 21
285.6539999999999
 31
0.0
  0
LINE
  5
13A
330
1E
100
AcDbEntity
  8
0
100
AcDbLine
 10
136.233
 20
310.4659999999999
 30
0.0
 11
147.5379999999999
 21
304.74
 31
0.0
  0
LINE
  5
13B
330
1E
100
AcDbEntity
  8
0
100
AcDbLine
 10
118.6369999999999
 20
293.289
 30
0.0
 11
127.976
 21
290.074
 31
0.0
  0
LINE
  5
13C
330
1E
100
AcDbEntity
  8
0
100
AcDbLine
 10
124.2399999999999
 20
314.5849999999999
 30
0.0
 11
136.233
 21
310.4659999999999
 31
0.0
  0
LINE
  5
13D
330
1E
100
AcDbEntity
  8
0
100
AcDbLine
 10
109.0039999999999
 20
295.197
 30
0.0
 11
118.6369999999999
 21
293.289
 31
0.0
  0
LINE
  5
13E
330
1E
100
AcDbEntity
  8
0
100
AcDbLine
 10
111.756
 20
317.1959999999999
 30
0.0
 11
124.2399999999999
 21
314.5849999999999
 31
0.0
  0
LINE
  5
13F
330
1E
100
AcDbEntity
  8
0
100
AcDbLine
 10
99.1737
 20
318.0
 30
0.0
 11
111.756
 21
317.1959999999999
 31
0.0
  0
LINE
  5
140
330
1E
100
AcDbEntity
  8
0
100
AcDbLine
 10
152.3539999999999
 20
273.3989999999999
 30
0.0
 11
158.842
 21
265.865
 31
0.0
  0
LINE
  5
141
330
1E
100
AcDbEntity
  8
0
100
AcDbLine
 10
167.5909999999999
 20
288.9689999999999
 30
0.0
 11
176.0449999999999
 21
279.225
 31
0.0
  0
LINE
  5
142
330
1E
100
AcDbEntity
  8
0
100
AcDbLine
 10
158.842
 20
265.865
 30
0.0
 11
164.347
 21
257.427
 31
0.0
  0
LINE
  5
143
330
1E
100
AcDbEntity
  8
0
100
AcDbLine
 10
164.347
 20
257.427
 30
0.0
 11
168.672
 21
248.4869999999999
 31
0.0
  0
LINE
  5
144
330
1E
100
AcDbEntity
  8
0
100
AcDbLine
 10
168.672
 20
248.4869999999999
 30
0.0
 11
171.8179999999999
 21
238.944
 31
0.0
  0
LINE
  5
145
330
1E
100
AcDbEntity
  8
0
100
AcDbLine
 10
171.8179999999999
 20
238.944
 30
0.0
 11
173.6859999999999
 21
229.0999999999999
 31
0.0
  0
LINE
  5
146
330
1E
100
AcDbEntity
  8
0
100
AcDbLine
 10
174.374
 20
219.0539999999999
 30
0.0
 11
174.374
 21
136.603039182283
 31
0.0
  0
LINE
  5
147
330
1E
100
AcDbEntity
  8
0
100
AcDbLine
 10
176.0449999999999
 20
279.225
 30
0.0
 11
183.024
 21
268.477
 31
0.0
  0
LINE
  5
148
330
1E
100
AcDbEntity
  8
0
100
AcDbLine
 10
183.024
 20
268.477
 30
0.0
 11
188.627
 21
256.925
 31
0.0
  0
LINE
  5
149
330
1E
100
AcDbEntity
  8
0
100
AcDbLine
 10
188.627
 20
256.925
 30
0.0
 11
192.6579999999999
 21
244.6699999999999
 31
0.0
  0
LINE
  5
14A
330
1E
100
AcDbEntity
  8
0
100
AcDbLine
 10
173.6859999999999
 20
229.0999999999999
 30
0.0
 11
174.374
 21
219.0539999999999
 31
0.0
  0
LINE
  5
14B
330
1E
100
AcDbEntity
  8
0
100
AcDbLine
 10
185.0
 20
143.0
 30
0.0
 11
186.5
 21
142.9
 31
0.0
  0
LINE
  5
14C
330
1E
100
AcDbEntity
  8
0
100
AcDbLine
 10
212.0
 20
-0.0000000000000215
 30
0.0
 11
212.0
 21
2.49999999999998
 31
0.0
  0
LINE
  5
14D
330
1E
100
AcDbEntity
  8
0
100
AcDbLine
 10
211.0
 20
-0.0000000000000215
 30
0.0
 11
212.0
 21
-0.0000000000000215
 31
0.0
  0
LINE
  5
14E
330
1E
100
AcDbEntity
  8
0
100
AcDbLine
 10
208.4
 20
-0.0000000000000213
 30
0.0
 11
211.0
 21
-0.0000000000000215
 31
0.0
  0
LINE
  5
14F
330
1E
100
AcDbEntity
  8
0
100
AcDbLine
 10
204.0
 20
-0.000000000000021
 30
0.0
 11
208.4
 21
-0.0000000000000213
 31
0.0
  0
LINE
  5
150
330
1E
100
AcDbEntity
  8
0
100
AcDbLine
 10
211.0
 20
2.49999999999998
 30
0.0
 11
212.0
 21
2.49999999999998
 31
0.0
  0
LINE
  5
151
330
1E
100
AcDbEntity
  8
0
100
AcDbLine
 10
208.4
 20
2.49999999999998
 30
0.0
 11
211.0
 21
2.49999999999998
 31
0.0
  0
LINE
  5
152
330
1E
100
AcDbEntity
  8
0
100
AcDbLine
 10
210.4999999999999
 20
2.999999999999979
 30
0.0
 11
211.5
 21
2.999999999999979
 31
0.0
  0
LINE
  5
153
330
1E
100
AcDbEntity
  8
0
100
AcDbLine
 10
208.0
 20
2.999999999999979
 30
0.0
 11
210.4999999999999
 21
2.999999999999979
 31
0.0
  0
LINE
  5
154
330
1E
100
AcDbEntity
  8
0
100
AcDbLine
 10
203.6999999999999
 20
2.999999999999979
 30
0.0
 11
208.0
 21
2.999999999999979
 31
0.0
  0
LINE
  5
155
330
1E
100
AcDbEntity
  8
0
100
AcDbLine
 10
204.0
 20
2.49999999999998
 30
0.0
 11
208.4
 21
2.49999999999998
 31
0.0
  0
LINE
  5
156
330
1E
100
AcDbEntity
  8
0
100
AcDbLine
 10
198.4
 20
2.49999999999998
 30
0.0
 11
204.0
 21
2.49999999999998
 31
0.0
  0
LINE
  5
157
330
1E
100
AcDbEntity
  8
0
100
AcDbLine
 10
195.6999999999999
 20
3.499999999999979
 30
0.0
 11
200.1999999999999
 21
3.499999999999979
 31
0.0
  0
LINE
  5
158
330
1E
100
AcDbEntity
  8
0
100
AcDbLine
 10
205.6999999999999
 20
3.499999999999979
 30
0.0
 11
206.4999999999999
 21
3.499999999999979
 31
0.0
  0
LINE
  5
159
330
1E
100
AcDbEntity
  8
0
100
AcDbLine
 10
203.6
 20
3.499999999999979
 30
0.0
 11
205.6999999999999
 21
3.499999999999979
 31
0.0
  0
LINE
  5
15A
330
1E
100
AcDbEntity
  8
0
100
AcDbLine
 10
200.1999999999999
 20
3.499999999999979
 30
0.0
 11
203.6
 21
3.499999999999979
 31
0.0
  0
LINE
  5
15B
330
1E
100
AcDbEntity
  8
0
100
AcDbLine
 10
200.8999999999999
 20
2.999999999999979
 30
0.0
 11
204.4999999999999
 21
2.999999999999979
 31
0.0
  0
LINE
  5
15C
330
1E
100
AcDbEntity
  8
0
100
AcDbLine
 10
198.2
 20
2.999999999999979
 30
0.0
 11
203.6999999999999
 21
2.999999999999979
 31
0.0
  0
LINE
  5
15D
330
1E
100
AcDbEntity
  8
0
100
AcDbLine
 10
198.2
 20
2.999999999999979
 30
0.0
 11
200.8999999999999
 21
2.999999999999979
 31
0.0
  0
LINE
  5
15E
330
1E
100
AcDbEntity
  8
0
100
AcDbLine
 10
194.8249999999999
 20
35.29999999999999
 30
0.0
 11
199.2499999999999
 21
38.75
 31
0.0
  0
LINE
  5
15F
330
1E
100
AcDbEntity
  8
0
100
AcDbLine
 10
195.4
 20
34.79999999999999
 30
0.0
 11
199.8
 21
38.2
 31
0.0
  0
LINE
  5
160
330
1E
100
AcDbEntity
  8
0
100
AcDbLine
 10
199.8
 20
38.2
 30
0.0
 11
203.2
 21
42.6
 31
0.0
  0
LINE
  5
162
330
1E
100
AcDbEntity
  8
0
100
AcDbLine
 10
199.2499999999999
 20
38.75
 30
0.0
 11
202.7
 21
43.17499999999999
 31
0.0
  0
LINE
  5
163
330
1E
100
AcDbEntity
  8
0
100
AcDbLine
 10
202.7
 20
43.17499999999999
 30
0.0
 11
204.8
 21
48.275
 31
0.0
  0
LINE
  5
165
330
1E
100
AcDbEntity
  8
0
100
AcDbLine
 10
203.2
 20
42.6
 30
0.0
 11
205.2
 21
47.6
 31
0.0
  0
LINE
  5
166
330
1E
100
AcDbEntity
  8
0
100
AcDbLine
 10
204.8
 20
48.275
 30
0.0
 11
205.55
 21
53.0
 31
0.0
  0
LINE
  5
168
330
1E
100
AcDbEntity
  8
0
100
AcDbLine
 10
202.7
 20
62.825
 30
0.0
 11
204.8
 21
57.725
 31
0.0
  0
LINE
  5
169
330
1E
100
AcDbEntity
  8
0
100
AcDbLine
 10
205.2
 20
47.6
 30
0.0
 11
206.0
 21
53.0
 31
0.0
  0
LINE
  5
16A
330
1E
100
AcDbEntity
  8
0
100
AcDbLine
 10
205.2
 20
58.39999999999999
 30
0.0
 11
206.0
 21
53.0
 31
0.0
  0
LINE
  5
16C
330
1E
100
AcDbEntity
  8
0
100
AcDbLine
 10
204.8
 20
57.725
 30
0.0
 11
205.55
 21
53.0
 31
0.0
  0
LINE
  5
16D
330
1E
100
AcDbEntity
  8
0
100
AcDbLine
 10
193.805
 20
64.7612
 30
0.0
 11
194.0609999999999
 21
64.7971
 31
0.0
  0
LINE
  5
16E
330
1E
100
AcDbEntity
  8
0
100
AcDbLine
 10
194.0609999999999
 20
64.7971
 30
0.0
 11
194.3009999999999
 21
64.893
 31
0.0
  0
LINE
  5
16F
330
1E
100
AcDbEntity
  8
0
100
AcDbLine
 10
194.3009999999999
 20
64.893
 30
0.0
 11
194.5129999999999
 21
65.0528
 31
0.0
  0
LINE
  5
170
330
1E
100
AcDbEntity
  8
0
100
AcDbLine
 10
193.549
 20
64.7971
 30
0.0
 11
193.805
 21
64.7612
 31
0.0
  0
LINE
  5
171
330
1E
100
AcDbEntity
  8
0
100
AcDbLine
 10
194.5129999999999
 20
65.0528
 30
0.0
 11
194.673
 21
65.2645
 31
0.0
  0
LINE
  5
172
330
1E
100
AcDbEntity
  8
0
100
AcDbLine
 10
194.673
 20
65.2645
 30
0.0
 11
194.769
 21
65.50419999999999
 31
0.0
  0
LINE
  5
173
330
1E
100
AcDbEntity
  8
0
100
AcDbLine
 10
193.309
 20
64.893
 30
0.0
 11
193.549
 21
64.7971
 31
0.0
  0
LINE
  5
174
330
1E
100
AcDbEntity
  8
0
100
AcDbLine
 10
193.097
 20
65.0528
 30
0.0
 11
193.309
 21
64.893
 31
0.0
  0
LINE
  5
175
330
1E
100
AcDbEntity
  8
0
100
AcDbLine
 10
194.769
 20
65.50419999999999
 30
0.0
 11
194.805
 21
65.7598
 31
0.0
  0
LINE
  5
176
330
1E
100
AcDbEntity
  8
0
100
AcDbLine
 10
192.937
 20
65.2645
 30
0.0
 11
193.097
 21
65.0528
 31
0.0
  0
LINE
  5
177
330
1E
100
AcDbEntity
  8
0
100
AcDbLine
 10
192.8409999999999
 20
65.50419999999999
 30
0.0
 11
192.937
 21
65.2645
 31
0.0
  0
LINE
  5
178
330
1E
100
AcDbEntity
  8
0
100
AcDbLine
 10
192.8409999999999
 20
66.0155
 30
0.0
 11
192.937
 21
66.2551
 31
0.0
  0
LINE
  5
179
330
1E
100
AcDbEntity
  8
0
100
AcDbLine
 10
192.8049999999999
 20
65.7598
 30
0.0
 11
192.8409999999999
 21
66.0155
 31
0.0
  0
LINE
  5
17A
330
1E
100
AcDbEntity
  8
0
100
AcDbLine
 10
192.8049999999999
 20
65.7598
 30
0.0
 11
192.8409999999999
 21
65.50419999999999
 31
0.0
  0
LINE
  5
17B
330
1E
100
AcDbEntity
  8
0
100
AcDbLine
 10
193.097
 20
66.46689999999999
 30
0.0
 11
193.309
 21
66.62659999999999
 31
0.0
  0
LINE
  5
17C
330
1E
100
AcDbEntity
  8
0
100
AcDbLine
 10
192.937
 20
66.2551
 30
0.0
 11
193.097
 21
66.46689999999999
 31
0.0
  0
LINE
  5
17D
330
1E
100
AcDbEntity
  8
0
100
AcDbLine
 10
193.549
 20
66.7225
 30
0.0
 11
193.805
 21
66.7585
 31
0.0
  0
LINE
  5
17E
330
1E
100
AcDbEntity
  8
0
100
AcDbLine
 10
193.309
 20
66.62659999999999
 30
0.0
 11
193.549
 21
66.7225
 31
0.0
  0
LINE
  5
17F
330
1E
100
AcDbEntity
  8
0
100
AcDbLine
 10
193.805
 20
66.7585
 30
0.0
 11
194.0609999999999
 21
66.7225
 31
0.0
  0
LINE
  5
180
330
1E
100
AcDbEntity
  8
0
100
AcDbLine
 10
194.0609999999999
 20
66.7225
 30
0.0
 11
194.3009999999999
 21
66.62659999999999
 31
0.0
  0
LINE
  5
181
330
1E
100
AcDbEntity
  8
0
100
AcDbLine
 10
194.3009999999999
 20
66.62659999999999
 30
0.0
 11
194.5129999999999
 21
66.46689999999999
 31
0.0
  0
LINE
  5
182
330
1E
100
AcDbEntity
  8
0
100
AcDbLine
 10
194.5129999999999
 20
66.46689999999999
 30
0.0
 11
194.673
 21
66.2551
 31
0.0
  0
LINE
  5
183
330
1E
100
AcDbEntity
  8
0
100
AcDbLine
 10
194.673
 20
66.2551
 30
0.0
 11
194.769
 21
66.0155
 31
0.0
  0
LINE
  5
184
330
1E
100
AcDbEntity
  8
0
100
AcDbLine
 10
194.769
 20
66.0155
 30
0.0
 11
194.805
 21
65.7598
 31
0.0
  0
LINE
  5
185
330
1E
100
AcDbEntity
  8
0
100
AcDbLine
 10
197.0
 20
69.96363636363639
 30
0.0
 11
199.8
 21
67.8
 31
0.0
  0
LINE
  5
186
330
1E
100
AcDbEntity
  8
0
100
AcDbLine
 10
194.8249999999999
 20
70.7
 30
0.0
 11
199.2499999999999
 21
67.25
 31
0.0
  0
LINE
  5
187
330
1E
100
AcDbEntity
  8
0
100
AcDbLine
 10
199.2499999999999
 20
67.25
 30
0.0
 11
202.7
 21
62.825
 31
0.0
  0
LINE
  5
189
330
1E
100
AcDbEntity
  8
0
100
AcDbLine
 10
197.0
 20
69.6044655737705
 30
0.0
 11
197.0
 21
131.0
 31
0.0
  0
LINE
  5
18A
330
1E
100
AcDbEntity
  8
0
100
AcDbLine
 10
196.0
 20
135.732708688245
 30
0.0
 11
196.0
 21
219.0539999999999
 31
0.0
  0
LINE
  5
18B
330
1E
100
AcDbEntity
  8
0
100
AcDbLine
 10
196.1
 20
135.4999999999999
 30
0.0
 11
196.6
 21
134.0999999999999
 31
0.0
  0
LINE
  5
18C
330
1E
100
AcDbEntity
  8
0
100
AcDbLine
 10
196.6
 20
134.0999999999999
 30
0.0
 11
196.9
 21
132.4999999999999
 31
0.0
  0
LINE
  5
18D
330
1E
100
AcDbEntity
  8
0
100
AcDbLine
 10
199.0999999999999
 20
96.0
 30
0.0
 11
202.3
 21
96.0
 31
0.0
  0
LINE
  5
18E
330
1E
100
AcDbEntity
  8
0
100
AcDbLine
 10
197.0
 20
96.0
 30
0.0
 11
199.0999999999999
 21
96.0
 31
0.0
  0
LINE
  5
18F
330
1E
100
AcDbEntity
  8
0
100
AcDbLine
 10
197.0
 20
95.0
 30
0.0
 11
199.8
 21
95.0
 31
0.0
  0
LINE
  5
190
330
1E
100
AcDbEntity
  8
0
100
AcDbLine
 10
196.9
 20
132.4999999999999
 30
0.0
 11
197.0
 21
131.0
 31
0.0
  0
LINE
  5
191
330
1E
100
AcDbEntity
  8
0
100
AcDbLine
 10
195.513
 20
136.866
 30
0.0
 11
196.1
 21
135.4999999999999
 31
0.0
  0
LINE
  5
192
330
1E
100
AcDbEntity
  8
0
100
AcDbLine
 10
194.644
 20
138.242
 30
0.0
 11
195.513
 21
136.866
 31
0.0
  0
LINE
  5
193
330
1E
100
AcDbEntity
  8
0
100
AcDbLine
 10
192.6579999999999
 20
244.6699999999999
 30
0.0
 11
195.214
 21
231.912
 31
0.0
  0
LINE
  5
194
330
1E
100
AcDbEntity
  8
0
100
AcDbLine
 10
196.0
 20
219.0539999999999
 30
0.0
 11
196.0
 21
135.732708688245
 31
0.0
  0
LINE
  5
195
330
1E
100
AcDbEntity
  8
0
100
AcDbLine
 10
195.214
 20
231.912
 30
0.0
 11
196.0
 21
219.0539999999999
 31
0.0
  0
LINE
  5
196
330
1E
100
AcDbEntity
  8
0
100
AcDbLine
 10
193.5359999999999
 20
139.589
 30
0.0
 11
194.644
 21
138.242
 31
0.0
  0
LINE
  5
197
330
1E
100
AcDbEntity
  8
0
100
AcDbLine
 10
192.242
 20
140.644
 30
0.0
 11
193.5359999999999
 21
139.589
 31
0.0
  0
LINE
  5
199
330
1E
100
AcDbEntity
  8
0
100
AcDbLine
 10
199.8
 20
67.8
 30
0.0
 11
203.2
 21
63.39999999999999
 31
0.0
  0
LINE
  5
19A
330
1E
100
AcDbEntity
  8
0
100
AcDbLine
 10
203.2
 20
63.39999999999999
 30
0.0
 11
205.2
 21
58.39999999999999
 31
0.0
  0
LINE
  5
19B
330
1E
100
AcDbEntity
  8
0
100
AcDbLine
 10
205.2
 20
95.0
 30
0.0
 11
206.0
 21
95.0
 31
0.0
  0
LINE
  5
19C
330
1E
100
AcDbEntity
  8
0
100
AcDbLine
 10
203.2
 20
95.0
 30
0.0
 11
205.2
 21
95.0
 31
0.0
  0
LINE
  5
19D
330
1E
100
AcDbEntity
  8
0
100
AcDbLine
 10
205.0
 20
96.0
 30
0.0
 11
206.0
 21
95.0
 31
0.0
  0
LINE
  5
19E
330
1E
100
AcDbEntity
  8
0
100
AcDbLine
 10
204.3
 20
96.0
 30
0.0
 11
205.0
 21
96.0
 31
0.0
  0
LINE
  5
19F
330
1E
100
AcDbEntity
  8
0
100
AcDbLine
 10
202.3
 20
96.0
 30
0.0
 11
204.3
 21
96.0
 31
0.0
  0
LINE
  5
1A0
330
1E
100
AcDbEntity
  8
0
100
AcDbLine
 10
199.8
 20
95.0
 30
0.0
 11
203.2
 21
95.0
 31
0.0
  0
LINE
  5
1A3
330
1E
100
AcDbEntity
  8
0
100
AcDbLine
 10
206.0
 20
95.0
 30
0.0
 11
206.0
 21
53.0
 31
0.0
  0
LINE
  5
1A4
330
1E
100
AcDbEntity
  8
0
100
AcDbLine
 10
206.0
 20
53.0
 30
0.0
 11
206.0
 21
95.0
 31
0.0
  0
LINE
  5
1A5
330
1E
100
AcDbEntity
  8
0
100
AcDbLine
 10
206.0
 20
53.0
 30
0.0
 11
206.0
 21
4.99999999999998
 31
0.0
  0
LINE
  5
1A7
330
1E
100
AcDbEntity
  8
0
100
AcDbLine
 10
206.0
 20
4.99999999999998
 30
0.0
 11
206.4999999999999
 21
3.499999999999979
 31
0.0
  0
LINE
  5
1A8
330
1E
100
AcDbEntity
  8
0
100
AcDbLine
 10
206.0
 20
4.99999999999998
 30
0.0
 11
206.0
 21
53.0
 31
0.0
  0
LINE
  5
1A9
330
1E
100
AcDbEntity
  8
0
100
AcDbLine
 10
206.4999999999999
 20
3.499999999999979
 30
0.0
 11
207.5
 21
2.999999999999979
 31
0.0
  0
LINE
  5
1AA
330
1E
100
AcDbEntity
  8
0
100
AcDbLine
 10
211.5
 20
2.999999999999979
 30
0.0
 11
212.0
 21
2.49999999999998
 31
0.0
  0
LINE
  5
1AB
330
1E
100
AcDbEntity
  8
0
100
AcDbLine
 10
212.0
 20
2.49999999999998
 30
0.0
 11
212.0
 21
-0.0000000000000215
 31
0.0
  0
LINE
  5
1AC
330
1E
100
AcDbEntity
  8
0
100
AcDbLine
 10
198.4
 20
-0.0000000000000207
 30
0.0
 11
204.0
 21
-0.000000000000021
 31
0.0
  0
LINE
  5
1AD
330
1E
100
AcDbEntity
  8
0
100
AcDbLine
 10
191.9
 20
-0.0000000000000203
 30
0.0
 11
198.4
 21
-0.0000000000000207
 31
0.0
  0
ENDSEC
  0
SECTION
  2
OBJECTS
  0
DICTIONARY
  5
C
330
0
100
AcDbDictionary
  3
ACAD_GROUP
350
D
  3
ACAD_LAYOUT
350
19
  3
ACAD_MLINESTYLE
350
16
  3
ACAD_PLOTSETTINGS
350
18
  3
ACAD_PLOTSTYLENAME
350
E
  3
ACDBHEADERROUNDTRIPXREC
350
1B5
  3
ACDBVARIABLEDICTIONARY
350
1B2
  0
DICTIONARY
  5
1D7
330
1E
100
AcDbDictionary
280
     1
  3
ACAD_LAYOUTSELFREF
360
1D8
  0
DICTIONARY
  5
1D5
330
1A
100
AcDbDictionary
280
     1
  3
ACAD_LAYOUTSELFREF
360
1D6
  0
DICTIONARY
  5
D
102
{ACAD_REACTORS
330
C
102
}
330
C
100
AcDbDictionary
  0
DICTIONARY
  5
19
102
{ACAD_REACTORS
330
C
102
}
330
C
100
AcDbDictionary
  0
DICTIONARY
  5
16
102
{ACAD_REACTORS
330
C
102
}
330
C
100
AcDbDictionary
  3
STANDARD
350
17
  0
DICTIONARY
  5
18
102
{ACAD_REACTORS
330
C
102
}
330
C
100
AcDbDictionary
  0
ACDBDICTIONARYWDFLT
  5
E
102
{ACAD_REACTORS
330
C
102
}
330
C
100
AcDbDictionary
281
     1
  3
Normal
350
F
100
AcDbDictionaryWithDefault
340
F
  0
DICTIONARY
  5
1B5
102
{ACAD_REACTORS
330
C
102
}
330
C
100
AcDbDictionary
  3
CEPSNTYPE
350
1BF
  3
FINGERPRINTGUID
350
1C0
  3
HYPERLINKBASE
350
1B8
  3
INSUNITS
350
1BE
  3
LAYOUTDICT
350
1BA
  3
LWETCUNION
350
1BD
  3
PLOTSETDICT
350
1BB
  3
PLOTSTYLNAMDICT
350
1BC
  3
PSVPSCALE
350
1C2
  3
PUCSBASE
350
1C5
  3
PUCSORGBACK
350
1CB
  3
PUCSORGBOTTOM
350
1C7
  3
PUCSORGFRONT
350
1CA
  3
PUCSORGLEFT
350
1C8
  3
PUCSORGRIGHT
350
1C9
  3
PUCSORGTOP
350
1C6
  3
PUCSORTHOREF
350
1C3
  3
PUCSORTHOVIEW
350
1C4
  3
STYLESHEET
350
1B9
  3
TSTACKALIGN
350
1B6
  3
TSTACKSIZE
350
1B7
  3
UCSBASE
350
1CE
  3
UCSORGBACK
350
1D4
  3
UCSORGBOTTOM
350
1D0
  3
UCSORGFRONT
350
1D3
  3
UCSORGLEFT
350
1D1
  3
UCSORGRIGHT
350
1D2
  3
UCSORGTOP
350
1CF
  3
UCSORTHOREF
350
1CC
  3
UCSORTHOVIEW
350
1CD
  3
VERSIONGUID
350
1C1
  0
DICTIONARY
  5
1B2
102
{ACAD_REACTORS
330
C
102
}
330
C
100
AcDbDictionary
  3
DIMASSOC
350
1B3
  0
XRECORD
  5
1D8
102
{ACAD_REACTORS
330
1D7
102
}
330
1D7
100
AcDbXrecord
340
1E
  0
XRECORD
  5
1D6
102
{ACAD_REACTORS
330
1D5
102
}
330
1D5
100
AcDbXrecord
340
1A
  0
MLINESTYLE
  5
17
102
{ACAD_REACTORS
330
16
102
}
330
16
100
AcDbMlineStyle
  2
STANDARD
 70
     0
  3

 62
   256
 51
90.0
 52
90.0
 71
     2
 49
0.5
 62
   256
  6
BYLAYER
 49
-0.5
 62
   256
  6
BYLAYER
  0
ACDBPLACEHOLDER
  5
F
102
{ACAD_REACTORS
330
E
102
}
330
E
100
AcDbPlaceHolder
280
     0
  0
XRECORD
  5
1BF
102
{ACAD_REACTORS
330
1B5
102
}
330
1B5
100
AcDbXrecord
 90
        0
  0
XRECORD
  5
1C0
102
{ACAD_REACTORS
330
1B5
102
}
330
1B5
100
AcDbXrecord
  1
{45879430-27F5-4CD7-AAC3-336A734298B3}
  0
XRECORD
  5
1B8
102
{ACAD_REACTORS
330
1B5
102
}
330
1B5
100
AcDbXrecord
  1

  0
XRECORD
  5
1BE
102
{ACAD_REACTORS
330
1B5
102
}
330
1B5
100
AcDbXrecord
 90
        0
  0
XRECORD
  5
1BA
102
{ACAD_REACTORS
330
1B5
102
}
330
1B5
100
AcDbXrecord
340
19
  0
XRECORD
  5
1BD
102
{ACAD_REACTORS
330
1B5
102
}
330
1B5
100
AcDbXrecord
 90
    10781
  0
XRECORD
  5
1BB
102
{ACAD_REACTORS
330
1B5
102
}
330
1B5
100
AcDbXrecord
340
18
  0
XRECORD
  5
1BC
102
{ACAD_REACTORS
330
1B5
102
}
330
1B5
100
AcDbXrecord
340
E
  0
XRECORD
  5
1C2
102
{ACAD_REACTORS
330
1B5
102
}
330
1B5
100
AcDbXrecord
 40
0.0
  0
XRECORD
  5
1C5
102
{ACAD_REACTORS
330
1B5
102
}
330
1B5
100
AcDbXrecord
340
0
  0
XRECORD
  5
1CB
102
{ACAD_REACTORS
330
1B5
102
}
330
1B5
100
AcDbXrecord
 10
0.0
 20
0.0
 30
0.0
  0
XRECORD
  5
1C7
102
{ACAD_REACTORS
330
1B5
102
}
330
1B5
100
AcDbXrecord
 10
0.0
 20
0.0
 30
0.0
  0
XRECORD
  5
1CA
102
{ACAD_REACTORS
330
1B5
102
}
330
1B5
100
AcDbXrecord
 10
0.0
 20
0.0
 30
0.0
  0
XRECORD
  5
1C8
102
{ACAD_REACTORS
330
1B5
102
}
330
1B5
100
AcDbXrecord
 10
0.0
 20
0.0
 30
0.0
  0
XRECORD
  5
1C9
102
{ACAD_REACTORS
330
1B5
102
}
330
1B5
100
AcDbXrecord
 10
0.0
 20
0.0
 30
0.0
  0
XRECORD
  5
1C6
102
{ACAD_REACTORS
330
1B5
102
}
330
1B5
100
AcDbXrecord
 10
0.0
 20
0.0
 30
0.0
  0
XRECORD
  5
1C3
102
{ACAD_REACTORS
330
1B5
102
}
330
1B5
100
AcDbXrecord
340
0
  0
XRECORD
  5
1C4
102
{ACAD_REACTORS
330
1B5
102
}
330
1B5
100
AcDbXrecord
 70
     0
  0
XRECORD
  5
1B9
102
{ACAD_REACTORS
330
1B5
102
}
330
1B5
100
AcDbXrecord
  1

  0
XRECORD
  5
1B6
102
{ACAD_REACTORS
330
1B5
102
}
330
1B5
100
AcDbXrecord
 90
        1
  0
XRECORD
  5
1B7
102
{ACAD_REACTORS
330
1B5
102
}
330
1B5
100
AcDbXrecord
 90
       70
  0
XRECORD
  5
1CE
102
{ACAD_REACTORS
330
1B5
102
}
330
1B5
100
AcDbXrecord
340
0
  0
XRECORD
  5
1D4
102
{ACAD_REACTORS
330
1B5
102
}
330
1B5
100
AcDbXrecord
 10
0.0
 20
0.0
 30
0.0
  0
XRECORD
  5
1D0
102
{ACAD_REACTORS
330
1B5
102
}
330
1B5
100
AcDbXrecord
 10
0.0
 20
0.0
 30
0.0
  0
XRECORD
  5
1D3
102
{ACAD_REACTORS
330
1B5
102
}
330
1B5
100
AcDbXrecord
 10
0.0
 20
0.0
 30
0.0
  0
XRECORD
  5
1D1
102
{ACAD_REACTORS
330
1B5
102
}
330
1B5
100
AcDbXrecord
 10
0.0
 20
0.0
 30
0.0
  0
XRECORD
  5
1D2
102
{ACAD_REACTORS
330
1B5
102
}
330
1B5
100
AcDbXrecord
 10
0.0
 20
0.0
 30
0.0
  0
XRECORD
  5
1CF
102
{ACAD_REACTORS
330
1B5
102
}
330
1B5
100
AcDbXrecord
 10
0.0
 20
0.0
 30
0.0
  0
XRECORD
  5
1CC
102
{ACAD_REACTORS
330
1B5
102
}
330
1B5
100
AcDbXrecord
340
0
  0
XRECORD
  5
1CD
102
{ACAD_REACTORS
330
1B5
102
}
330
1B5
100
AcDbXrecord
 70
     1
  0
XRECORD
  5
1C1
102
{ACAD_REACTORS
330
1B5
102
}
330
1B5
100
AcDbXrecord
  1
{16F04A8E-7164-4B4C-86F2-F0F5E69F2970}
  0
DICTIONARYVAR
  5
1B3
102
{ACAD_REACTORS
330
1B2
102
}
330
1B2
100
DictionaryVariables
280
     0
  1
1
  0
ENDSEC
  0
EOF
