  0
SECTION
  2
HEADER
  9
$ACADVER
  1
AC1014
  9
$ACADMAINTVER
 70
     9
  9
$DWGCODEPAGE
  3
ANSI_1252
  9
$INSBASE
 10
0.0
 20
0.0
 30
0.0
  9
$EXTMIN
 10
0.000000000000004
 20
-0.0000000000000042
 30
0.0
  9
$EXTMAX
 10
143.0
 20
195.0
 30
0.0
  9
$LIMMIN
 10
0.0
 20
0.0
  9
$LIMMAX
 10
12.0
 20
9.0
  9
$ORTHOMODE
 70
     0
  9
$REGENMODE
 70
     1
  9
$FILLMODE
 70
     1
  9
$QTEXTMODE
 70
     0
  9
$MIRRTEXT
 70
     1
  9
$DRAGMODE
 70
     2
  9
$LTSCALE
 40
1.0
  9
$OSMODE
 70
    37
  9
$ATTMODE
 70
     1
  9
$TEXTSIZE
 40
0.2
  9
$TRACEWID
 40
0.05
  9
$TEXTSTYLE
  7
STANDARD
  9
$CLAYER
  8
0
  9
$CELTYPE
  6
CONTINUOUS
  9
$CECOLOR
 62
   256
  9
$CELTSCALE
 40
1.0
  9
$DELOBJ
 70
     1
  9
$DISPSILH
 70
     0
  9
$DIMSCALE
 40
1.0
  9
$DIMASZ
 40
0.18
  9
$DIMEXO
 40
0.0625
  9
$DIMDLI
 40
0.38
  9
$DIMRND
 40
0.0
  9
$DIMDLE
 40
0.0
  9
$DIMEXE
 40
0.18
  9
$DIMTP
 40
0.0
  9
$DIMTM
 40
0.0
  9
$DIMTXT
 40
0.18
  9
$DIMCEN
 40
0.09
  9
$DIMTSZ
 40
0.0
  9
$DIMTOL
 70
     0
  9
$DIMLIM
 70
     0
  9
$DIMTIH
 70
     1
  9
$DIMTOH
 70
     1
  9
$DIMSE1
 70
     0
  9
$DIMSE2
 70
     0
  9
$DIMTAD
 70
     0
  9
$DIMZIN
 70
     0
  9
$DIMBLK
  1

  9
$DIMASO
 70
     1
  9
$DIMSHO
 70
     1
  9
$DIMPOST
  1

  9
$DIMAPOST
  1

  9
$DIMALT
 70
     0
  9
$DIMALTD
 70
     2
  9
$DIMALTF
 40
25.4
  9
$DIMLFAC
 40
1.0
  9
$DIMTOFL
 70
     0
  9
$DIMTVP
 40
0.0
  9
$DIMTIX
 70
     0
  9
$DIMSOXD
 70
     0
  9
$DIMSAH
 70
     0
  9
$DIMBLK1
  1

  9
$DIMBLK2
  1

  9
$DIMSTYLE
  2
STANDARD
  9
$DIMCLRD
 70
     0
  9
$DIMCLRE
 70
     0
  9
$DIMCLRT
 70
     0
  9
$DIMTFAC
 40
1.0
  9
$DIMGAP
 40
0.09
  9
$DIMJUST
 70
     0
  9
$DIMSD1
 70
     0
  9
$DIMSD2
 70
     0
  9
$DIMTOLJ
 70
     1
  9
$DIMTZIN
 70
     0
  9
$DIMALTZ
 70
     0
  9
$DIMALTTZ
 70
     0
  9
$DIMFIT
 70
     3
  9
$DIMUPT
 70
     0
  9
$DIMUNIT
 70
     2
  9
$DIMDEC
 70
     4
  9
$DIMTDEC
 70
     4
  9
$DIMALTU
 70
     2
  9
$DIMALTTD
 70
     2
  9
$DIMTXSTY
  7
STANDARD
  9
$DIMAUNIT
 70
     0
  9
$LUNITS
 70
     2
  9
$LUPREC
 70
     4
  9
$SKETCHINC
 40
0.1
  9
$FILLETRAD
 40
0.0
  9
$AUNITS
 70
     0
  9
$AUPREC
 70
     0
  9
$MENU
  1
.
  9
$ELEVATION
 40
0.0
  9
$PELEVATION
 40
0.0
  9
$THICKNESS
 40
0.0
  9
$LIMCHECK
 70
     0
  9
$BLIPMODE
 70
     0
  9
$CHAMFERA
 40
0.0
  9
$CHAMFERB
 40
0.0
  9
$CHAMFERC
 40
0.0
  9
$CHAMFERD
 40
0.0
  9
$SKPOLY
 70
     0
  9
$TDCREATE
 40
2454690.733697187
  9
$TDUPDATE
 40
2454690.736067164
  9
$TDINDWG
 40
0.0023699769
  9
$TDUSRTIMER
 40
0.0023699769
  9
$USRTIMER
 70
     1
  9
$ANGBASE
 50
0.0
  9
$ANGDIR
 70
     0
  9
$PDMODE
 70
     0
  9
$PDSIZE
 40
0.0
  9
$PLINEWID
 40
0.0
  9
$COORDS
 70
     1
  9
$SPLFRAME
 70
     0
  9
$SPLINETYPE
 70
     6
  9
$SPLINESEGS
 70
     8
  9
$ATTDIA
 70
     0
  9
$ATTREQ
 70
     1
  9
$HANDLING
 70
 22529
  9
$HANDSEED
  5
19B
  9
$SURFTAB1
 70
     6
  9
$SURFTAB2
 70
     6
  9
$SURFTYPE
 70
     6
  9
$SURFU
 70
     6
  9
$SURFV
 70
     6
  9
$UCSNAME
  2

  9
$UCSORG
 10
0.0
 20
0.0
 30
0.0
  9
$UCSXDIR
 10
1.0
 20
0.0
 30
0.0
  9
$UCSYDIR
 10
0.0
 20
1.0
 30
0.0
  9
$PUCSNAME
  2

  9
$PUCSORG
 10
0.0
 20
0.0
 30
0.0
  9
$PUCSXDIR
 10
1.0
 20
0.0
 30
0.0
  9
$PUCSYDIR
 10
0.0
 20
1.0
 30
0.0
  9
$USERI1
 70
     0
  9
$USERI2
 70
     0
  9
$USERI3
 70
     0
  9
$USERI4
 70
     0
  9
$USERI5
 70
     0
  9
$USERR1
 40
0.0
  9
$USERR2
 40
0.0
  9
$USERR3
 40
0.0
  9
$USERR4
 40
0.0
  9
$USERR5
 40
0.0
  9
$WORLDVIEW
 70
     1
  9
$SHADEDGE
 70
     3
  9
$SHADEDIF
 70
    70
  9
$TILEMODE
 70
     1
  9
$MAXACTVP
 70
    64
  9
$PINSBASE
 10
0.0
 20
0.0
 30
0.0
  9
$PLIMCHECK
 70
     0
  9
$PEXTMIN
 10
1.000000000000000E+20
 20
1.000000000000000E+20
 30
1.000000000000000E+20
  9
$PEXTMAX
 10
-1.000000000000000E+20
 20
-1.000000000000000E+20
 30
-1.000000000000000E+20
  9
$PLIMMIN
 10
0.0
 20
0.0
  9
$PLIMMAX
 10
12.0
 20
9.0
  9
$UNITMODE
 70
     0
  9
$VISRETAIN
 70
     1
  9
$PLINEGEN
 70
     0
  9
$PSLTSCALE
 70
     1
  9
$TREEDEPTH
 70
  3020
  9
$PICKSTYLE
 70
     1
  9
$CMLSTYLE
  2
STANDARD
  9
$CMLJUST
 70
     0
  9
$CMLSCALE
 40
1.0
  9
$PROXYGRAPHICS
 70
     1
  9
$MEASUREMENT
 70
     0
  0
ENDSEC
  0
SECTION
  2
CLASSES
  0
CLASS
  1
ACDBDICTIONARYWDFLT
  2
AcDbDictionaryWithDefault
  3
AutoCAD 2000
 90
        0
280
     0
281
     0
  0
CLASS
  1
ACDBPLACEHOLDER
  2
AcDbPlaceHolder
  3
AutoCAD 2000
 90
        0
280
     0
281
     0
  0
CLASS
  1
LAYOUT
  2
AcDbLayout
  3
AutoCAD 2000
 90
        0
280
     0
281
     0
  0
CLASS
  1
DICTIONARYVAR
  2
AcDbDictionaryVar
  3
AutoCAD 2000
 90
        0
280
     0
281
     0
  0
CLASS
  1
LONG_TRANSACTION
  2
AcDbLongTransaction
  3
AutoCAD 2000
 90
        0
280
     0
281
     0
  0
CLASS
  1
LWPOLYLINE
  2
AcDbPolyline
  3
AutoCAD 2000
 90
        0
280
     0
281
     1
  0
CLASS
  1
HATCH
  2
AcDbHatch
  3
AutoCAD 2000
 90
        0
280
     0
281
     1
  0
CLASS
  1
XRECORD
  2
AcDbXrecord
  3
AutoCAD 2000
 90
        0
280
     0
281
     0
  0
ENDSEC
  0
SECTION
  2
TABLES
  0
TABLE
  2
VPORT
  5
8
330
0
100
AcDbSymbolTable
 70
     2
  0
VPORT
  5
176
330
8
100
AcDbSymbolTableRecord
100
AcDbViewportTableRecord
  2
*ACTIVE
 70
     0
 10
0.0
 20
0.0
 11
1.0
 21
1.0
 12
71.5
 22
97.5
 13
0.0
 23
0.0
 14
1.0
 24
1.0
 15
0.0
 25
0.0
 16
0.0
 26
0.0
 36
1.0
 17
0.0
 27
0.0
 37
0.0
 40
196.4961636828644
 41
2.043533930857874
 42
50.0
 43
0.0
 44
0.0
 50
0.0
 51
0.0
 71
     0
 72
   100
 73
     1
 74
     3
 75
     0
 76
     0
 77
     0
 78
     0
  0
ENDTAB
  0
TABLE
  2
LTYPE
  5
5
330
0
100
AcDbSymbolTable
 70
     1
  0
LTYPE
  5
13
330
5
100
AcDbSymbolTableRecord
100
AcDbLinetypeTableRecord
  2
BYBLOCK
 70
     0
  3

 72
    65
 73
     0
 40
0.0
  0
LTYPE
  5
14
330
5
100
AcDbSymbolTableRecord
100
AcDbLinetypeTableRecord
  2
BYLAYER
 70
     0
  3

 72
    65
 73
     0
 40
0.0
  0
LTYPE
  5
15
330
5
100
AcDbSymbolTableRecord
100
AcDbLinetypeTableRecord
  2
CONTINUOUS
 70
     0
  3
Solid line
 72
    65
 73
     0
 40
0.0
  0
ENDTAB
  0
TABLE
  2
LAYER
  5
2
330
0
100
AcDbSymbolTable
 70
     1
  0
LAYER
  5
10
330
2
100
AcDbSymbolTableRecord
100
AcDbLayerTableRecord
  2
0
 70
     0
 62
     7
  6
CONTINUOUS
  0
ENDTAB
  0
TABLE
  2
STYLE
  5
3
330
0
100
AcDbSymbolTable
 70
     1
  0
STYLE
  5
11
330
3
100
AcDbSymbolTableRecord
100
AcDbTextStyleTableRecord
  2
STANDARD
 70
     0
 40
0.0
 41
1.0
 50
0.0
 71
     0
 42
0.2
  3
txt
  4

  0
ENDTAB
  0
TABLE
  2
VIEW
  5
6
330
0
100
AcDbSymbolTable
 70
     0
  0
ENDTAB
  0
TABLE
  2
UCS
  5
7
330
0
100
AcDbSymbolTable
 70
     0
  0
ENDTAB
  0
TABLE
  2
APPID
  5
9
330
0
100
AcDbSymbolTable
 70
     1
  0
APPID
  5
12
330
9
100
AcDbSymbolTableRecord
100
AcDbRegAppTableRecord
  2
ACAD
 70
     0
  0
ENDTAB
  0
TABLE
  2
DIMSTYLE
  5
A
330
0
100
AcDbSymbolTable
 70
     1
  0
DIMSTYLE
105
16C
330
A
100
AcDbSymbolTableRecord
100
AcDbDimStyleTableRecord
  2
STANDARD
 70
     0
  3

  4

  5

  6

  7

 40
1.0
 41
0.18
 42
0.0625
 43
0.38
 44
0.18
 45
0.0
 46
0.0
 47
0.0
 48
0.0
140
0.18
141
0.09
142
0.0
143
25.4
144
1.0
145
0.0
146
1.0
147
0.09
 71
     0
 72
     0
 73
     1
 74
     1
 75
     0
 76
     0
 77
     0
 78
     0
170
     0
171
     2
172
     0
173
     0
174
     0
175
     0
176
     0
177
     0
178
     0
270
     2
271
     4
272
     4
273
     2
274
     2
340
11
275
     0
280
     0
281
     0
282
     0
283
     1
284
     0
285
     0
286
     0
287
     3
288
     0
  0
ENDTAB
  0
TABLE
  2
BLOCK_RECORD
  5
1
330
0
100
AcDbSymbolTable
 70
     0
  0
BLOCK_RECORD
  5
1E
102
{ACAD_XDICTIONARY
360
199
102
}
330
1
100
AcDbSymbolTableRecord
100
AcDbBlockTableRecord
  2
*MODEL_SPACE
  0
BLOCK_RECORD
  5
1A
102
{ACAD_XDICTIONARY
360
197
102
}
330
1
100
AcDbSymbolTableRecord
100
AcDbBlockTableRecord
  2
*PAPER_SPACE
  0
ENDTAB
  0
ENDSEC
  0
SECTION
  2
BLOCKS
  0
BLOCK
  5
1F
330
1E
100
AcDbEntity
  8
0
100
AcDbBlockBegin
  2
*MODEL_SPACE
 70
     0
 10
0.0
 20
0.0
 30
0.0
  3
*MODEL_SPACE
  1

  0
ENDBLK
  5
20
330
1E
100
AcDbEntity
  8
0
100
AcDbBlockEnd
  0
BLOCK
  5
1B
330
1A
100
AcDbEntity
 67
     1
  8
0
100
AcDbBlockBegin
  2
*PAPER_SPACE
 70
     0
 10
0.0
 20
0.0
 30
0.0
  3
*PAPER_SPACE
  1

  0
ENDBLK
  5
1C
330
1A
100
AcDbEntity
 67
     1
  8
0
100
AcDbBlockEnd
  0
ENDSEC
  0
SECTION
  2
ENTITIES
  0
LINE
  5
22
330
1E
100
AcDbEntity
  8
0
100
AcDbLine
 10
9.65818000000001
 20
49.7311
 30
0.0
 11
11.92849999999999
 21
45.79849999999999
 31
0.0
  0
LINE
  5
23
330
1E
100
AcDbEntity
  8
0
100
AcDbLine
 10
11.92849999999999
 20
45.79849999999999
 30
0.0
 11
13.4364
 21
43.1904
 31
0.0
  0
LINE
  5
24
330
1E
100
AcDbEntity
  8
0
100
AcDbLine
 10
19.9872
 20
50.4745
 30
0.0
 11
21.4951
 21
47.8664
 31
0.0
  0
LINE
  5
25
330
1E
100
AcDbEntity
  8
0
100
AcDbLine
 10
13.4364
 20
43.1904
 30
0.0
 11
13.9831
 21
42.2509
 31
0.0
  0
LINE
  5
26
330
1E
100
AcDbEntity
  8
0
100
AcDbLine
 10
13.9831
 20
42.2509
 30
0.0
 11
22.0418
 21
46.9269
 31
0.0
  0
LINE
  5
27
330
1E
100
AcDbEntity
  8
0
100
AcDbLine
 10
21.4951
 20
47.8664
 30
0.0
 11
22.0418
 21
46.9269
 31
0.0
  0
LINE
  5
28
330
1E
100
AcDbEntity
  8
0
100
AcDbLine
 10
4.307059999999999
 20
59.0116
 30
0.0
 11
6.98748
 21
54.3613
 31
0.0
  0
LINE
  5
29
330
1E
100
AcDbEntity
  8
0
100
AcDbLine
 10
6.98748
 20
54.3613
 30
0.0
 11
9.65818000000001
 21
49.7311
 31
0.0
  0
LINE
  5
2A
330
1E
100
AcDbEntity
  8
0
100
AcDbLine
 10
15.0462
 20
59.03719999999999
 30
0.0
 11
17.71689999999999
 21
54.4071
 31
0.0
  0
LINE
  5
2B
330
1E
100
AcDbEntity
  8
0
100
AcDbLine
 10
17.71689999999999
 20
54.4071
 30
0.0
 11
19.9872
 21
50.4745
 31
0.0
  0
LINE
  5
2C
330
1E
100
AcDbEntity
  8
0
100
AcDbLine
 10
2.04092
 20
62.94669999999999
 30
0.0
 11
4.307059999999999
 21
59.0116
 31
0.0
  0
LINE
  5
2D
330
1E
100
AcDbEntity
  8
0
100
AcDbLine
 10
2.04092
 20
62.94669999999999
 30
0.0
 11
4.307059999999999
 21
59.0116
 31
0.0
  0
LINE
  5
2E
330
1E
100
AcDbEntity
  8
0
100
AcDbLine
 10
12.3657
 20
63.6876
 30
0.0
 11
15.0462
 21
59.03719999999999
 31
0.0
  0
LINE
  5
2F
330
1E
100
AcDbEntity
  8
0
100
AcDbLine
 10
15.4235
 20
59.22679999999999
 30
0.0
 11
18.099
 21
54.58639999999999
 31
0.0
  0
LINE
  5
30
330
1E
100
AcDbEntity
  8
0
100
AcDbLine
 10
18.099
 20
54.58639999999999
 30
0.0
 11
20.3672
 21
50.6526
 31
0.0
  0
LINE
  5
31
330
1E
100
AcDbEntity
  8
0
100
AcDbLine
 10
20.3672
 20
50.6526
 30
0.0
 11
21.8828
 21
48.0241
 31
0.0
  0
LINE
  5
32
330
1E
100
AcDbEntity
  8
0
100
AcDbLine
 10
21.8568266883002
 20
47.25067314944429
 30
0.0
 11
22.0418
 21
46.9269
 31
0.0
  0
LINE
  5
33
330
1E
100
AcDbEntity
  8
0
100
AcDbLine
 10
22.4149
 20
47.1011
 30
0.0
 11
61.6415
 21
69.8801
 31
0.0
  0
LINE
  5
34
330
1E
100
AcDbEntity
  8
0
100
AcDbLine
 10
21.8828
 20
48.0241
 30
0.0
 11
22.4149
 21
47.1011
 31
0.0
  0
LINE
  5
35
330
1E
100
AcDbEntity
  8
0
100
AcDbLine
 10
21.85276053982619
 20
47.2517629464667
 30
0.0
 11
22.4149
 21
47.1011
 31
0.0
  0
LINE
  5
36
330
1E
100
AcDbEntity
  8
0
100
AcDbLine
 10
0.000000000000004
 20
66.50199999999999
 30
0.0
 11
8.058650000000008
 21
71.17799999999999
 31
0.0
  0
LINE
  5
37
330
1E
100
AcDbEntity
  8
0
100
AcDbLine
 10
0.0000000000000041
 20
66.50199999999999
 30
0.0
 11
8.058650000000008
 21
71.17799999999999
 31
0.0
  0
LINE
  5
38
330
1E
100
AcDbEntity
  8
0
100
AcDbLine
 10
0.0000000000000041
 20
66.50199999999999
 30
0.0
 11
0.528488000000004
 21
65.5769
 31
0.0
  0
LINE
  5
39
330
1E
100
AcDbEntity
  8
0
100
AcDbLine
 10
0.0000000000000042
 20
66.50199999999999
 30
0.0
 11
0.528488000000004
 21
65.5769
 31
0.0
  0
LINE
  5
3A
330
1E
100
AcDbEntity
  8
0
100
AcDbLine
 10
0.528488000000004
 20
65.5769
 30
0.0
 11
2.04092
 21
62.94669999999999
 31
0.0
  0
LINE
  5
3B
330
1E
100
AcDbEntity
  8
0
100
AcDbLine
 10
0.528488000000004
 20
65.5769
 30
0.0
 11
2.04092
 21
62.94669999999999
 31
0.0
  0
LINE
  5
3C
330
1E
100
AcDbEntity
  8
0
100
AcDbLine
 10
8.58719000000001
 20
70.2529
 30
0.0
 11
10.0996
 21
67.62260000000001
 31
0.0
  0
LINE
  5
3D
330
1E
100
AcDbEntity
  8
0
100
AcDbLine
 10
10.0996
 20
67.62260000000001
 30
0.0
 11
12.3657
 21
63.6876
 31
0.0
  0
LINE
  5
3E
330
1E
100
AcDbEntity
  8
0
100
AcDbLine
 10
8.058650000000008
 20
71.17799999999999
 30
0.0
 11
8.58719000000001
 21
70.2529
 31
0.0
  0
LINE
  5
3F
330
1E
100
AcDbEntity
  8
0
100
AcDbLine
 10
8.058650000000008
 20
71.17799999999999
 30
0.0
 11
8.28281886055768
 21
70.792833298872
 31
0.0
  0
LINE
  5
40
330
1E
100
AcDbEntity
  8
0
100
AcDbLine
 10
8.281514521462099
 20
70.7879217300401
 30
0.0
 11
8.431419999999999
 21
71.3524
 31
0.0
  0
LINE
  5
41
330
1E
100
AcDbEntity
  8
0
100
AcDbLine
 10
8.431420000000009
 20
71.3524
 30
0.0
 11
66.6014
 21
105.121
 31
0.0
  0
LINE
  5
42
330
1E
100
AcDbEntity
  8
0
100
AcDbLine
 10
8.431419999999999
 20
71.3524
 30
0.0
 11
8.964030000000009
 21
70.4293
 31
0.0
  0
LINE
  5
43
330
1E
100
AcDbEntity
  8
0
100
AcDbLine
 10
8.431419999999999
 20
71.3524
 30
0.0
 11
66.6014
 21
105.121
 31
0.0
  0
LINE
  5
44
330
1E
100
AcDbEntity
  8
0
100
AcDbLine
 10
8.964030000000009
 20
70.4293
 30
0.0
 11
10.4801
 21
67.80079999999999
 31
0.0
  0
LINE
  5
45
330
1E
100
AcDbEntity
  8
0
100
AcDbLine
 10
64.1344
 20
70.5523
 30
0.0
 11
66.6285
 21
69.8841
 31
0.0
  0
LINE
  5
46
330
1E
100
AcDbEntity
  8
0
100
AcDbLine
 10
61.6415
 20
69.8801
 30
0.0
 11
64.1344
 21
70.5523
 31
0.0
  0
LINE
  5
47
330
1E
100
AcDbEntity
  8
0
100
AcDbLine
 10
68.4553
 20
68.0543
 30
0.0
 11
69.1255
 21
65.5535
 31
0.0
  0
LINE
  5
48
330
1E
100
AcDbEntity
  8
0
100
AcDbLine
 10
66.6285
 20
69.8841
 30
0.0
 11
68.4553
 21
68.0543
 31
0.0
  0
LINE
  5
49
330
1E
100
AcDbEntity
  8
0
100
AcDbLine
 10
66.6014
 20
105.121
 30
0.0
 11
68.41639999999999
 21
106.9379999999999
 31
0.0
  0
LINE
  5
4A
330
1E
100
AcDbEntity
  8
0
100
AcDbLine
 10
68.41639999999999
 20
106.9379999999999
 30
0.0
 11
69.09159999999999
 21
109.4379999999999
 31
0.0
  0
LINE
  5
4B
330
1E
100
AcDbEntity
  8
0
100
AcDbLine
 10
10.4801
 20
67.80079999999999
 30
0.0
 11
12.7479
 21
63.8671
 31
0.0
  0
LINE
  5
4C
330
1E
100
AcDbEntity
  8
0
100
AcDbLine
 10
12.7479
 20
63.8671
 30
0.0
 11
15.4235
 21
59.22679999999999
 31
0.0
  0
LINE
  5
4D
330
1E
100
AcDbEntity
  8
0
100
AcDbLine
 10
69.18919999999999
 20
-0.0000000000000042
 30
0.0
 11
69.64919999999999
 21
0.0003659999999958
 31
0.0
  0
LINE
  5
4E
330
1E
100
AcDbEntity
  8
0
100
AcDbLine
 10
69.64919999999999
 20
0.0003659999999958
 30
0.0
 11
71.0114
 21
0.0014509999999957
 31
0.0
  0
LINE
  5
4F
330
1E
100
AcDbEntity
  8
0
100
AcDbLine
 10
69.64919999999999
 20
0.0003659999999958
 30
0.0
 11
71.0114
 21
0.0014509999999957
 31
0.0
  0
LINE
  5
50
330
1E
100
AcDbEntity
  8
0
100
AcDbLine
 10
69.18919999999999
 20
-0.0000000000000042
 30
0.0
 11
69.64919999999999
 21
0.0003659999999958
 31
0.0
  0
LINE
  5
56
330
1E
100
AcDbEntity
  8
0
100
AcDbLine
 10
69.09159999999999
 20
109.4559999999999
 30
0.0
 11
69.18000000000001
 21
109.327
 31
0.0
  0
LINE
  5
57
330
1E
100
AcDbEntity
  8
0
100
AcDbLine
 10
69.1255
 20
65.5535
 30
0.0
 11
69.18919999999999
 21
-0.0000000000000042
 31
0.0
  0
LINE
  5
58
330
1E
100
AcDbEntity
  8
0
100
AcDbLine
 10
69.1255
 20
65.5535
 30
0.0
 11
69.18919999999999
 21
0.0
 31
0.0
  0
LINE
  5
59
330
1E
100
AcDbEntity
  8
0
100
AcDbLine
 10
69.08669999999999
 20
114.5639999999999
 30
0.0
 11
69.58499999999999
 21
115.0649999999999
 31
0.0
  0
LINE
  5
5A
330
1E
100
AcDbEntity
  8
0
100
AcDbLine
 10
69.08669999999999
 20
114.5639999999999
 30
0.0
 11
69.5467
 21
114.5639999999999
 31
0.0
  0
LINE
  5
5B
330
1E
100
AcDbEntity
  8
0
100
AcDbLine
 10
69.08669999999999
 20
114.5639999999999
 30
0.0
 11
69.09159999999999
 21
109.4379999999999
 31
0.0
  0
LINE
  5
5C
330
1E
100
AcDbEntity
  8
0
100
AcDbLine
 10
69.5467
 20
114.5639999999999
 30
0.0
 11
70.9089
 21
114.565
 31
0.0
  0
LINE
  5
5D
330
1E
100
AcDbEntity
  8
0
100
AcDbLine
 10
73.2234
 20
0.0032119999999956
 30
0.0
 11
76.2004
 21
0.0055819999999954
 31
0.0
  0
LINE
  5
5E
330
1E
100
AcDbEntity
  8
0
100
AcDbLine
 10
71.0114
 20
0.0014509999999957
 30
0.0
 11
73.2234
 21
0.0032119999999956
 31
0.0
  0
LINE
  5
5F
330
1E
100
AcDbEntity
  8
0
100
AcDbLine
 10
70.9089
 20
114.565
 30
0.0
 11
73.0770908276875
 21
114.566960300916
 31
0.0
  0
LINE
  5
60
330
1E
100
AcDbEntity
  8
0
100
AcDbLine
 10
73.121
 20
114.567
 30
0.0
 11
76.0979
 21
114.569
 31
0.0
  0
LINE
  5
61
330
1E
100
AcDbEntity
  8
0
100
AcDbLine
 10
79.8279
 20
0.0084699999999952
 30
0.0
 11
83.96649999999999
 21
0.0117649999999949
 31
0.0
  0
LINE
  5
62
330
1E
100
AcDbEntity
  8
0
100
AcDbLine
 10
76.2004
 20
0.0055819999999954
 30
0.0
 11
79.8279
 21
0.0084699999999952
 31
0.0
  0
LINE
  5
63
330
1E
100
AcDbEntity
  8
0
100
AcDbLine
 10
76.0979
 20
114.569
 30
0.0
 11
79.72539999999999
 21
114.572
 31
0.0
  0
LINE
  5
64
330
1E
100
AcDbEntity
  8
0
100
AcDbLine
 10
79.72539999999999
 20
114.572
 30
0.0
 11
83.864
 21
114.576
 31
0.0
  0
LINE
  5
65
330
1E
100
AcDbEntity
  8
0
100
AcDbLine
 10
83.96649999999999
 20
0.0117649999999949
 30
0.0
 11
88.4571
 21
0.0153399999999947
 31
0.0
  0
LINE
  5
66
330
1E
100
AcDbEntity
  8
0
100
AcDbLine
 10
88.4571
 20
0.0153399999999947
 30
0.0
 11
93.1272
 21
0.0190579999999944
 31
0.0
  0
LINE
  5
67
330
1E
100
AcDbEntity
  8
0
100
AcDbLine
 10
83.864
 20
114.576
 30
0.0
 11
88.35460000000001
 21
114.5789999999999
 31
0.0
  0
LINE
  5
68
330
1E
100
AcDbEntity
  8
0
100
AcDbLine
 10
88.35460000000001
 20
114.5789999999999
 30
0.0
 11
93.02469999999999
 21
114.5829999999999
 31
0.0
  0
LINE
  5
69
330
1E
100
AcDbEntity
  8
0
100
AcDbLine
 10
97.79720000000001
 20
0.0227759999999941
 30
0.0
 11
102.288
 21
0.0263509999999938
 31
0.0
  0
LINE
  5
6A
330
1E
100
AcDbEntity
  8
0
100
AcDbLine
 10
93.1272
 20
0.0190579999999944
 30
0.0
 11
97.79720000000001
 21
0.0227759999999941
 31
0.0
  0
LINE
  5
6B
330
1E
100
AcDbEntity
  8
0
100
AcDbLine
 10
93.02469999999999
 20
114.5829999999999
 30
0.0
 11
97.6947
 21
114.587
 31
0.0
  0
LINE
  5
6C
330
1E
100
AcDbEntity
  8
0
100
AcDbLine
 10
97.6947
 20
114.587
 30
0.0
 11
102.185
 21
114.59
 31
0.0
  0
LINE
  5
6D
330
1E
100
AcDbEntity
  8
0
100
AcDbLine
 10
106.4259999999999
 20
0.0296459999999936
 30
0.0
 11
110.054
 21
0.0325329999999934
 31
0.0
  0
LINE
  5
6E
330
1E
100
AcDbEntity
  8
0
100
AcDbLine
 10
102.288
 20
0.0263509999999938
 30
0.0
 11
106.4259999999999
 21
0.0296459999999936
 31
0.0
  0
LINE
  5
6F
330
1E
100
AcDbEntity
  8
0
100
AcDbLine
 10
102.185
 20
114.59
 30
0.0
 11
106.3239999999999
 21
114.5939999999999
 31
0.0
  0
LINE
  5
70
330
1E
100
AcDbEntity
  8
0
100
AcDbLine
 10
106.3239999999999
 20
114.5939999999999
 30
0.0
 11
109.951
 21
114.596
 31
0.0
  0
LINE
  5
71
330
1E
100
AcDbEntity
  8
0
100
AcDbLine
 10
113.031
 20
0.0349039999999932
 30
0.0
 11
115.243
 21
0.036664999999993
 31
0.0
  0
LINE
  5
72
330
1E
100
AcDbEntity
  8
0
100
AcDbLine
 10
110.054
 20
0.0325329999999934
 30
0.0
 11
113.031
 21
0.0349039999999932
 31
0.0
  0
LINE
  5
73
330
1E
100
AcDbEntity
  8
0
100
AcDbLine
 10
109.951
 20
114.596
 30
0.0
 11
112.928
 21
114.5989999999999
 31
0.0
  0
LINE
  5
74
330
1E
100
AcDbEntity
  8
0
100
AcDbLine
 10
112.928
 20
114.5989999999999
 30
0.0
 11
115.1399999999999
 21
114.6009999999999
 31
0.0
  0
LINE
  5
75
330
1E
100
AcDbEntity
  8
0
100
AcDbLine
 10
115.243
 20
0.036664999999993
 30
0.0
 11
116.605
 21
0.037747999999993
 31
0.0
  0
LINE
  5
76
330
1E
100
AcDbEntity
  8
0
100
AcDbLine
 10
115.1399999999999
 20
114.6009999999999
 30
0.0
 11
116.5029999999999
 21
114.602
 31
0.0
  0
LINE
  5
77
330
1E
100
AcDbEntity
  8
0
100
AcDbLine
 10
69.08629999999999
 20
115.0649999999999
 30
0.0
 11
69.5463
 21
115.0649999999999
 31
0.0
  0
LINE
  5
78
330
1E
100
AcDbEntity
  8
0
100
AcDbLine
 10
69.07049999999999
 20
135.0759999999999
 30
0.0
 11
69.08629999999999
 21
115.0649999999999
 31
0.0
  0
LINE
  5
79
330
1E
100
AcDbEntity
  8
0
100
AcDbLine
 10
69.07049999999999
 20
135.0759999999999
 30
0.0
 11
69.53050000000001
 21
135.0759999999999
 31
0.0
  0
LINE
  5
7A
330
1E
100
AcDbEntity
  8
0
100
AcDbLine
 10
70.8927
 20
135.077
 30
0.0
 11
73.1048
 21
135.079
 31
0.0
  0
LINE
  5
7B
330
1E
100
AcDbEntity
  8
0
100
AcDbLine
 10
69.53050000000001
 20
135.0759999999999
 30
0.0
 11
70.8927
 21
135.077
 31
0.0
  0
LINE
  5
7D
330
1E
100
AcDbEntity
  8
0
100
AcDbLine
 10
72.4589
 20
191.77
 30
0.0
 11
89.70829999999999
 21
135.831
 31
0.0
  0
LINE
  5
7F
330
1E
100
AcDbEntity
  8
0
100
AcDbLine
 10
72.3582
 20
192.7409999999999
 30
0.0
 11
72.3609
 21
192.2509999999999
 31
0.0
  0
LINE
  5
80
330
1E
100
AcDbEntity
  8
0
100
AcDbLine
 10
72.3582
 20
192.7409999999999
 30
0.0
 11
72.451
 21
193.222
 31
0.0
  0
LINE
  5
82
330
1E
100
AcDbEntity
  8
0
100
AcDbLine
 10
72.9049
 20
194.0859999999999
 30
0.0
 11
73.2487
 21
194.434
 31
0.0
  0
LINE
  5
83
330
1E
100
AcDbEntity
  8
0
100
AcDbLine
 10
72.6356
 20
193.6759999999999
 30
0.0
 11
72.9049
 21
194.0859999999999
 31
0.0
  0
LINE
  5
84
330
1E
100
AcDbEntity
  8
0
100
AcDbLine
 10
72.451
 20
193.222
 30
0.0
 11
72.6356
 21
193.6759999999999
 31
0.0
  0
LINE
  5
85
330
1E
100
AcDbEntity
  8
0
100
AcDbLine
 10
72.3609
 20
192.2509999999999
 30
0.0
 11
72.4589
 21
191.77
 31
0.0
  0
LINE
  5
89
330
1E
100
AcDbEntity
  8
0
100
AcDbLine
 10
73.2487
 20
194.434
 30
0.0
 11
73.65359999999999
 21
194.709
 31
0.0
  0
LINE
  5
8C
330
1E
100
AcDbEntity
  8
0
100
AcDbLine
 10
73.1048
 20
135.079
 30
0.0
 11
76.0817
 21
135.081
 31
0.0
  0
LINE
  5
8D
330
1E
100
AcDbEntity
  8
0
100
AcDbLine
 10
73.12059999999999
 20
115.0679999999999
 30
0.0
 11
76.0975
 21
115.07
 31
0.0
  0
LINE
  5
8E
330
1E
100
AcDbEntity
  8
0
100
AcDbLine
 10
76.0817
 20
135.081
 30
0.0
 11
79.70919999999999
 21
135.084
 31
0.0
  0
LINE
  5
A4
330
1E
100
AcDbEntity
  8
0
100
AcDbLine
 10
76.9251
 20
193.8829999999999
 30
0.0
 11
78.9271
 21
190.714
 31
0.0
  0
LINE
  5
A5
330
1E
100
AcDbEntity
  8
0
100
AcDbLine
 10
76.7599
 20
194.107
 30
0.0
 11
76.9251
 21
193.8829999999999
 31
0.0
  0
LINE
  5
A6
330
1E
100
AcDbEntity
  8
0
100
AcDbLine
 10
76.4124
 20
194.4519999999999
 30
0.0
 11
76.7599
 21
194.107
 31
0.0
  0
LINE
  5
A7
330
1E
100
AcDbEntity
  8
0
100
AcDbLine
 10
76.00449999999999
 20
194.722
 30
0.0
 11
76.4124
 21
194.4519999999999
 31
0.0
  0
LINE
  5
A8
330
1E
100
AcDbEntity
  8
0
100
AcDbLine
 10
75.5519
 20
194.907
 30
0.0
 11
76.00449999999999
 21
194.722
 31
0.0
  0
LINE
  5
A9
330
1E
100
AcDbEntity
  8
0
100
AcDbLine
 10
75.0719
 20
195.0
 30
0.0
 11
75.5519
 21
194.907
 31
0.0
  0
LINE
  5
AA
330
1E
100
AcDbEntity
  8
0
100
AcDbLine
 10
74.5831
 20
194.997
 30
0.0
 11
75.0719
 21
195.0
 31
0.0
  0
LINE
  5
AB
330
1E
100
AcDbEntity
  8
0
100
AcDbLine
 10
74.10420000000001
 20
194.899
 30
0.0
 11
74.5831
 21
194.997
 31
0.0
  0
LINE
  5
AC
330
1E
100
AcDbEntity
  8
0
100
AcDbLine
 10
73.65359999999999
 20
194.709
 30
0.0
 11
74.10420000000001
 21
194.899
 31
0.0
  0
LINE
  5
AE
330
1E
100
AcDbEntity
  8
0
100
AcDbLine
 10
78.9271
 20
190.714
 30
0.0
 11
80.82449999999999
 21
187.481
 31
0.0
  0
LINE
  5
AF
330
1E
100
AcDbEntity
  8
0
100
AcDbLine
 10
79.70919999999999
 20
135.084
 30
0.0
 11
83.84780000000001
 21
135.0879999999999
 31
0.0
  0
LINE
  5
B0
330
1E
100
AcDbEntity
  8
0
100
AcDbLine
 10
80.82449999999999
 20
187.481
 30
0.0
 11
82.6152
 21
184.1879999999999
 31
0.0
  0
LINE
  5
B1
330
1E
100
AcDbEntity
  8
0
100
AcDbLine
 10
83.84780000000001
 20
135.0879999999999
 30
0.0
 11
88.3384
 21
135.091
 31
0.0
  0
LINE
  5
B2
330
1E
100
AcDbEntity
  8
0
100
AcDbLine
 10
87.32890000000001
 20
173.979
 30
0.0
 11
87.3972
 21
173.8009999999999
 31
0.0
  0
LINE
  5
B6
330
1E
100
AcDbEntity
  8
0
100
AcDbLine
 10
85.8692
 20
177.4329999999999
 30
0.0
 11
85.9308
 21
177.287
 31
0.0
  0
LINE
  5
B7
330
1E
100
AcDbEntity
  8
0
100
AcDbLine
 10
85.9308
 20
177.287
 30
0.0
 11
87.32890000000001
 21
173.979
 31
0.0
  0
LINE
  5
B8
330
1E
100
AcDbEntity
  8
0
100
AcDbLine
 10
82.6152
 20
184.1879999999999
 30
0.0
 11
85.8692
 21
177.4329999999999
 31
0.0
  0
LINE
  5
BB
330
1E
100
AcDbEntity
  8
0
100
AcDbLine
 10
88.3384
 20
135.091
 30
0.0
 11
93.00839999999999
 21
135.095
 31
0.0
  0
LINE
  5
BC
330
1E
100
AcDbEntity
  8
0
100
AcDbLine
 10
88.76350002542508
 20
135.0917562932749
 30
0.0
 11
88.9314
 21
135.246
 31
0.0
  0
LINE
  5
BD
330
1E
100
AcDbEntity
  8
0
100
AcDbLine
 10
88.9314
 20
135.246
 30
0.0
 11
89.70829999999999
 21
135.831
 31
0.0
  0
LINE
  5
CA
330
1E
100
AcDbEntity
  8
0
100
AcDbLine
 10
89.9061
 20
166.9359999999999
 30
0.0
 11
89.98139999999999
 21
166.694
 31
0.0
  0
LINE
  5
CB
330
1E
100
AcDbEntity
  8
0
100
AcDbLine
 10
89.98139999999999
 20
166.694
 30
0.0
 11
91.02070000000001
 21
163.3549999999999
 31
0.0
  0
LINE
  5
CC
330
1E
100
AcDbEntity
  8
0
100
AcDbLine
 10
88.67499999999999
 20
170.479
 30
0.0
 11
88.7479
 21
170.269
 31
0.0
  0
LINE
  5
CD
330
1E
100
AcDbEntity
  8
0
100
AcDbLine
 10
88.67499999999999
 20
170.479
 30
0.0
 11
89.9061
 21
166.9359999999999
 31
0.0
  0
LINE
  5
CF
330
1E
100
AcDbEntity
  8
0
100
AcDbLine
 10
91.02070000000001
 20
163.3549999999999
 30
0.0
 11
91.09659999999999
 21
163.08
 31
0.0
  0
LINE
  5
D2
330
1E
100
AcDbEntity
  8
0
100
AcDbLine
 10
91.09659999999999
 20
163.08
 30
0.0
 11
92.01779999999999
 21
159.739
 31
0.0
  0
LINE
  5
D3
330
1E
100
AcDbEntity
  8
0
100
AcDbLine
 10
92.89619999999999
 20
156.0929999999999
 30
0.0
 11
92.9667
 21
155.751
 31
0.0
  0
LINE
  5
D4
330
1E
100
AcDbEntity
  8
0
100
AcDbLine
 10
92.89619999999999
 20
156.0929999999999
 30
0.0
 11
93.655
 21
152.4189999999999
 31
0.0
  0
LINE
  5
D5
330
1E
100
AcDbEntity
  8
0
100
AcDbLine
 10
92.01779999999999
 20
159.739
 30
0.0
 11
92.092
 21
159.431
 31
0.0
  0
LINE
  5
D6
330
1E
100
AcDbEntity
  8
0
100
AcDbLine
 10
92.092
 20
159.431
 30
0.0
 11
92.89619999999999
 21
156.0929999999999
 31
0.0
  0
LINE
  5
DB
330
1E
100
AcDbEntity
  8
0
100
AcDbLine
 10
93.00839999999999
 20
135.095
 30
0.0
 11
97.67850000000001
 21
135.0989999999999
 31
0.0
  0
LINE
  5
E4
330
1E
100
AcDbEntity
  8
0
100
AcDbLine
 10
94.2933
 20
148.7229999999999
 30
0.0
 11
94.3501
 21
148.3139999999999
 31
0.0
  0
LINE
  5
E6
330
1E
100
AcDbEntity
  8
0
100
AcDbLine
 10
93.655
 20
152.4189999999999
 30
0.0
 11
93.71970000000001
 21
152.0439999999999
 31
0.0
  0
LINE
  5
EA
330
1E
100
AcDbEntity
  8
0
100
AcDbLine
 10
94.81050000000001
 20
145.007
 30
0.0
 11
94.8573
 21
144.5659999999999
 31
0.0
  0
LINE
  5
EF
330
1E
100
AcDbEntity
  8
0
100
AcDbLine
 10
95.47960000000001
 20
137.535
 30
0.0
 11
96.22430000000001
 21
137.5089999999999
 31
0.0
  0
LINE
  5
F0
330
1E
100
AcDbEntity
  8
0
100
AcDbLine
 10
96.22430000000001
 20
137.5089999999999
 30
0.0
 11
97.19329999999999
 21
137.37
 31
0.0
  0
LINE
  5
F4
330
1E
100
AcDbEntity
  8
0
100
AcDbLine
 10
94.8573
 20
144.5659999999999
 30
0.0
 11
95.47960000000001
 21
137.535
 31
0.0
  0
LINE
  5
100
330
1E
100
AcDbEntity
  8
0
100
AcDbLine
 10
98.14399999999999
 20
137.1369999999999
 30
0.0
 11
99.0674
 21
136.811
 31
0.0
  0
LINE
  5
101
330
1E
100
AcDbEntity
  8
0
100
AcDbLine
 10
97.19329999999999
 20
137.37
 30
0.0
 11
98.14399999999999
 21
137.1369999999999
 31
0.0
  0
LINE
  5
103
330
1E
100
AcDbEntity
  8
0
100
AcDbLine
 10
99.0674
 20
136.811
 30
0.0
 11
102.1689999999999
 21
135.102
 31
0.0
  0
LINE
  5
110
330
1E
100
AcDbEntity
  8
0
100
AcDbLine
 10
102.1689999999999
 20
135.102
 30
0.0
 11
106.308
 21
135.1059999999999
 31
0.0
  0
LINE
  5
111
330
1E
100
AcDbEntity
  8
0
100
AcDbLine
 10
97.67850000000001
 20
135.0989999999999
 30
0.0
 11
102.1689999999999
 21
135.102
 31
0.0
  0
LINE
  5
112
330
1E
100
AcDbEntity
  8
0
100
AcDbLine
 10
109.935
 20
135.108
 30
0.0
 11
112.912
 21
135.111
 31
0.0
  0
LINE
  5
113
330
1E
100
AcDbEntity
  8
0
100
AcDbLine
 10
106.308
 20
135.1059999999999
 30
0.0
 11
109.935
 21
135.108
 31
0.0
  0
LINE
  5
114
330
1E
100
AcDbEntity
  8
0
100
AcDbLine
 10
112.912
 20
135.111
 30
0.0
 11
115.124
 21
135.1129999999999
 31
0.0
  0
LINE
  5
115
330
1E
100
AcDbEntity
  8
0
100
AcDbLine
 10
116.0129999999999
 20
115.102
 30
0.0
 11
116.4451877058179
 21
115.102958287596
 31
0.0
  0
LINE
  5
116
330
1E
100
AcDbEntity
  8
0
100
AcDbLine
 10
114.6789999999999
 20
115.101
 30
0.0
 11
116.0129999999999
 21
115.102
 31
0.0
  0
LINE
  5
117
330
1E
100
AcDbEntity
  8
0
100
AcDbLine
 10
115.124
 20
135.1129999999999
 30
0.0
 11
116.486
 21
135.114
 31
0.0
  0
LINE
  5
118
330
1E
100
AcDbEntity
  8
0
100
AcDbLine
 10
116.486
 20
135.114
 30
0.0
 11
116.9459999999999
 21
135.114
 31
0.0
  0
LINE
  5
119
330
1E
100
AcDbEntity
  8
0
100
AcDbLine
 10
116.464027768462
 20
115.1029721202409
 30
0.0
 11
116.9629999999999
 21
114.602
 31
0.0
  0
LINE
  5
11A
330
1E
100
AcDbEntity
  8
0
100
AcDbLine
 10
115.1399999999999
 20
115.102
 30
0.0
 11
116.502
 21
115.1029999999999
 31
0.0
  0
LINE
  5
11B
330
1E
100
AcDbEntity
  8
0
100
AcDbLine
 10
115.1399999999999
 20
115.102
 30
0.0
 11
116.4451877058179
 21
115.102958287596
 31
0.0
  0
LINE
  5
11C
330
1E
100
AcDbEntity
  8
0
100
AcDbLine
 10
113.3610094339619
 20
115.1003915094339
 30
0.0
 11
114.6789999999999
 21
115.101
 31
0.0
  0
LINE
  5
11D
330
1E
100
AcDbEntity
  8
0
100
AcDbLine
 10
112.928
 20
115.1
 30
0.0
 11
115.1399999999999
 21
115.102
 31
0.0
  0
LINE
  5
11E
330
1E
100
AcDbEntity
  8
0
100
AcDbLine
 10
109.951
 20
115.097
 30
0.0
 11
112.928
 21
115.1
 31
0.0
  0
LINE
  5
11F
330
1E
100
AcDbEntity
  8
0
100
AcDbLine
 10
106.3229999999999
 20
115.0949999999999
 30
0.0
 11
109.951
 21
115.097
 31
0.0
  0
LINE
  5
120
330
1E
100
AcDbEntity
  8
0
100
AcDbLine
 10
106.046
 20
115.094
 30
0.0
 11
109.951
 21
115.097
 31
0.0
  0
LINE
  5
121
330
1E
100
AcDbEntity
  8
0
100
AcDbLine
 10
106.046
 20
115.094
 30
0.0
 11
108.934584126984
 21
115.0964396825399
 31
0.0
  0
LINE
  5
122
330
1E
100
AcDbEntity
  8
0
100
AcDbLine
 10
102.809953610965
 20
115.091604111755
 30
0.0
 11
106.046
 21
115.094
 31
0.0
  0
LINE
  5
123
330
1E
100
AcDbEntity
  8
0
100
AcDbLine
 10
102.185
 20
115.091
 30
0.0
 11
106.3229999999999
 21
115.0949999999999
 31
0.0
  0
LINE
  5
124
330
1E
100
AcDbEntity
  8
0
100
AcDbLine
 10
97.69429999999999
 20
115.0879999999999
 30
0.0
 11
102.185
 21
115.091
 31
0.0
  0
LINE
  5
125
330
1E
100
AcDbEntity
  8
0
100
AcDbLine
 10
93.02429999999999
 20
115.084
 30
0.0
 11
97.69429999999999
 21
115.0879999999999
 31
0.0
  0
LINE
  5
126
330
1E
100
AcDbEntity
  8
0
100
AcDbLine
 10
88.4515
 20
115.08
 30
0.0
 11
93.02429999999999
 21
115.084
 31
0.0
  0
LINE
  5
127
330
1E
100
AcDbEntity
  8
0
100
AcDbLine
 10
88.3542
 20
115.08
 30
0.0
 11
93.02429999999999
 21
115.084
 31
0.0
  0
LINE
  5
128
330
1E
100
AcDbEntity
  8
0
100
AcDbLine
 10
84.0545
 20
115.077
 30
0.0
 11
88.4515
 21
115.08
 31
0.0
  0
LINE
  5
129
330
1E
100
AcDbEntity
  8
0
100
AcDbLine
 10
83.86360000000001
 20
115.077
 30
0.0
 11
88.3542
 21
115.08
 31
0.0
  0
LINE
  5
12A
330
1E
100
AcDbEntity
  8
0
100
AcDbLine
 10
83.23885008698409
 20
115.0763961727029
 30
0.0
 11
84.0545
 21
115.077
 31
0.0
  0
LINE
  5
12B
330
1E
100
AcDbEntity
  8
0
100
AcDbLine
 10
83.23885008698409
 20
115.0763961727029
 30
0.0
 11
83.86360000000001
 21
115.077
 31
0.0
  0
LINE
  5
12C
330
1E
100
AcDbEntity
  8
0
100
AcDbLine
 10
79.725
 20
115.073
 30
0.0
 11
83.86360000000001
 21
115.077
 31
0.0
  0
LINE
  5
12D
330
1E
100
AcDbEntity
  8
0
100
AcDbLine
 10
76.0975
 20
115.07
 30
0.0
 11
79.725
 21
115.073
 31
0.0
  0
LINE
  5
12E
330
1E
100
AcDbEntity
  8
0
100
AcDbLine
 10
73.53530000000001
 20
115.0679999999999
 30
0.0
 11
76.0975
 21
115.07
 31
0.0
  0
LINE
  5
12F
330
1E
100
AcDbEntity
  8
0
100
AcDbLine
 10
73.53530000000001
 20
115.0679999999999
 30
0.0
 11
74.3149504434116
 21
115.068802412203
 31
0.0
  0
LINE
  5
130
330
1E
100
AcDbEntity
  8
0
100
AcDbLine
 10
72.68790443375308
 20
115.067608792038
 30
0.0
 11
73.53530000000001
 21
115.0679999999999
 31
0.0
  0
LINE
  5
131
330
1E
100
AcDbEntity
  8
0
100
AcDbLine
 10
70.9085
 20
115.066
 30
0.0
 11
73.12059999999999
 21
115.0679999999999
 31
0.0
  0
LINE
  5
132
330
1E
100
AcDbEntity
  8
0
100
AcDbLine
 10
69.5463
 20
115.0649999999999
 30
0.0
 11
70.9085
 21
115.066
 31
0.0
  0
LINE
  5
133
330
1E
100
AcDbEntity
  8
0
100
AcDbLine
 10
69.5463
 20
115.0649999999999
 30
0.0
 11
69.6041165606493
 21
115.065042443518
 31
0.0
  0
LINE
  5
134
330
1E
100
AcDbEntity
  8
0
100
AcDbLine
 10
117.028580310659
 20
40.9438114301522
 30
0.0
 11
117.0649999999999
 21
0.0381139999999929
 31
0.0
  0
LINE
  5
135
330
1E
100
AcDbEntity
  8
0
100
AcDbLine
 10
116.605
 20
0.037747999999993
 30
0.0
 11
117.0649999999999
 21
0.0381139999999929
 31
0.0
  0
LINE
  5
136
330
1E
100
AcDbEntity
  8
0
100
AcDbLine
 10
128.037
 20
50.0471
 30
0.0
 11
142.998
 21
50.04699999999999
 31
0.0
  0
LINE
  5
137
330
1E
100
AcDbEntity
  8
0
100
AcDbLine
 10
142.998
 20
50.04699999999999
 30
0.0
 11
142.9989999999999
 21
50.23579999999999
 31
0.0
  0
LINE
  5
138
330
1E
100
AcDbEntity
  8
0
100
AcDbLine
 10
125.875
 20
51.30169999999999
 30
0.0
 11
126.702
 21
50.8228
 31
0.0
  0
LINE
  5
139
330
1E
100
AcDbEntity
  8
0
100
AcDbLine
 10
126.702
 20
50.8228
 30
0.0
 11
127.4029999999999
 21
50.4162
 31
0.0
  0
LINE
  5
13A
330
1E
100
AcDbEntity
  8
0
100
AcDbLine
 10
127.4029999999999
 20
50.4162
 30
0.0
 11
127.872
 21
50.1438
 31
0.0
  0
LINE
  5
13B
330
1E
100
AcDbEntity
  8
0
100
AcDbLine
 10
142.997
 20
50.2389
 30
0.0
 11
142.998
 21
50.04699999999999
 31
0.0
  0
LINE
  5
13C
330
1E
100
AcDbEntity
  8
0
100
AcDbLine
 10
142.997
 20
50.2389
 30
0.0
 11
142.997
 21
50.7825
 31
0.0
  0
LINE
  5
13D
330
1E
100
AcDbEntity
  8
0
100
AcDbLine
 10
142.9989999999999
 20
50.23579999999999
 30
0.0
 11
142.9989999999999
 21
50.7769
 31
0.0
  0
LINE
  5
13E
330
1E
100
AcDbEntity
  8
0
100
AcDbLine
 10
142.997
 20
50.7825
 30
0.0
 11
142.997
 21
50.2389
 31
0.0
  0
LINE
  5
13F
330
1E
100
AcDbEntity
  8
0
100
AcDbLine
 10
142.9989999999999
 20
50.7769
 30
0.0
 11
143.0
 21
51.5875
 31
0.0
  0
LINE
  5
140
330
1E
100
AcDbEntity
  8
0
100
AcDbLine
 10
142.9989999999999
 20
50.7769
 30
0.0
 11
142.9989999999999
 21
50.23579999999999
 31
0.0
  0
LINE
  5
141
330
1E
100
AcDbEntity
  8
0
100
AcDbLine
 10
127.872
 20
50.1438
 30
0.0
 11
128.037
 21
50.0471
 31
0.0
  0
LINE
  5
142
330
1E
100
AcDbEntity
  8
0
100
AcDbLine
 10
117.028580310659
 20
40.9438114301522
 30
0.0
 11
123.7
 21
52.5567
 31
0.0
  0
LINE
  5
143
330
1E
100
AcDbEntity
  8
0
100
AcDbLine
 10
123.8809999999999
 20
52.4548
 30
0.0
 11
124.3489999999999
 21
52.1849
 31
0.0
  0
LINE
  5
144
330
1E
100
AcDbEntity
  8
0
100
AcDbLine
 10
142.996
 20
51.5948
 30
0.0
 11
142.997
 21
50.7825
 31
0.0
  0
LINE
  5
145
330
1E
100
AcDbEntity
  8
0
100
AcDbLine
 10
142.996
 20
51.5948
 30
0.0
 11
142.996
 21
52.5524
 31
0.0
  0
LINE
  5
146
330
1E
100
AcDbEntity
  8
0
100
AcDbLine
 10
143.0
 20
51.5875
 30
0.0
 11
143.0
 21
52.5444
 31
0.0
  0
LINE
  5
147
330
1E
100
AcDbEntity
  8
0
100
AcDbLine
 10
125.0489999999999
 20
51.7801
 30
0.0
 11
125.875
 21
51.30169999999999
 31
0.0
  0
LINE
  5
148
330
1E
100
AcDbEntity
  8
0
100
AcDbLine
 10
124.3489999999999
 20
52.1849
 30
0.0
 11
125.0489999999999
 21
51.7801
 31
0.0
  0
LINE
  5
149
330
1E
100
AcDbEntity
  8
0
100
AcDbLine
 10
125.031
 20
51.7894
 30
0.0
 11
125.858
 21
51.3117
 31
0.0
  0
LINE
  5
14A
330
1E
100
AcDbEntity
  8
0
100
AcDbLine
 10
124.331
 20
52.1937
 30
0.0
 11
125.031
 21
51.7894
 31
0.0
  0
LINE
  5
14B
330
1E
100
AcDbEntity
  8
0
100
AcDbLine
 10
143.0
 20
53.502
 30
0.0
 11
143.0
 21
52.5444
 31
0.0
  0
LINE
  5
14C
330
1E
100
AcDbEntity
  8
0
100
AcDbLine
 10
142.996
 20
53.5094
 30
0.0
 11
142.996
 21
52.5524
 31
0.0
  0
LINE
  5
14D
330
1E
100
AcDbEntity
  8
0
100
AcDbLine
 10
142.996
 20
53.5094
 30
0.0
 11
142.997
 21
54.32
 31
0.0
  0
LINE
  5
14E
330
1E
100
AcDbEntity
  8
0
100
AcDbLine
 10
142.996
 20
52.5524
 30
0.0
 11
142.996
 21
51.5948
 31
0.0
  0
LINE
  5
14F
330
1E
100
AcDbEntity
  8
0
100
AcDbLine
 10
142.996
 20
52.5524
 30
0.0
 11
142.996
 21
53.5094
 31
0.0
  0
LINE
  5
150
330
1E
100
AcDbEntity
  8
0
100
AcDbLine
 10
143.0
 20
52.5444
 30
0.0
 11
143.0
 21
53.502
 31
0.0
  0
LINE
  5
151
330
1E
100
AcDbEntity
  8
0
100
AcDbLine
 10
143.0
 20
52.5444
 30
0.0
 11
143.0
 21
51.5875
 31
0.0
  0
LINE
  5
152
330
1E
100
AcDbEntity
  8
0
100
AcDbLine
 10
142.997
 20
54.32
 30
0.0
 11
142.997
 21
54.861
 31
0.0
  0
LINE
  5
153
330
1E
100
AcDbEntity
  8
0
100
AcDbLine
 10
142.9989999999999
 20
54.3143
 30
0.0
 11
142.9989999999999
 21
54.8579
 31
0.0
  0
LINE
  5
154
330
1E
100
AcDbEntity
  8
0
100
AcDbLine
 10
142.9989999999999
 20
54.3143
 30
0.0
 11
143.0
 21
53.502
 31
0.0
  0
LINE
  5
155
330
1E
100
AcDbEntity
  8
0
100
AcDbLine
 10
142.997
 20
54.861
 30
0.0
 11
142.997
 21
54.32
 31
0.0
  0
LINE
  5
156
330
1E
100
AcDbEntity
  8
0
100
AcDbLine
 10
142.997
 20
54.861
 30
0.0
 11
142.998
 21
55.04979999999999
 31
0.0
  0
LINE
  5
157
330
1E
100
AcDbEntity
  8
0
100
AcDbLine
 10
142.9989999999999
 20
54.8579
 30
0.0
 11
143.0
 21
53.502
 31
0.0
  0
LINE
  5
158
330
1E
100
AcDbEntity
  8
0
100
AcDbLine
 10
142.9989999999999
 20
54.8579
 30
0.0
 11
142.9989999999999
 21
54.3143
 31
0.0
  0
LINE
  5
159
330
1E
100
AcDbEntity
  8
0
100
AcDbLine
 10
142.998
 20
55.04979999999999
 30
0.0
 11
142.9989999999999
 21
54.8579
 31
0.0
  0
LINE
  5
15A
330
1E
100
AcDbEntity
  8
0
100
AcDbLine
 10
128.037
 20
55.0499
 30
0.0
 11
142.998
 21
55.04979999999999
 31
0.0
  0
LINE
  5
15B
330
1E
100
AcDbEntity
  8
0
100
AcDbLine
 10
127.046
 20
54.9501
 30
0.0
 11
128.037
 21
55.0499
 31
0.0
  0
LINE
  5
15C
330
1E
100
AcDbEntity
  8
0
100
AcDbLine
 10
126.095
 20
54.65489999999999
 30
0.0
 11
127.046
 21
54.9501
 31
0.0
  0
LINE
  5
15D
330
1E
100
AcDbEntity
  8
0
100
AcDbLine
 10
125.221
 20
54.17609999999999
 30
0.0
 11
126.095
 21
54.65489999999999
 31
0.0
  0
LINE
  5
15E
330
1E
100
AcDbEntity
  8
0
100
AcDbLine
 10
124.459
 20
53.5326
 30
0.0
 11
125.221
 21
54.17609999999999
 31
0.0
  0
LINE
  5
15F
330
1E
100
AcDbEntity
  8
0
100
AcDbLine
 10
123.7179999999999
 20
52.5485
 30
0.0
 11
123.8829999999999
 21
52.4518
 31
0.0
  0
LINE
  5
160
330
1E
100
AcDbEntity
  8
0
100
AcDbLine
 10
123.7179999999999
 20
52.5485
 30
0.0
 11
124.459
 21
53.5326
 31
0.0
  0
LINE
  5
161
330
1E
100
AcDbEntity
  8
0
100
AcDbLine
 10
123.7179999999999
 20
52.5485
 30
0.0
 11
123.8809999999999
 21
52.4548
 31
0.0
  0
LINE
  5
162
330
1E
100
AcDbEntity
  8
0
100
AcDbLine
 10
123.863
 20
52.4631
 30
0.0
 11
124.331
 21
52.1937
 31
0.0
  0
LINE
  5
163
330
1E
100
AcDbEntity
  8
0
100
AcDbLine
 10
123.7
 20
52.5567
 30
0.0
 11
123.863
 21
52.4631
 31
0.0
  0
LINE
  5
164
330
1E
100
AcDbEntity
  8
0
100
AcDbLine
 10
125.858
 20
51.3117
 30
0.0
 11
126.685
 21
50.83339999999999
 31
0.0
  0
LINE
  5
165
330
1E
100
AcDbEntity
  8
0
100
AcDbLine
 10
116.9629999999999
 20
114.602
 30
0.0
 11
117.028580310659
 21
40.9438114301522
 31
0.0
  0
LINE
  5
166
330
1E
100
AcDbEntity
  8
0
100
AcDbLine
 10
116.9629999999999
 20
114.602
 30
0.0
 11
117.028580310659
 21
40.9438114301522
 31
0.0
  0
LINE
  5
167
330
1E
100
AcDbEntity
  8
0
100
AcDbLine
 10
117.028580310659
 20
40.9438114301522
 30
0.0
 11
117.0649999999999
 21
0.0381139999999929
 31
0.0
  0
LINE
  5
168
330
1E
100
AcDbEntity
  8
0
100
AcDbLine
 10
117.0374873947999
 20
30.9395940559589
 30
0.0
 11
128.020044585371
 21
50.0570369005735
 31
0.0
  0
LINE
  5
169
330
1E
100
AcDbEntity
  8
0
100
AcDbLine
 10
116.5029999999999
 20
114.602
 30
0.0
 11
116.9629999999999
 21
114.602
 31
0.0
  0
LINE
  5
16A
330
1E
100
AcDbEntity
  8
0
100
AcDbLine
 10
116.9459999999999
 20
135.114
 30
0.0
 11
116.962
 21
115.1029999999999
 31
0.0
  0
LINE
  5
16B
330
1E
100
AcDbEntity
  8
0
100
AcDbLine
 10
116.502
 20
115.1029999999999
 30
0.0
 11
116.962
 21
115.1029999999999
 31
0.0
  0
LINE
  5
170
330
1E
100
AcDbEntity
  8
0
100
AcDbLine
 10
89.70829999999999
 20
135.831
 30
0.0
 11
95.47960000000001
 21
137.535
 31
0.0
  0
LINE
  5
171
330
1E
100
AcDbEntity
  8
0
100
AcDbLine
 10
94.3501
 20
148.3139999999999
 30
0.0
 11
94.81050000000001
 21
145.007
 31
0.0
  0
LINE
  5
172
330
1E
100
AcDbEntity
  8
0
100
AcDbLine
 10
94.2933
 20
148.7229999999999
 30
0.0
 11
93.71970000000001
 21
152.0439999999999
 31
0.0
  0
LINE
  5
173
330
1E
100
AcDbEntity
  8
0
100
AcDbLine
 10
87.3972
 20
173.8009999999999
 30
0.0
 11
88.67499999999999
 21
170.479
 31
0.0
  0
ENDSEC
  0
SECTION
  2
OBJECTS
  0
DICTIONARY
  5
C
330
0
100
AcDbDictionary
  3
ACAD_GROUP
350
D
  3
ACAD_LAYOUT
350
19
  3
ACAD_MLINESTYLE
350
16
  3
ACAD_PLOTSETTINGS
350
18
  3
ACAD_PLOTSTYLENAME
350
E
  3
ACDBHEADERROUNDTRIPXREC
350
177
  3
ACDBVARIABLEDICTIONARY
350
174
  0
DICTIONARY
  5
199
330
1E
100
AcDbDictionary
280
     1
  3
ACAD_LAYOUTSELFREF
360
19A
  0
DICTIONARY
  5
197
330
1A
100
AcDbDictionary
280
     1
  3
ACAD_LAYOUTSELFREF
360
198
  0
DICTIONARY
  5
D
102
{ACAD_REACTORS
330
C
102
}
330
C
100
AcDbDictionary
  0
DICTIONARY
  5
19
102
{ACAD_REACTORS
330
C
102
}
330
C
100
AcDbDictionary
  0
DICTIONARY
  5
16
102
{ACAD_REACTORS
330
C
102
}
330
C
100
AcDbDictionary
  3
STANDARD
350
17
  0
DICTIONARY
  5
18
102
{ACAD_REACTORS
330
C
102
}
330
C
100
AcDbDictionary
  0
ACDBDICTIONARYWDFLT
  5
E
102
{ACAD_REACTORS
330
C
102
}
330
C
100
AcDbDictionary
281
     1
  3
Normal
350
F
100
AcDbDictionaryWithDefault
340
F
  0
DICTIONARY
  5
177
102
{ACAD_REACTORS
330
C
102
}
330
C
100
AcDbDictionary
  3
CEPSNTYPE
350
181
  3
FINGERPRINTGUID
350
182
  3
HYPERLINKBASE
350
17A
  3
INSUNITS
350
180
  3
LAYOUTDICT
350
17C
  3
LWETCUNION
350
17F
  3
PLOTSETDICT
350
17D
  3
PLOTSTYLNAMDICT
350
17E
  3
PSVPSCALE
350
184
  3
PUCSBASE
350
187
  3
PUCSORGBACK
350
18D
  3
PUCSORGBOTTOM
350
189
  3
PUCSORGFRONT
350
18C
  3
PUCSORGLEFT
350
18A
  3
PUCSORGRIGHT
350
18B
  3
PUCSORGTOP
350
188
  3
PUCSORTHOREF
350
185
  3
PUCSORTHOVIEW
350
186
  3
STYLESHEET
350
17B
  3
TSTACKALIGN
350
178
  3
TSTACKSIZE
350
179
  3
UCSBASE
350
190
  3
UCSORGBACK
350
196
  3
UCSORGBOTTOM
350
192
  3
UCSORGFRONT
350
195
  3
UCSORGLEFT
350
193
  3
UCSORGRIGHT
350
194
  3
UCSORGTOP
350
191
  3
UCSORTHOREF
350
18E
  3
UCSORTHOVIEW
350
18F
  3
VERSIONGUID
350
183
  0
DICTIONARY
  5
174
102
{ACAD_REACTORS
330
C
102
}
330
C
100
AcDbDictionary
  3
DIMASSOC
350
175
  0
XRECORD
  5
19A
102
{ACAD_REACTORS
330
199
102
}
330
199
100
AcDbXrecord
340
1E
  0
XRECORD
  5
198
102
{ACAD_REACTORS
330
197
102
}
330
197
100
AcDbXrecord
340
1A
  0
MLINESTYLE
  5
17
102
{ACAD_REACTORS
330
16
102
}
330
16
100
AcDbMlineStyle
  2
STANDARD
 70
     0
  3

 62
   256
 51
90.0
 52
90.0
 71
     2
 49
0.5
 62
   256
  6
BYLAYER
 49
-0.5
 62
   256
  6
BYLAYER
  0
ACDBPLACEHOLDER
  5
F
102
{ACAD_REACTORS
330
E
102
}
330
E
100
AcDbPlaceHolder
280
     0
  0
XRECORD
  5
181
102
{ACAD_REACTORS
330
177
102
}
330
177
100
AcDbXrecord
 90
        0
  0
XRECORD
  5
182
102
{ACAD_REACTORS
330
177
102
}
330
177
100
AcDbXrecord
  1
{E8C90111-2937-467D-A54E-761CD7D654E2}
  0
XRECORD
  5
17A
102
{ACAD_REACTORS
330
177
102
}
330
177
100
AcDbXrecord
  1

  0
XRECORD
  5
180
102
{ACAD_REACTORS
330
177
102
}
330
177
100
AcDbXrecord
 90
        0
  0
XRECORD
  5
17C
102
{ACAD_REACTORS
330
177
102
}
330
177
100
AcDbXrecord
340
19
  0
XRECORD
  5
17F
102
{ACAD_REACTORS
330
177
102
}
330
177
100
AcDbXrecord
 90
    10781
  0
XRECORD
  5
17D
102
{ACAD_REACTORS
330
177
102
}
330
177
100
AcDbXrecord
340
18
  0
XRECORD
  5
17E
102
{ACAD_REACTORS
330
177
102
}
330
177
100
AcDbXrecord
340
E
  0
XRECORD
  5
184
102
{ACAD_REACTORS
330
177
102
}
330
177
100
AcDbXrecord
 40
0.0
  0
XRECORD
  5
187
102
{ACAD_REACTORS
330
177
102
}
330
177
100
AcDbXrecord
340
0
  0
XRECORD
  5
18D
102
{ACAD_REACTORS
330
177
102
}
330
177
100
AcDbXrecord
 10
0.0
 20
0.0
 30
0.0
  0
XRECORD
  5
189
102
{ACAD_REACTORS
330
177
102
}
330
177
100
AcDbXrecord
 10
0.0
 20
0.0
 30
0.0
  0
XRECORD
  5
18C
102
{ACAD_REACTORS
330
177
102
}
330
177
100
AcDbXrecord
 10
0.0
 20
0.0
 30
0.0
  0
XRECORD
  5
18A
102
{ACAD_REACTORS
330
177
102
}
330
177
100
AcDbXrecord
 10
0.0
 20
0.0
 30
0.0
  0
XRECORD
  5
18B
102
{ACAD_REACTORS
330
177
102
}
330
177
100
AcDbXrecord
 10
0.0
 20
0.0
 30
0.0
  0
XRECORD
  5
188
102
{ACAD_REACTORS
330
177
102
}
330
177
100
AcDbXrecord
 10
0.0
 20
0.0
 30
0.0
  0
XRECORD
  5
185
102
{ACAD_REACTORS
330
177
102
}
330
177
100
AcDbXrecord
340
0
  0
XRECORD
  5
186
102
{ACAD_REACTORS
330
177
102
}
330
177
100
AcDbXrecord
 70
     0
  0
XRECORD
  5
17B
102
{ACAD_REACTORS
330
177
102
}
330
177
100
AcDbXrecord
  1

  0
XRECORD
  5
178
102
{ACAD_REACTORS
330
177
102
}
330
177
100
AcDbXrecord
 90
        1
  0
XRECORD
  5
179
102
{ACAD_REACTORS
330
177
102
}
330
177
100
AcDbXrecord
 90
       70
  0
XRECORD
  5
190
102
{ACAD_REACTORS
330
177
102
}
330
177
100
AcDbXrecord
340
0
  0
XRECORD
  5
196
102
{ACAD_REACTORS
330
177
102
}
330
177
100
AcDbXrecord
 10
0.0
 20
0.0
 30
0.0
  0
XRECORD
  5
192
102
{ACAD_REACTORS
330
177
102
}
330
177
100
AcDbXrecord
 10
0.0
 20
0.0
 30
0.0
  0
XRECORD
  5
195
102
{ACAD_REACTORS
330
177
102
}
330
177
100
AcDbXrecord
 10
0.0
 20
0.0
 30
0.0
  0
XRECORD
  5
193
102
{ACAD_REACTORS
330
177
102
}
330
177
100
AcDbXrecord
 10
0.0
 20
0.0
 30
0.0
  0
XRECORD
  5
194
102
{ACAD_REACTORS
330
177
102
}
330
177
100
AcDbXrecord
 10
0.0
 20
0.0
 30
0.0
  0
XRECORD
  5
191
102
{ACAD_REACTORS
330
177
102
}
330
177
100
AcDbXrecord
 10
0.0
 20
0.0
 30
0.0
  0
XRECORD
  5
18E
102
{ACAD_REACTORS
330
177
102
}
330
177
100
AcDbXrecord
340
0
  0
XRECORD
  5
18F
102
{ACAD_REACTORS
330
177
102
}
330
177
100
AcDbXrecord
 70
     1
  0
XRECORD
  5
183
102
{ACAD_REACTORS
330
177
102
}
330
177
100
AcDbXrecord
  1
{46281811-FB4E-44D5-947C-95A338EE1FC2}
  0
DICTIONARYVAR
  5
175
102
{ACAD_REACTORS
330
174
102
}
330
174
100
DictionaryVariables
280
     0
  1
1
  0
ENDSEC
  0
EOF
