  0
SECTION
  2
HEADER
  9
$ACADVER
  1
AC1014
  9
$ACADMAINTVER
 70
     9
  9
$DWGCODEPAGE
  3
ANSI_1252
  9
$INSBASE
 10
0.0
 20
0.0
 30
0.0
  9
$EXTMIN
 10
0.154376184142771
 20
0.0547401893533169
 30
0.0
  9
$EXTMAX
 10
160.8456238158569
 20
209.945259810647
 30
0.0
  9
$LIMMIN
 10
0.0
 20
0.0
  9
$LIMMAX
 10
12.0
 20
9.0
  9
$ORTHOMODE
 70
     0
  9
$REGENMODE
 70
     1
  9
$FILLMODE
 70
     1
  9
$QTEXTMODE
 70
     0
  9
$MIRRTEXT
 70
     1
  9
$DRAGMODE
 70
     2
  9
$LTSCALE
 40
1.0
  9
$OSMODE
 70
    37
  9
$ATTMODE
 70
     1
  9
$TEXTSIZE
 40
0.2
  9
$TRACEWID
 40
0.05
  9
$TEXTSTYLE
  7
STANDARD
  9
$CLAYER
  8
0
  9
$CELTYPE
  6
CONTINUOUS
  9
$CECOLOR
 62
   256
  9
$CELTSCALE
 40
1.0
  9
$DELOBJ
 70
     1
  9
$DISPSILH
 70
     0
  9
$DIMSCALE
 40
1.0
  9
$DIMASZ
 40
0.18
  9
$DIMEXO
 40
0.0625
  9
$DIMDLI
 40
0.38
  9
$DIMRND
 40
0.0
  9
$DIMDLE
 40
0.0
  9
$DIMEXE
 40
0.18
  9
$DIMTP
 40
0.0
  9
$DIMTM
 40
0.0
  9
$DIMTXT
 40
0.18
  9
$DIMCEN
 40
0.09
  9
$DIMTSZ
 40
0.0
  9
$DIMTOL
 70
     0
  9
$DIMLIM
 70
     0
  9
$DIMTIH
 70
     1
  9
$DIMTOH
 70
     1
  9
$DIMSE1
 70
     0
  9
$DIMSE2
 70
     0
  9
$DIMTAD
 70
     0
  9
$DIMZIN
 70
     0
  9
$DIMBLK
  1

  9
$DIMASO
 70
     1
  9
$DIMSHO
 70
     1
  9
$DIMPOST
  1

  9
$DIMAPOST
  1

  9
$DIMALT
 70
     0
  9
$DIMALTD
 70
     2
  9
$DIMALTF
 40
25.4
  9
$DIMLFAC
 40
1.0
  9
$DIMTOFL
 70
     0
  9
$DIMTVP
 40
0.0
  9
$DIMTIX
 70
     0
  9
$DIMSOXD
 70
     0
  9
$DIMSAH
 70
     0
  9
$DIMBLK1
  1

  9
$DIMBLK2
  1

  9
$DIMSTYLE
  2
STANDARD
  9
$DIMCLRD
 70
     0
  9
$DIMCLRE
 70
     0
  9
$DIMCLRT
 70
     0
  9
$DIMTFAC
 40
1.0
  9
$DIMGAP
 40
0.09
  9
$DIMJUST
 70
     0
  9
$DIMSD1
 70
     0
  9
$DIMSD2
 70
     0
  9
$DIMTOLJ
 70
     1
  9
$DIMTZIN
 70
     0
  9
$DIMALTZ
 70
     0
  9
$DIMALTTZ
 70
     0
  9
$DIMFIT
 70
     3
  9
$DIMUPT
 70
     0
  9
$DIMUNIT
 70
     2
  9
$DIMDEC
 70
     4
  9
$DIMTDEC
 70
     4
  9
$DIMALTU
 70
     2
  9
$DIMALTTD
 70
     2
  9
$DIMTXSTY
  7
STANDARD
  9
$DIMAUNIT
 70
     0
  9
$LUNITS
 70
     2
  9
$LUPREC
 70
     4
  9
$SKETCHINC
 40
0.1
  9
$FILLETRAD
 40
0.0
  9
$AUNITS
 70
     0
  9
$AUPREC
 70
     0
  9
$MENU
  1
.
  9
$ELEVATION
 40
0.0
  9
$PELEVATION
 40
0.0
  9
$THICKNESS
 40
0.0
  9
$LIMCHECK
 70
     0
  9
$BLIPMODE
 70
     0
  9
$CHAMFERA
 40
0.0
  9
$CHAMFERB
 40
0.0
  9
$CHAMFERC
 40
0.0
  9
$CHAMFERD
 40
0.0
  9
$SKPOLY
 70
     0
  9
$TDCREATE
 40
2454690.723594826
  9
$TDUPDATE
 40
2454690.724453298
  9
$TDINDWG
 40
0.0008584722
  9
$TDUSRTIMER
 40
0.0008584722
  9
$USRTIMER
 70
     1
  9
$ANGBASE
 50
0.0
  9
$ANGDIR
 70
     0
  9
$PDMODE
 70
     0
  9
$PDSIZE
 40
0.0
  9
$PLINEWID
 40
0.0
  9
$COORDS
 70
     1
  9
$SPLFRAME
 70
     0
  9
$SPLINETYPE
 70
     6
  9
$SPLINESEGS
 70
     8
  9
$ATTDIA
 70
     0
  9
$ATTREQ
 70
     1
  9
$HANDLING
 70
 22529
  9
$HANDSEED
  5
1AB
  9
$SURFTAB1
 70
     6
  9
$SURFTAB2
 70
     6
  9
$SURFTYPE
 70
     6
  9
$SURFU
 70
     6
  9
$SURFV
 70
     6
  9
$UCSNAME
  2

  9
$UCSORG
 10
0.0
 20
0.0
 30
0.0
  9
$UCSXDIR
 10
1.0
 20
0.0
 30
0.0
  9
$UCSYDIR
 10
0.0
 20
1.0
 30
0.0
  9
$PUCSNAME
  2

  9
$PUCSORG
 10
0.0
 20
0.0
 30
0.0
  9
$PUCSXDIR
 10
1.0
 20
0.0
 30
0.0
  9
$PUCSYDIR
 10
0.0
 20
1.0
 30
0.0
  9
$USERI1
 70
     0
  9
$USERI2
 70
     0
  9
$USERI3
 70
     0
  9
$USERI4
 70
     0
  9
$USERI5
 70
     0
  9
$USERR1
 40
0.0
  9
$USERR2
 40
0.0
  9
$USERR3
 40
0.0
  9
$USERR4
 40
0.0
  9
$USERR5
 40
0.0
  9
$WORLDVIEW
 70
     1
  9
$SHADEDGE
 70
     3
  9
$SHADEDIF
 70
    70
  9
$TILEMODE
 70
     1
  9
$MAXACTVP
 70
    64
  9
$PINSBASE
 10
0.0
 20
0.0
 30
0.0
  9
$PLIMCHECK
 70
     0
  9
$PEXTMIN
 10
1.000000000000000E+20
 20
1.000000000000000E+20
 30
1.000000000000000E+20
  9
$PEXTMAX
 10
-1.000000000000000E+20
 20
-1.000000000000000E+20
 30
-1.000000000000000E+20
  9
$PLIMMIN
 10
0.0
 20
0.0
  9
$PLIMMAX
 10
12.0
 20
9.0
  9
$UNITMODE
 70
     0
  9
$VISRETAIN
 70
     1
  9
$PLINEGEN
 70
     0
  9
$PSLTSCALE
 70
     1
  9
$TREEDEPTH
 70
  3020
  9
$PICKSTYLE
 70
     1
  9
$CMLSTYLE
  2
STANDARD
  9
$CMLJUST
 70
     0
  9
$CMLSCALE
 40
1.0
  9
$PROXYGRAPHICS
 70
     1
  9
$MEASUREMENT
 70
     0
  0
ENDSEC
  0
SECTION
  2
CLASSES
  0
CLASS
  1
ACDBDICTIONARYWDFLT
  2
AcDbDictionaryWithDefault
  3
AutoCAD 2000
 90
        0
280
     0
281
     0
  0
CLASS
  1
ACDBPLACEHOLDER
  2
AcDbPlaceHolder
  3
AutoCAD 2000
 90
        0
280
     0
281
     0
  0
CLASS
  1
LAYOUT
  2
AcDbLayout
  3
AutoCAD 2000
 90
        0
280
     0
281
     0
  0
CLASS
  1
DICTIONARYVAR
  2
AcDbDictionaryVar
  3
AutoCAD 2000
 90
        0
280
     0
281
     0
  0
CLASS
  1
LONG_TRANSACTION
  2
AcDbLongTransaction
  3
AutoCAD 2000
 90
        0
280
     0
281
     0
  0
CLASS
  1
LWPOLYLINE
  2
AcDbPolyline
  3
AutoCAD 2000
 90
        0
280
     0
281
     1
  0
CLASS
  1
HATCH
  2
AcDbHatch
  3
AutoCAD 2000
 90
        0
280
     0
281
     1
  0
CLASS
  1
XRECORD
  2
AcDbXrecord
  3
AutoCAD 2000
 90
        0
280
     0
281
     0
  0
ENDSEC
  0
SECTION
  2
TABLES
  0
TABLE
  2
VPORT
  5
8
330
0
100
AcDbSymbolTable
 70
     3
  0
VPORT
  5
186
330
8
100
AcDbSymbolTableRecord
100
AcDbViewportTableRecord
  2
*ACTIVE
 70
     0
 10
0.0
 20
0.0
 11
1.0
 21
1.0
 12
80.49999999999988
 22
105.0000000000001
 13
0.0
 23
0.0
 14
1.0
 24
1.0
 15
0.0
 25
0.0
 16
0.0
 26
0.0
 36
1.0
 17
0.0
 27
0.0
 37
0.0
 40
211.5009328153189
 41
2.043533930857874
 42
50.0
 43
0.0
 44
0.0
 50
0.0
 51
0.0
 71
     0
 72
   100
 73
     1
 74
     3
 75
     0
 76
     0
 77
     0
 78
     0
  0
ENDTAB
  0
TABLE
  2
LTYPE
  5
5
330
0
100
AcDbSymbolTable
 70
     1
  0
LTYPE
  5
13
330
5
100
AcDbSymbolTableRecord
100
AcDbLinetypeTableRecord
  2
BYBLOCK
 70
     0
  3

 72
    65
 73
     0
 40
0.0
  0
LTYPE
  5
14
330
5
100
AcDbSymbolTableRecord
100
AcDbLinetypeTableRecord
  2
BYLAYER
 70
     0
  3

 72
    65
 73
     0
 40
0.0
  0
LTYPE
  5
15
330
5
100
AcDbSymbolTableRecord
100
AcDbLinetypeTableRecord
  2
CONTINUOUS
 70
     0
  3
Solid line
 72
    65
 73
     0
 40
0.0
  0
ENDTAB
  0
TABLE
  2
LAYER
  5
2
330
0
100
AcDbSymbolTable
 70
     1
  0
LAYER
  5
10
330
2
100
AcDbSymbolTableRecord
100
AcDbLayerTableRecord
  2
0
 70
     0
 62
     7
  6
CONTINUOUS
  0
ENDTAB
  0
TABLE
  2
STYLE
  5
3
330
0
100
AcDbSymbolTable
 70
     1
  0
STYLE
  5
11
330
3
100
AcDbSymbolTableRecord
100
AcDbTextStyleTableRecord
  2
STANDARD
 70
     0
 40
0.0
 41
1.0
 50
0.0
 71
     0
 42
0.2
  3
txt
  4

  0
ENDTAB
  0
TABLE
  2
VIEW
  5
6
330
0
100
AcDbSymbolTable
 70
     0
  0
ENDTAB
  0
TABLE
  2
UCS
  5
7
330
0
100
AcDbSymbolTable
 70
     0
  0
ENDTAB
  0
TABLE
  2
APPID
  5
9
330
0
100
AcDbSymbolTable
 70
     1
  0
APPID
  5
12
330
9
100
AcDbSymbolTableRecord
100
AcDbRegAppTableRecord
  2
ACAD
 70
     0
  0
ENDTAB
  0
TABLE
  2
DIMSTYLE
  5
A
330
0
100
AcDbSymbolTable
 70
     1
  0
DIMSTYLE
105
15B
330
A
100
AcDbSymbolTableRecord
100
AcDbDimStyleTableRecord
  2
STANDARD
 70
     0
  3

  4

  5

  6

  7

 40
1.0
 41
0.18
 42
0.0625
 43
0.38
 44
0.18
 45
0.0
 46
0.0
 47
0.0
 48
0.0
140
0.18
141
0.09
142
0.0
143
25.4
144
1.0
145
0.0
146
1.0
147
0.09
 71
     0
 72
     0
 73
     1
 74
     1
 75
     0
 76
     0
 77
     0
 78
     0
170
     0
171
     2
172
     0
173
     0
174
     0
175
     0
176
     0
177
     0
178
     0
270
     2
271
     4
272
     4
273
     2
274
     2
340
11
275
     0
280
     0
281
     0
282
     0
283
     1
284
     0
285
     0
286
     0
287
     3
288
     0
  0
ENDTAB
  0
TABLE
  2
BLOCK_RECORD
  5
1
330
0
100
AcDbSymbolTable
 70
     0
  0
BLOCK_RECORD
  5
1E
102
{ACAD_XDICTIONARY
360
1A9
102
}
330
1
100
AcDbSymbolTableRecord
100
AcDbBlockTableRecord
  2
*MODEL_SPACE
  0
BLOCK_RECORD
  5
1A
102
{ACAD_XDICTIONARY
360
1A7
102
}
330
1
100
AcDbSymbolTableRecord
100
AcDbBlockTableRecord
  2
*PAPER_SPACE
  0
ENDTAB
  0
ENDSEC
  0
SECTION
  2
BLOCKS
  0
BLOCK
  5
1F
330
1E
100
AcDbEntity
  8
0
100
AcDbBlockBegin
  2
*MODEL_SPACE
 70
     0
 10
0.0
 20
0.0
 30
0.0
  3
*MODEL_SPACE
  1

  0
ENDBLK
  5
20
330
1E
100
AcDbEntity
  8
0
100
AcDbBlockEnd
  0
BLOCK
  5
1B
330
1A
100
AcDbEntity
 67
     1
  8
0
100
AcDbBlockBegin
  2
*PAPER_SPACE
 70
     0
 10
0.0
 20
0.0
 30
0.0
  3
*PAPER_SPACE
  1

  0
ENDBLK
  5
1C
330
1A
100
AcDbEntity
 67
     1
  8
0
100
AcDbBlockEnd
  0
ENDSEC
  0
SECTION
  2
ENTITIES
  0
LINE
  5
22
330
1E
100
AcDbEntity
  8
0
100
AcDbLine
 10
9.83763098552138
 20
54.75771726247021
 30
0.0
 11
12.11385602860469
 21
50.8273043277596
 31
0.0
  0
LINE
  5
23
330
1E
100
AcDbEntity
  8
0
100
AcDbLine
 10
12.11385602860469
 20
50.8273043277596
 30
0.0
 11
13.6256839663524
 21
48.22071104309749
 31
0.0
  0
LINE
  5
24
330
1E
100
AcDbEntity
  8
0
100
AcDbLine
 10
20.1934123512163
 20
55.50068210265259
 30
0.0
 11
21.7052642202843
 21
52.8940564467488
 31
0.0
  0
LINE
  5
25
330
1E
100
AcDbEntity
  8
0
100
AcDbLine
 10
13.6256839663524
 20
48.22071104309749
 30
0.0
 11
14.17376591632959
 21
47.28175590838169
 31
0.0
  0
LINE
  5
26
330
1E
100
AcDbEntity
  8
0
100
AcDbLine
 10
14.17376591632959
 20
47.28175590838169
 30
0.0
 11
22.2533485171837
 21
51.9551026670445
 31
0.0
  0
LINE
  5
27
330
1E
100
AcDbEntity
  8
0
100
AcDbLine
 10
21.7052642202843
 20
52.8940564467488
 30
0.0
 11
22.2533485171837
 21
51.9551026670445
 31
0.0
  0
LINE
  5
28
330
1E
100
AcDbEntity
  8
0
100
AcDbLine
 10
4.472618361943889
 20
64.033026752474
 30
0.0
 11
7.160001142065611
 21
59.3852558262555
 31
0.0
  0
LINE
  5
29
330
1E
100
AcDbEntity
  8
0
100
AcDbLine
 10
7.160001142065611
 20
59.3852558262555
 30
0.0
 11
9.83763098552138
 21
54.75771726247021
 31
0.0
  0
LINE
  5
2A
330
1E
100
AcDbEntity
  8
0
100
AcDbLine
 10
15.23956332966069
 20
64.0586269414134
 30
0.0
 11
17.91719850830619
 21
59.4310899568213
 31
0.0
  0
LINE
  5
2B
330
1E
100
AcDbEntity
  8
0
100
AcDbLine
 10
17.91719850830619
 20
59.4310899568213
 30
0.0
 11
20.1934123512163
 21
55.50068210265259
 31
0.0
  0
LINE
  5
2C
330
1E
100
AcDbEntity
  8
0
100
AcDbLine
 10
2.2005998700899
 20
67.9658337270245
 30
0.0
 11
4.472618361943889
 21
64.033026752474
 31
0.0
  0
LINE
  5
2D
330
1E
100
AcDbEntity
  8
0
100
AcDbLine
 10
12.5521844038294
 20
68.7063985918178
 30
0.0
 11
15.23956332966069
 21
64.0586269414134
 31
0.0
  0
LINE
  5
2E
330
1E
100
AcDbEntity
  8
0
100
AcDbLine
 10
15.61783540585719
 20
64.24805038935339
 30
0.0
 11
18.30033540585719
 21
59.61035038935329
 31
0.0
  0
LINE
  5
2F
330
1E
100
AcDbEntity
  8
0
100
AcDbLine
 10
18.30033540585719
 20
59.61035038935329
 30
0.0
 11
20.57443540585719
 21
55.6787503893533
 31
0.0
  0
LINE
  5
30
330
1E
100
AcDbEntity
  8
0
100
AcDbLine
 10
20.57443540585719
 20
55.6787503893533
 30
0.0
 11
22.0939354058572
 21
53.05175038935329
 31
0.0
  0
LINE
  5
31
330
1E
100
AcDbEntity
  8
0
100
AcDbLine
 10
22.067870099129
 20
52.27874631744279
 30
0.0
 11
22.2533485171837
 21
51.9551026670445
 31
0.0
  0
LINE
  5
32
330
1E
100
AcDbEntity
  8
0
100
AcDbLine
 10
86.84363540585719
 20
0.0547401893533169
 30
0.0
 11
87.30483540585721
 21
0.0551073893533169
 31
0.0
  0
LINE
  5
33
330
1E
100
AcDbEntity
  8
0
100
AcDbLine
 10
22.6274354058572
 20
52.12925038935329
 30
0.0
 11
79.27613540585721
 21
84.89555038935341
 31
0.0
  0
LINE
  5
34
330
1E
100
AcDbEntity
  8
0
100
AcDbLine
 10
22.0939354058572
 20
53.05175038935329
 30
0.0
 11
22.6274354058572
 21
52.12925038935329
 31
0.0
  0
LINE
  5
35
330
1E
100
AcDbEntity
  8
0
100
AcDbLine
 10
22.0637966122342
 20
52.27983460811521
 30
0.0
 11
22.6274354058572
 21
52.12925038935329
 31
0.0
  0
LINE
  5
36
330
1E
100
AcDbEntity
  8
0
100
AcDbLine
 10
0.154376184142771
 20
71.51915695063779
 30
0.0
 11
8.2339069659245
 21
76.1925892615871
 31
0.0
  0
LINE
  5
37
330
1E
100
AcDbEntity
  8
0
100
AcDbLine
 10
0.154376184142771
 20
71.51915695063779
 30
0.0
 11
8.2339069659245
 21
76.1925892615871
 31
0.0
  0
LINE
  5
38
330
1E
100
AcDbEntity
  8
0
100
AcDbLine
 10
0.154376184142771
 20
71.51915695063779
 30
0.0
 11
0.6842362257806381
 21
70.59462287540009
 31
0.0
  0
LINE
  5
39
330
1E
100
AcDbEntity
  8
0
100
AcDbLine
 10
0.154376184142771
 20
71.51915695063779
 30
0.0
 11
0.6842362257806381
 21
70.59462287540009
 31
0.0
  0
LINE
  5
3A
330
1E
100
AcDbEntity
  8
0
100
AcDbLine
 10
0.6842362257806381
 20
70.59462287540009
 30
0.0
 11
2.2005998700899
 21
67.9658337270245
 31
0.0
  0
LINE
  5
3B
330
1E
100
AcDbEntity
  8
0
100
AcDbLine
 10
0.6842362257806381
 20
70.59462287540009
 30
0.0
 11
2.2005998700899
 21
67.9658337270245
 31
0.0
  0
LINE
  5
3C
330
1E
100
AcDbEntity
  8
0
100
AcDbLine
 10
8.763817354395689
 20
75.26796878405569
 30
0.0
 11
10.28016599857769
 21
72.63920561636879
 31
0.0
  0
LINE
  5
3D
330
1E
100
AcDbEntity
  8
0
100
AcDbLine
 10
10.28016599857769
 20
72.63920561636879
 30
0.0
 11
12.5521844038294
 21
68.7063985918178
 31
0.0
  0
LINE
  5
3E
330
1E
100
AcDbEntity
  8
0
100
AcDbLine
 10
8.2339069659245
 20
76.1925892615871
 30
0.0
 11
8.763817354395689
 21
75.26796878405569
 31
0.0
  0
LINE
  5
3F
330
1E
100
AcDbEntity
  8
0
100
AcDbLine
 10
8.2339069659245
 20
76.1925892615871
 30
0.0
 11
8.458657062474179
 21
75.80760860803841
 31
0.0
  0
LINE
  5
40
330
1E
100
AcDbEntity
  8
0
100
AcDbLine
 10
8.45735180319558
 20
75.8027088655157
 30
0.0
 11
8.60763540585723
 21
76.3668503893534
 31
0.0
  0
LINE
  5
41
330
1E
100
AcDbEntity
  8
0
100
AcDbLine
 10
8.60763540585723
 20
76.3668503893534
 30
0.0
 11
84.2488354058573
 21
120.116850389353
 31
0.0
  0
LINE
  5
42
330
1E
100
AcDbEntity
  8
0
100
AcDbLine
 10
8.60763540585723
 20
76.3668503893534
 30
0.0
 11
9.141635405857229
 21
75.4442503893533
 31
0.0
  0
LINE
  5
43
330
1E
100
AcDbEntity
  8
0
100
AcDbLine
 10
8.60763540585723
 20
76.3668503893534
 30
0.0
 11
84.2488354058573
 21
120.116850389353
 31
0.0
  0
LINE
  5
44
330
1E
100
AcDbEntity
  8
0
100
AcDbLine
 10
9.141635405857229
 20
75.4442503893533
 30
0.0
 11
10.66163540585719
 21
72.81725038935329
 31
0.0
  0
LINE
  5
45
330
1E
100
AcDbEntity
  8
0
100
AcDbLine
 10
81.77553540585719
 20
85.56745038935341
 30
0.0
 11
84.27603540585719
 21
84.8995503893534
 31
0.0
  0
LINE
  5
46
330
1E
100
AcDbEntity
  8
0
100
AcDbLine
 10
79.27613540585721
 20
84.89555038935341
 30
0.0
 11
81.77553540585719
 21
85.56745038935341
 31
0.0
  0
LINE
  5
47
330
1E
100
AcDbEntity
  8
0
100
AcDbLine
 10
84.27603540585719
 20
84.8995503893534
 30
0.0
 11
86.1076354058572
 21
83.0708503893533
 31
0.0
  0
LINE
  5
48
330
1E
100
AcDbEntity
  8
0
100
AcDbLine
 10
84.2488354058573
 20
120.116850389353
 30
0.0
 11
86.06853540585721
 21
121.932850389353
 31
0.0
  0
LINE
  5
49
330
1E
100
AcDbEntity
  8
0
100
AcDbLine
 10
86.1076354058572
 20
83.0708503893533
 30
0.0
 11
86.7795354058572
 21
80.57145038935329
 31
0.0
  0
LINE
  5
4A
330
1E
100
AcDbEntity
  8
0
100
AcDbLine
 10
86.06853540585721
 20
121.932850389353
 30
0.0
 11
86.74543540585728
 21
124.430850389353
 31
0.0
  0
LINE
  5
4E
330
1E
100
AcDbEntity
  8
0
100
AcDbLine
 10
86.7795354058572
 20
80.57145038935329
 30
0.0
 11
86.84363540585719
 21
0.0547401893533169
 31
0.0
  0
LINE
  5
4F
330
1E
100
AcDbEntity
  8
0
100
AcDbLine
 10
86.7795354058572
 20
80.57145038935329
 30
0.0
 11
86.84363540585719
 21
0.0547401893533189
 31
0.0
  0
LINE
  5
50
330
1E
100
AcDbEntity
  8
0
100
AcDbLine
 10
86.7405354058572
 20
129.554850389353
 30
0.0
 11
87.24013540585721
 21
130.054850389353
 31
0.0
  0
LINE
  5
51
330
1E
100
AcDbEntity
  8
0
100
AcDbLine
 10
86.7405354058572
 20
129.554850389353
 30
0.0
 11
87.20173540585721
 21
129.554850389353
 31
0.0
  0
LINE
  5
52
330
1E
100
AcDbEntity
  8
0
100
AcDbLine
 10
86.7405354058572
 20
129.554850389353
 30
0.0
 11
86.74543540585728
 21
124.430850389353
 31
0.0
  0
LINE
  5
53
330
1E
100
AcDbEntity
  8
0
100
AcDbLine
 10
10.66163540585719
 20
72.81725038935329
 30
0.0
 11
12.9353354058572
 21
68.88575038935329
 31
0.0
  0
LINE
  5
54
330
1E
100
AcDbEntity
  8
0
100
AcDbLine
 10
12.9353354058572
 20
68.88575038935329
 30
0.0
 11
15.61783540585719
 21
64.24805038935339
 31
0.0
  0
LINE
  5
55
330
1E
100
AcDbEntity
  8
0
100
AcDbLine
 10
87.30483540585721
 20
0.0551073893533169
 30
0.0
 11
88.6705354058572
 21
0.0561948893533168
 31
0.0
  0
LINE
  5
56
330
1E
100
AcDbEntity
  8
0
100
AcDbLine
 10
87.20173540585721
 20
129.554850389353
 30
0.0
 11
88.56743540585719
 21
129.555850389353
 31
0.0
  0
LINE
  5
57
330
1E
100
AcDbEntity
  8
0
100
AcDbLine
 10
88.6705354058572
 20
0.0561948893533168
 30
0.0
 11
90.88833540585721
 21
0.0579607893533166
 31
0.0
  0
LINE
  5
58
330
1E
100
AcDbEntity
  8
0
100
AcDbLine
 10
90.88833540585721
 20
0.0579607893533166
 30
0.0
 11
93.87303540585719
 21
0.0603373893533165
 31
0.0
  0
LINE
  5
59
330
1E
100
AcDbEntity
  8
0
100
AcDbLine
 10
88.56743540585719
 20
129.555850389353
 30
0.0
 11
90.7852354058572
 21
129.557850389353
 31
0.0
  0
LINE
  5
5A
330
1E
100
AcDbEntity
  8
0
100
AcDbLine
 10
90.7852354058572
 20
129.557850389353
 30
0.0
 11
93.7699354058572
 21
129.559850389353
 31
0.0
  0
LINE
  5
5B
330
1E
100
AcDbEntity
  8
0
100
AcDbLine
 10
97.50993540585721
 20
0.0632332893533162
 30
0.0
 11
101.6592354058569
 21
0.066537229353316
 31
0.0
  0
LINE
  5
5C
330
1E
100
AcDbEntity
  8
0
100
AcDbLine
 10
93.87303540585719
 20
0.0603373893533165
 30
0.0
 11
97.50993540585721
 21
0.0632332893533162
 31
0.0
  0
LINE
  5
5D
330
1E
100
AcDbEntity
  8
0
100
AcDbLine
 10
93.7699354058572
 20
129.559850389353
 30
0.0
 11
97.4068354058572
 21
129.562850389353
 31
0.0
  0
LINE
  5
5E
330
1E
100
AcDbEntity
  8
0
100
AcDbLine
 10
97.4068354058572
 20
129.562850389353
 30
0.0
 11
101.5561254058569
 21
129.566850389353
 31
0.0
  0
LINE
  5
5F
330
1E
100
AcDbEntity
  8
0
100
AcDbLine
 10
106.1614654058569
 20
0.0701221693533157
 30
0.0
 11
110.8436354058569
 21
0.0738503893533154
 31
0.0
  0
LINE
  5
60
330
1E
100
AcDbEntity
  8
0
100
AcDbLine
 10
101.6592354058569
 20
0.066537229353316
 30
0.0
 11
106.1614654058569
 21
0.0701221693533157
 31
0.0
  0
LINE
  5
61
330
1E
100
AcDbEntity
  8
0
100
AcDbLine
 10
101.5561254058569
 20
129.566850389353
 30
0.0
 11
106.0583554058569
 21
129.569850389353
 31
0.0
  0
LINE
  5
62
330
1E
100
AcDbEntity
  8
0
100
AcDbLine
 10
106.0583554058569
 20
129.569850389353
 30
0.0
 11
110.740520405857
 21
129.573850389353
 31
0.0
  0
LINE
  5
63
330
1E
100
AcDbEntity
  8
0
100
AcDbLine
 10
110.8436354058569
 20
0.0738503893533155
 30
0.0
 11
115.5258054058569
 21
0.0775786093533151
 31
0.0
  0
LINE
  5
64
330
1E
100
AcDbEntity
  8
0
100
AcDbLine
 10
115.5258054058569
 20
0.0775786093533151
 30
0.0
 11
120.028035405857
 21
0.0811635493533149
 31
0.0
  0
LINE
  5
65
330
1E
100
AcDbEntity
  8
0
100
AcDbLine
 10
110.8436354058569
 20
0.0738503893533154
 30
0.0
 11
115.5258054058569
 21
0.0775786093533151
 31
0.0
  0
LINE
  5
66
330
1E
100
AcDbEntity
  8
0
100
AcDbLine
 10
110.740520405857
 20
129.573850389353
 30
0.0
 11
115.422685405857
 21
129.577850389353
 31
0.0
  0
LINE
  5
67
330
1E
100
AcDbEntity
  8
0
100
AcDbLine
 10
115.422685405857
 20
129.577850389353
 30
0.0
 11
119.9249154058569
 21
129.580850389353
 31
0.0
  0
LINE
  5
68
330
1E
100
AcDbEntity
  8
0
100
AcDbLine
 10
124.177335405857
 20
0.0844674893533146
 30
0.0
 11
127.8142354058569
 21
0.0873633893533144
 31
0.0
  0
LINE
  5
69
330
1E
100
AcDbEntity
  8
0
100
AcDbLine
 10
120.028035405857
 20
0.0811635493533149
 30
0.0
 11
124.177335405857
 21
0.0844674893533146
 31
0.0
  0
LINE
  5
6A
330
1E
100
AcDbEntity
  8
0
100
AcDbLine
 10
119.9249154058569
 20
129.580850389353
 30
0.0
 11
124.074235405857
 21
129.584850389353
 31
0.0
  0
LINE
  5
6B
330
1E
100
AcDbEntity
  8
0
100
AcDbLine
 10
124.074235405857
 20
129.584850389353
 30
0.0
 11
127.7111354058569
 21
129.586850389353
 31
0.0
  0
LINE
  5
6C
330
1E
100
AcDbEntity
  8
0
100
AcDbLine
 10
130.7989354058569
 20
0.0897399893533142
 30
0.0
 11
133.0167354058569
 21
0.0915058893533141
 31
0.0
  0
LINE
  5
6D
330
1E
100
AcDbEntity
  8
0
100
AcDbLine
 10
127.8142354058569
 20
0.0873633893533144
 30
0.0
 11
130.7989354058569
 21
0.0897399893533142
 31
0.0
  0
LINE
  5
6E
330
1E
100
AcDbEntity
  8
0
100
AcDbLine
 10
127.7111354058569
 20
129.586850389353
 30
0.0
 11
130.695835405857
 21
129.589850389353
 31
0.0
  0
LINE
  5
6F
330
1E
100
AcDbEntity
  8
0
100
AcDbLine
 10
130.695835405857
 20
129.589850389353
 30
0.0
 11
132.9136354058569
 21
129.5918503893529
 31
0.0
  0
LINE
  5
70
330
1E
100
AcDbEntity
  8
0
100
AcDbLine
 10
133.0167354058569
 20
0.0915058893533141
 30
0.0
 11
134.3824354058569
 21
0.092593389353314
 31
0.0
  0
LINE
  5
71
330
1E
100
AcDbEntity
  8
0
100
AcDbLine
 10
132.9136354058569
 20
129.5918503893529
 30
0.0
 11
134.2793354058569
 21
129.5928503893529
 31
0.0
  0
LINE
  5
72
330
1E
100
AcDbEntity
  8
0
100
AcDbLine
 10
87.2013354058572
 20
130.054850389353
 30
0.0
 11
88.56703540585719
 21
130.0558503893529
 31
0.0
  0
LINE
  5
73
330
1E
100
AcDbEntity
  8
0
100
AcDbLine
 10
86.7242354058572
 20
150.054850389353
 30
0.0
 11
86.7401354058572
 21
130.054850389353
 31
0.0
  0
LINE
  5
74
330
1E
100
AcDbEntity
  8
0
100
AcDbLine
 10
86.7242354058572
 20
150.054850389353
 30
0.0
 11
87.1854354058572
 21
150.054850389353
 31
0.0
  0
LINE
  5
75
330
1E
100
AcDbEntity
  8
0
100
AcDbLine
 10
87.1854354058572
 20
150.054850389353
 30
0.0
 11
88.55113540585719
 21
150.055850389353
 31
0.0
  0
LINE
  5
76
330
1E
100
AcDbEntity
  8
0
100
AcDbLine
 10
88.55113540585719
 20
150.055850389353
 30
0.0
 11
90.7689354058572
 21
150.057850389353
 31
0.0
  0
LINE
  5
78
330
1E
100
AcDbEntity
  8
0
100
AcDbLine
 10
90.12125928226168
 20
206.7171917636649
 30
0.0
 11
107.4155214147769
 21
150.80954384222
 31
0.0
  0
LINE
  5
7A
330
1E
100
AcDbEntity
  8
0
100
AcDbLine
 10
90.0203356344293
 20
207.6873996781389
 30
0.0
 11
90.0230284424105
 21
207.1973061601399
 31
0.0
  0
LINE
  5
7B
330
1E
100
AcDbEntity
  8
0
100
AcDbLine
 10
90.0203356344293
 20
207.6873996781389
 30
0.0
 11
90.11332319019301
 21
208.168570142084
 31
0.0
  0
LINE
  5
7D
330
1E
100
AcDbEntity
  8
0
100
AcDbLine
 10
90.56843669366818
 20
209.031297825977
 30
0.0
 11
90.9130575112386
 21
209.3798058323369
 31
0.0
  0
LINE
  5
7E
330
1E
100
AcDbEntity
  8
0
100
AcDbLine
 10
90.29839425037881
 20
208.622328836416
 30
0.0
 11
90.56843669366818
 21
209.031297825977
 31
0.0
  0
LINE
  5
7F
330
1E
100
AcDbEntity
  8
0
100
AcDbLine
 10
90.11332319019301
 20
208.168570142084
 30
0.0
 11
90.29839425037881
 21
208.622328836416
 31
0.0
  0
LINE
  5
80
330
1E
100
AcDbEntity
  8
0
100
AcDbLine
 10
90.0230284424105
 20
207.1973061601399
 30
0.0
 11
90.12125928226168
 21
206.7171917636649
 31
0.0
  0
LINE
  5
84
330
1E
100
AcDbEntity
  8
0
100
AcDbLine
 10
90.9130575112386
 20
209.3798058323369
 30
0.0
 11
91.31907206586751
 21
209.654248929691
 31
0.0
  0
LINE
  5
87
330
1E
100
AcDbEntity
  8
0
100
AcDbLine
 10
90.7689354058572
 20
150.057850389353
 30
0.0
 11
93.7536354058572
 21
150.059850389353
 31
0.0
  0
LINE
  5
88
330
1E
100
AcDbEntity
  8
0
100
AcDbLine
 10
90.7848354058572
 20
130.057850389353
 30
0.0
 11
93.7695354058572
 21
130.059850389353
 31
0.0
  0
LINE
  5
89
330
1E
100
AcDbEntity
  8
0
100
AcDbLine
 10
90.7848354058572
 20
130.057850389353
 30
0.0
 11
91.98232496231181
 21
130.05865280806
 31
0.0
  0
LINE
  5
9B
330
1E
100
AcDbEntity
  8
0
100
AcDbLine
 10
94.4334170122962
 20
209.052525720791
 30
0.0
 11
94.59901844643081
 21
208.828665926472
 31
0.0
  0
LINE
  5
9D
330
1E
100
AcDbEntity
  8
0
100
AcDbLine
 10
94.0849817898945
 20
209.397148118046
 30
0.0
 11
94.4334170122962
 21
209.052525720791
 31
0.0
  0
LINE
  5
9E
330
1E
100
AcDbEntity
  8
0
100
AcDbLine
 10
93.676024621142
 20
209.667152347876
 30
0.0
 11
94.0849817898945
 21
209.397148118046
 31
0.0
  0
LINE
  5
9F
330
1E
100
AcDbEntity
  8
0
100
AcDbLine
 10
93.2222238920047
 20
209.852210405172
 30
0.0
 11
93.676024621142
 21
209.667152347876
 31
0.0
  0
LINE
  5
A0
330
1E
100
AcDbEntity
  8
0
100
AcDbLine
 10
92.74101650092481
 20
209.945259810647
 30
0.0
 11
93.2222238920047
 21
209.852210405172
 31
0.0
  0
LINE
  5
A1
330
1E
100
AcDbEntity
  8
0
100
AcDbLine
 10
92.2509566682571
 20
209.9425146176639
 30
0.0
 11
92.74101650092481
 21
209.945259810647
 31
0.0
  0
LINE
  5
A2
330
1E
100
AcDbEntity
  8
0
100
AcDbLine
 10
91.77079998842229
 20
209.844333503133
 30
0.0
 11
92.2509566682571
 21
209.9425146176639
 31
0.0
  0
LINE
  5
A3
330
1E
100
AcDbEntity
  8
0
100
AcDbLine
 10
91.31907206586751
 20
209.654248929691
 30
0.0
 11
91.77079998842229
 21
209.844333503133
 31
0.0
  0
LINE
  5
A7
330
1E
100
AcDbEntity
  8
0
100
AcDbLine
 10
94.59901844643081
 20
208.828665926472
 30
0.0
 11
96.60620437609658
 21
205.661681273738
 31
0.0
  0
LINE
  5
A9
330
1E
100
AcDbEntity
  8
0
100
AcDbLine
 10
96.60620437609658
 20
205.661681273738
 30
0.0
 11
98.50850578005399
 21
202.430640136813
 31
0.0
  0
LINE
  5
AA
330
1E
100
AcDbEntity
  8
0
100
AcDbLine
 10
97.39053540585722
 20
150.062850389353
 30
0.0
 11
101.539795405857
 21
150.066850389353
 31
0.0
  0
LINE
  5
AB
330
1E
100
AcDbEntity
  8
0
100
AcDbLine
 10
93.7536354058572
 20
150.059850389353
 30
0.0
 11
97.39053540585722
 21
150.062850389353
 31
0.0
  0
LINE
  5
AC
330
1E
100
AcDbEntity
  8
0
100
AcDbLine
 10
98.50850578005399
 20
202.430640136813
 30
0.0
 11
100.303881666562
 21
199.138993494212
 31
0.0
  0
LINE
  5
AD
330
1E
100
AcDbEntity
  8
0
100
AcDbLine
 10
100.303881666562
 20
199.138993494212
 30
0.0
 11
101.9904343443539
 21
195.790236652482
 31
0.0
  0
LINE
  5
AE
330
1E
100
AcDbEntity
  8
0
100
AcDbLine
 10
101.539795405857
 20
150.066850389353
 30
0.0
 11
106.0420254058569
 21
150.069850389353
 31
0.0
  0
LINE
  5
AF
330
1E
100
AcDbEntity
  8
0
100
AcDbLine
 10
105.029876982338
 20
188.9359153133259
 30
0.0
 11
105.09828877442
 21
188.7586134568659
 31
0.0
  0
LINE
  5
B0
330
1E
100
AcDbEntity
  8
0
100
AcDbLine
 10
105.029876982338
 20
188.9359153133259
 30
0.0
 11
106.3794752125569
 21
185.4378112524679
 31
0.0
  0
LINE
  5
B1
330
1E
100
AcDbEntity
  8
0
100
AcDbLine
 10
101.9904343443539
 20
195.790236652482
 30
0.0
 11
102.043696868976
 21
195.67524068094
 31
0.0
  0
LINE
  5
B2
330
1E
100
AcDbEntity
  8
0
100
AcDbLine
 10
101.9904343443539
 20
195.790236652482
 30
0.0
 11
103.566332103789
 21
192.387990003838
 31
0.0
  0
LINE
  5
B3
330
1E
100
AcDbEntity
  8
0
100
AcDbLine
 10
103.566332103789
 20
192.387990003838
 30
0.0
 11
103.6281628120899
 21
192.242148430852
 31
0.0
  0
LINE
  5
B4
330
1E
100
AcDbEntity
  8
0
100
AcDbLine
 10
103.566332103789
 20
192.387990003838
 30
0.0
 11
105.029876982338
 21
188.9359153133259
 31
0.0
  0
LINE
  5
B5
330
1E
100
AcDbEntity
  8
0
100
AcDbLine
 10
102.043696868976
 20
195.67524068094
 30
0.0
 11
103.566332103789
 21
192.387990003838
 31
0.0
  0
LINE
  5
B6
330
1E
100
AcDbEntity
  8
0
100
AcDbLine
 10
103.6281628120899
 20
192.242148430852
 30
0.0
 11
105.029876982338
 21
188.9359153133259
 31
0.0
  0
LINE
  5
B7
330
1E
100
AcDbEntity
  8
0
100
AcDbLine
 10
105.09828877442
 20
188.7586134568659
 30
0.0
 11
106.3794752125569
 21
185.4378112524679
 31
0.0
  0
LINE
  5
B8
330
1E
100
AcDbEntity
  8
0
100
AcDbLine
 10
106.0420254058569
 20
150.069850389353
 30
0.0
 11
110.7241964058569
 21
150.0738503893529
 31
0.0
  0
LINE
  5
B9
330
1E
100
AcDbEntity
  8
0
100
AcDbLine
 10
106.468359057775
 20
150.070606752513
 30
0.0
 11
106.636553286935
 21
150.2247333293989
 31
0.0
  0
LINE
  5
BA
330
1E
100
AcDbEntity
  8
0
100
AcDbLine
 10
106.636553286935
 20
150.2247333293989
 30
0.0
 11
107.4155214147769
 21
150.80954384222
 31
0.0
  0
LINE
  5
BB
330
1E
100
AcDbEntity
  8
0
100
AcDbLine
 10
107.4155214147769
 20
150.80954384222
 30
0.0
 11
107.504179865146
 21
150.8411875237079
 31
0.0
  0
LINE
  5
BC
330
1E
100
AcDbEntity
  8
0
100
AcDbLine
 10
107.614626531977
 20
150.880596906931
 30
0.0
 11
107.7716212118019
 21
150.936624391316
 31
0.0
  0
LINE
  5
BD
330
1E
100
AcDbEntity
  8
0
100
AcDbLine
 10
107.504179865146
 20
150.8411875237079
 30
0.0
 11
107.7716212118019
 21
150.936624391316
 31
0.0
  0
LINE
  5
BE
330
1E
100
AcDbEntity
  8
0
100
AcDbLine
 10
107.504179865146
 20
150.8411875237079
 30
0.0
 11
107.614626531977
 21
150.880596906931
 31
0.0
  0
LINE
  5
BF
330
1E
100
AcDbEntity
  8
0
100
AcDbLine
 10
107.7716212118019
 20
150.936624391316
 30
0.0
 11
108.181504153671
 21
151.082854220573
 31
0.0
  0
LINE
  5
C0
330
1E
100
AcDbEntity
  8
0
100
AcDbLine
 10
108.3200665991469
 20
151.132279740335
 30
0.0
 11
108.7183261800559
 21
151.2743278618079
 31
0.0
  0
LINE
  5
C1
330
1E
100
AcDbEntity
  8
0
100
AcDbLine
 10
108.7183261800559
 20
151.2743278618079
 30
0.0
 11
108.951549554703
 21
151.3533180613169
 31
0.0
  0
LINE
  5
C2
330
1E
100
AcDbEntity
  8
0
100
AcDbLine
 10
108.951549554703
 20
151.3533180613169
 30
0.0
 11
109.1871530383639
 21
151.424817047233
 31
0.0
  0
LINE
  5
C3
330
1E
100
AcDbEntity
  8
0
100
AcDbLine
 10
109.1871530383639
 20
151.424817047233
 30
0.0
 11
109.424964759662
 21
151.488761185995
 31
0.0
  0
LINE
  5
C4
330
1E
100
AcDbEntity
  8
0
100
AcDbLine
 10
109.424964759662
 20
151.488761185995
 30
0.0
 11
109.664772455513
 21
151.5451057519669
 31
0.0
  0
LINE
  5
C5
330
1E
100
AcDbEntity
  8
0
100
AcDbLine
 10
108.181504153671
 20
151.082854220573
 30
0.0
 11
108.7183261800559
 21
151.2743278618079
 31
0.0
  0
LINE
  5
C6
330
1E
100
AcDbEntity
  8
0
100
AcDbLine
 10
108.181504153671
 20
151.082854220573
 30
0.0
 11
108.3200665991469
 21
151.132279740335
 31
0.0
  0
LINE
  5
C7
330
1E
100
AcDbEntity
  8
0
100
AcDbLine
 10
107.613745876809
 20
181.897228309468
 30
0.0
 11
107.689270772624
 21
181.6553440416619
 31
0.0
  0
LINE
  5
C8
330
1E
100
AcDbEntity
  8
0
100
AcDbLine
 10
107.613745876809
 20
181.897228309468
 30
0.0
 11
108.731274937732
 21
178.3182301031969
 31
0.0
  0
LINE
  5
C9
330
1E
100
AcDbEntity
  8
0
100
AcDbLine
 10
106.3794752125569
 20
185.4378112524679
 30
0.0
 11
106.452500987178
 21
185.228335941654
 31
0.0
  0
LINE
  5
CA
330
1E
100
AcDbEntity
  8
0
100
AcDbLine
 10
106.3794752125569
 20
185.4378112524679
 30
0.0
 11
107.613745876809
 21
181.897228309468
 31
0.0
  0
LINE
  5
CB
330
1E
100
AcDbEntity
  8
0
100
AcDbLine
 10
106.452500987178
 20
185.228335941654
 30
0.0
 11
107.613745876809
 21
181.897228309468
 31
0.0
  0
LINE
  5
CC
330
1E
100
AcDbEntity
  8
0
100
AcDbLine
 10
108.731274937732
 20
178.3182301031969
 30
0.0
 11
108.807321408209
 21
178.0433251515719
 31
0.0
  0
LINE
  5
CD
330
1E
100
AcDbEntity
  8
0
100
AcDbLine
 10
108.731274937732
 20
178.3182301031969
 30
0.0
 11
109.730929865175
 21
174.704443957111
 31
0.0
  0
LINE
  5
CE
330
1E
100
AcDbEntity
  8
0
100
AcDbLine
 10
107.689270772624
 20
181.6553440416619
 30
0.0
 11
108.731274937732
 21
178.3182301031969
 31
0.0
  0
LINE
  5
CF
330
1E
100
AcDbEntity
  8
0
100
AcDbLine
 10
108.807321408209
 20
178.0433251515719
 30
0.0
 11
109.730929865175
 21
174.704443957111
 31
0.0
  0
LINE
  5
D0
330
1E
100
AcDbEntity
  8
0
100
AcDbLine
 10
110.611613666671
 20
171.059822213242
 30
0.0
 11
110.6823169212739
 21
170.718575162283
 31
0.0
  0
LINE
  5
D1
330
1E
100
AcDbEntity
  8
0
100
AcDbLine
 10
110.611613666671
 20
171.059822213242
 30
0.0
 11
111.372363096858
 21
167.388358586448
 31
0.0
  0
LINE
  5
D2
330
1E
100
AcDbEntity
  8
0
100
AcDbLine
 10
109.730929865175
 20
174.704443957111
 30
0.0
 11
109.805343051658
 21
174.396479796733
 31
0.0
  0
LINE
  5
D3
330
1E
100
AcDbEntity
  8
0
100
AcDbLine
 10
109.730929865175
 20
174.704443957111
 30
0.0
 11
110.611613666671
 21
171.059822213242
 31
0.0
  0
LINE
  5
D4
330
1E
100
AcDbEntity
  8
0
100
AcDbLine
 10
109.805343051658
 20
174.396479796733
 30
0.0
 11
110.611613666671
 21
171.059822213242
 31
0.0
  0
LINE
  5
D5
330
1E
100
AcDbEntity
  8
0
100
AcDbLine
 10
110.6823169212739
 20
170.718575162283
 30
0.0
 11
111.372363096858
 21
167.388358586448
 31
0.0
  0
LINE
  5
D6
330
1E
100
AcDbEntity
  8
0
100
AcDbLine
 10
110.24944750542
 20
151.676361380748
 30
0.0
 11
110.864401079768
 21
151.821547091707
 31
0.0
  0
LINE
  5
D7
330
1E
100
AcDbEntity
  8
0
100
AcDbLine
 10
109.664772455513
 20
151.5451057519669
 30
0.0
 11
110.24944750542
 21
151.676361380748
 31
0.0
  0
LINE
  5
D8
330
1E
100
AcDbEntity
  8
0
100
AcDbLine
 10
110.7241964058569
 20
150.0738503893529
 30
0.0
 11
115.4063654058569
 21
150.077850389353
 31
0.0
  0
LINE
  5
DD
330
1E
100
AcDbEntity
  8
0
100
AcDbLine
 10
111.151784837984
 20
151.8927970736699
 30
0.0
 11
111.4731524682539
 21
151.9724659959589
 31
0.0
  0
LINE
  5
DE
330
1E
100
AcDbEntity
  8
0
100
AcDbLine
 10
111.372363096858
 20
167.388358586448
 30
0.0
 11
111.4372693264049
 21
167.013706407133
 31
0.0
  0
LINE
  5
DF
330
1E
100
AcDbEntity
  8
0
100
AcDbLine
 10
111.372363096858
 20
167.388358586448
 30
0.0
 11
112.0123886547979
 21
163.693891186716
 31
0.0
  0
LINE
  5
E0
330
1E
100
AcDbEntity
  8
0
100
AcDbLine
 10
111.4372693264049
 20
167.013706407133
 30
0.0
 11
112.0123886547979
 21
163.693891186716
 31
0.0
  0
LINE
  5
E1
330
1E
100
AcDbEntity
  8
0
100
AcDbLine
 10
112.0123886547979
 20
163.693891186716
 30
0.0
 11
112.06934121678
 21
163.28600415262
 31
0.0
  0
LINE
  5
E2
330
1E
100
AcDbEntity
  8
0
100
AcDbLine
 10
112.0123886547979
 20
163.693891186716
 30
0.0
 11
112.530965929251
 21
159.9804876089559
 31
0.0
  0
LINE
  5
E3
330
1E
100
AcDbEntity
  8
0
100
AcDbLine
 10
112.06934121678
 20
163.28600415262
 30
0.0
 11
112.530965929251
 21
159.9804876089559
 31
0.0
  0
LINE
  5
E4
330
1E
100
AcDbEntity
  8
0
100
AcDbLine
 10
112.808108500415
 20
152.345461779711
 30
0.0
 11
112.8919206541979
 21
152.3715553972899
 31
0.0
  0
LINE
  5
E5
330
1E
100
AcDbEntity
  8
0
100
AcDbLine
 10
112.927578823899
 20
156.2520496020829
 30
0.0
 11
112.9623403762129
 21
155.778041476118
 31
0.0
  0
LINE
  5
E6
330
1E
100
AcDbEntity
  8
0
100
AcDbLine
 10
112.927578823899
 20
156.2520496020829
 30
0.0
 11
113.2017838222139
 21
152.512616509246
 31
0.0
  0
LINE
  5
E7
330
1E
100
AcDbEntity
  8
0
100
AcDbLine
 10
112.530965929251
 20
159.9804876089559
 30
0.0
 11
112.577887079689
 21
159.539382452059
 31
0.0
  0
LINE
  5
E8
330
1E
100
AcDbEntity
  8
0
100
AcDbLine
 10
112.530965929251
 20
159.9804876089559
 30
0.0
 11
112.927578823899
 21
156.2520496020829
 31
0.0
  0
LINE
  5
E9
330
1E
100
AcDbEntity
  8
0
100
AcDbLine
 10
112.577887079689
 20
159.539382452059
 30
0.0
 11
112.927578823899
 21
156.2520496020829
 31
0.0
  0
LINE
  5
EA
330
1E
100
AcDbEntity
  8
0
100
AcDbLine
 10
113.0035029680489
 20
152.413587528278
 30
0.0
 11
113.124082155275
 21
152.45902030178
 31
0.0
  0
LINE
  5
EB
330
1E
100
AcDbEntity
  8
0
100
AcDbLine
 10
112.9847937501919
 20
152.4065399212829
 30
0.0
 11
113.124082155275
 21
152.45902030178
 31
0.0
  0
LINE
  5
EC
330
1E
100
AcDbEntity
  8
0
100
AcDbLine
 10
113.154717014104
 20
152.4801471194419
 30
0.0
 11
113.2017838222139
 21
152.512616509246
 31
0.0
  0
LINE
  5
ED
330
1E
100
AcDbEntity
  8
0
100
AcDbLine
 10
113.948373960296
 20
152.486544514314
 30
0.0
 11
114.9198855415699
 21
152.347872226345
 31
0.0
  0
LINE
  5
EE
330
1E
100
AcDbEntity
  8
0
100
AcDbLine
 10
113.2017838222139
 20
152.512616509246
 30
0.0
 11
113.948373960296
 21
152.486544514314
 31
0.0
  0
LINE
  5
EF
330
1E
100
AcDbEntity
  8
0
100
AcDbLine
 10
113.124082155275
 20
152.45902030178
 30
0.0
 11
113.2017838222139
 21
152.512616509246
 31
0.0
  0
LINE
  5
F0
330
1E
100
AcDbEntity
  8
0
100
AcDbLine
 10
112.9623403762129
 20
155.778041476118
 30
0.0
 11
113.2017838222139
 21
152.512616509246
 31
0.0
  0
LINE
  5
F1
330
1E
100
AcDbEntity
  8
0
100
AcDbLine
 10
112.8919206541979
 20
152.3715553972899
 30
0.0
 11
113.124082155275
 21
152.45902030178
 31
0.0
  0
LINE
  5
F2
330
1E
100
AcDbEntity
  8
0
100
AcDbLine
 10
112.8919206541979
 20
152.3715553972899
 30
0.0
 11
113.0035029680489
 21
152.413587528278
 31
0.0
  0
LINE
  5
F3
330
1E
100
AcDbEntity
  8
0
100
AcDbLine
 10
112.5211476099239
 20
152.256108193165
 30
0.0
 11
112.8919206541979
 21
152.3715553972899
 31
0.0
  0
LINE
  5
F4
330
1E
100
AcDbEntity
  8
0
100
AcDbLine
 10
112.5211476099239
 20
152.256108193165
 30
0.0
 11
112.808108500415
 21
152.345461779711
 31
0.0
  0
LINE
  5
F5
330
1E
100
AcDbEntity
  8
0
100
AcDbLine
 10
112.0380037731109
 20
152.1203981391909
 30
0.0
 11
112.5211476099239
 21
152.256108193165
 31
0.0
  0
LINE
  5
F6
330
1E
100
AcDbEntity
  8
0
100
AcDbLine
 10
111.4731524682539
 20
151.9724659959589
 30
0.0
 11
112.0380037731109
 21
152.1203981391909
 31
0.0
  0
LINE
  5
F7
330
1E
100
AcDbEntity
  8
0
100
AcDbLine
 10
110.864401079768
 20
151.821547091707
 30
0.0
 11
111.4731524682539
 21
151.9724659959589
 31
0.0
  0
LINE
  5
F8
330
1E
100
AcDbEntity
  8
0
100
AcDbLine
 10
110.864401079768
 20
151.821547091707
 30
0.0
 11
111.151784837984
 21
151.8927970736699
 31
0.0
  0
LINE
  5
FA
330
1E
100
AcDbEntity
  8
0
100
AcDbLine
 10
115.873115301625
 20
152.114638861086
 30
0.0
 11
116.798898931101
 21
151.789094684732
 31
0.0
  0
LINE
  5
FB
330
1E
100
AcDbEntity
  8
0
100
AcDbLine
 10
114.9198855415699
 20
152.347872226345
 30
0.0
 11
115.873115301625
 21
152.114638861086
 31
0.0
  0
LINE
  5
FD
330
1E
100
AcDbEntity
  8
0
100
AcDbLine
 10
116.798898931101
 20
151.789094684732
 30
0.0
 11
119.9085954058569
 21
150.080850389353
 31
0.0
  0
LINE
  5
10A
330
1E
100
AcDbEntity
  8
0
100
AcDbLine
 10
119.9085954058569
 20
150.080850389353
 30
0.0
 11
124.0579354058569
 21
150.084850389353
 31
0.0
  0
LINE
  5
10B
330
1E
100
AcDbEntity
  8
0
100
AcDbLine
 10
115.4063654058569
 20
150.077850389353
 30
0.0
 11
119.9085954058569
 21
150.080850389353
 31
0.0
  0
LINE
  5
10C
330
1E
100
AcDbEntity
  8
0
100
AcDbLine
 10
127.6948354058569
 20
150.086850389353
 30
0.0
 11
130.6795354058569
 21
150.089850389353
 31
0.0
  0
LINE
  5
10D
330
1E
100
AcDbEntity
  8
0
100
AcDbLine
 10
124.0579354058569
 20
150.084850389353
 30
0.0
 11
127.6948354058569
 21
150.086850389353
 31
0.0
  0
LINE
  5
10E
330
1E
100
AcDbEntity
  8
0
100
AcDbLine
 10
130.6795354058569
 20
150.089850389353
 30
0.0
 11
132.8973354058569
 21
150.0918503893529
 31
0.0
  0
LINE
  5
10F
330
1E
100
AcDbEntity
  8
0
100
AcDbLine
 10
133.7886354058569
 20
130.091850389353
 30
0.0
 11
134.220973078139
 21
130.0928079478739
 31
0.0
  0
LINE
  5
110
330
1E
100
AcDbEntity
  8
0
100
AcDbLine
 10
132.4513354058569
 20
130.090850389353
 30
0.0
 11
133.7886354058569
 21
130.091850389353
 31
0.0
  0
LINE
  5
111
330
1E
100
AcDbEntity
  8
0
100
AcDbLine
 10
134.240163818104
 20
130.0928219998179
 30
0.0
 11
134.7405354058569
 21
129.5928503893529
 31
0.0
  0
LINE
  5
112
330
1E
100
AcDbEntity
  8
0
100
AcDbLine
 10
134.2630354058569
 20
150.092850389353
 30
0.0
 11
134.724235405857
 21
150.092850389353
 31
0.0
  0
LINE
  5
113
330
1E
100
AcDbEntity
  8
0
100
AcDbLine
 10
132.8973354058569
 20
150.0918503893529
 30
0.0
 11
134.2630354058569
 21
150.092850389353
 31
0.0
  0
LINE
  5
114
330
1E
100
AcDbEntity
  8
0
100
AcDbLine
 10
132.9132354058569
 20
130.091850389353
 30
0.0
 11
134.278935405857
 21
130.092850389353
 31
0.0
  0
LINE
  5
115
330
1E
100
AcDbEntity
  8
0
100
AcDbLine
 10
131.129271141639
 20
130.0902416200649
 30
0.0
 11
132.4513354058569
 21
130.090850389353
 31
0.0
  0
LINE
  5
116
330
1E
100
AcDbEntity
  8
0
100
AcDbLine
 10
130.6954354058569
 20
130.089850389353
 30
0.0
 11
132.9132354058569
 21
130.091850389353
 31
0.0
  0
LINE
  5
117
330
1E
100
AcDbEntity
  8
0
100
AcDbLine
 10
127.710735405857
 20
130.086850389353
 30
0.0
 11
130.6954354058569
 21
130.089850389353
 31
0.0
  0
LINE
  5
118
330
1E
100
AcDbEntity
  8
0
100
AcDbLine
 10
124.0738354058569
 20
130.084850389353
 30
0.0
 11
127.710735405857
 21
130.086850389353
 31
0.0
  0
LINE
  5
119
330
1E
100
AcDbEntity
  8
0
100
AcDbLine
 10
123.7960354058569
 20
130.083850389353
 30
0.0
 11
127.710735405857
 21
130.086850389353
 31
0.0
  0
LINE
  5
11A
330
1E
100
AcDbEntity
  8
0
100
AcDbLine
 10
123.7960354058569
 20
130.083850389353
 30
0.0
 11
126.6923842061809
 21
130.0862903787949
 31
0.0
  0
LINE
  5
11B
330
1E
100
AcDbEntity
  8
0
100
AcDbLine
 10
120.550729469394
 20
130.0814540680899
 30
0.0
 11
123.7960354058569
 21
130.083850389353
 31
0.0
  0
LINE
  5
11C
330
1E
100
AcDbEntity
  8
0
100
AcDbLine
 10
119.924515405857
 20
130.0808503893529
 30
0.0
 11
124.0738354058569
 21
130.084850389353
 31
0.0
  0
LINE
  5
11D
330
1E
100
AcDbEntity
  8
0
100
AcDbLine
 10
115.4222954058569
 20
130.077850389353
 30
0.0
 11
119.924515405857
 21
130.0808503893529
 31
0.0
  0
LINE
  5
11E
330
1E
100
AcDbEntity
  8
0
100
AcDbLine
 10
110.740121405857
 20
130.0738503893529
 30
0.0
 11
115.4222954058569
 21
130.077850389353
 31
0.0
  0
LINE
  5
11F
330
1E
100
AcDbEntity
  8
0
100
AcDbLine
 10
106.1555054058569
 20
130.069850389353
 30
0.0
 11
110.740121405857
 21
130.0738503893529
 31
0.0
  0
LINE
  5
120
330
1E
100
AcDbEntity
  8
0
100
AcDbLine
 10
106.0579554058569
 20
130.069850389353
 30
0.0
 11
110.740121405857
 21
130.0738503893529
 31
0.0
  0
LINE
  5
121
330
1E
100
AcDbEntity
  8
0
100
AcDbLine
 10
101.7470654058569
 20
130.066850389353
 30
0.0
 11
106.1555054058569
 21
130.069850389353
 31
0.0
  0
LINE
  5
122
330
1E
100
AcDbEntity
  8
0
100
AcDbLine
 10
101.555725405857
 20
130.066850389353
 30
0.0
 11
106.0579554058569
 21
130.069850389353
 31
0.0
  0
LINE
  5
123
330
1E
100
AcDbEntity
  8
0
100
AcDbLine
 10
100.929510930636
 20
130.066246705856
 30
0.0
 11
101.7470654058569
 21
130.066850389353
 31
0.0
  0
LINE
  5
124
330
1E
100
AcDbEntity
  8
0
100
AcDbLine
 10
100.929510930636
 20
130.066246705856
 30
0.0
 11
101.555725405857
 21
130.066850389353
 31
0.0
  0
LINE
  5
125
330
1E
100
AcDbEntity
  8
0
100
AcDbLine
 10
97.4064354058572
 20
130.062850389353
 30
0.0
 11
101.555725405857
 21
130.066850389353
 31
0.0
  0
LINE
  5
126
330
1E
100
AcDbEntity
  8
0
100
AcDbLine
 10
93.7695354058572
 20
130.059850389353
 30
0.0
 11
97.4064354058572
 21
130.062850389353
 31
0.0
  0
LINE
  5
127
330
1E
100
AcDbEntity
  8
0
100
AcDbLine
 10
91.2006354058573
 20
130.057850389353
 30
0.0
 11
93.7695354058572
 21
130.059850389353
 31
0.0
  0
LINE
  5
128
330
1E
100
AcDbEntity
  8
0
100
AcDbLine
 10
91.2006354058573
 20
130.057850389353
 30
0.0
 11
91.98232496231181
 21
130.05865280806
 31
0.0
  0
LINE
  5
129
330
1E
100
AcDbEntity
  8
0
100
AcDbLine
 10
90.35099967005459
 20
130.057459158642
 30
0.0
 11
91.2006354058573
 21
130.057850389353
 31
0.0
  0
LINE
  5
12A
330
1E
100
AcDbEntity
  8
0
100
AcDbLine
 10
88.56703540585719
 20
130.0558503893529
 30
0.0
 11
90.7848354058572
 21
130.057850389353
 31
0.0
  0
LINE
  5
12B
330
1E
100
AcDbEntity
  8
0
100
AcDbLine
 10
86.7401354058572
 20
130.054850389353
 30
0.0
 11
87.2013354058572
 21
130.054850389353
 31
0.0
  0
LINE
  5
12C
330
1E
100
AcDbEntity
  8
0
100
AcDbLine
 10
134.8110809195699
 20
40.98338141073139
 30
0.0
 11
134.8436354058569
 21
0.0929605893533139
 31
0.0
  0
LINE
  5
12D
330
1E
100
AcDbEntity
  8
0
100
AcDbLine
 10
134.3824354058569
 20
0.092593389353314
 30
0.0
 11
134.8436354058569
 21
0.0929605893533139
 31
0.0
  0
LINE
  5
12E
330
1E
100
AcDbEntity
  8
0
100
AcDbLine
 10
145.8436354058569
 20
50.07385031015121
 30
0.0
 11
160.8436284822469
 21
50.07385032471729
 31
0.0
  0
LINE
  5
12F
330
1E
100
AcDbEntity
  8
0
100
AcDbLine
 10
160.8436284822469
 20
50.07385032471729
 30
0.0
 11
160.844390521857
 21
50.26257538935329
 31
0.0
  0
LINE
  5
130
330
1E
100
AcDbEntity
  8
0
100
AcDbLine
 10
143.6765354058569
 20
51.32782038935329
 30
0.0
 11
144.5053354058569
 21
50.84914938935329
 31
0.0
  0
LINE
  5
131
330
1E
100
AcDbEntity
  8
0
100
AcDbLine
 10
144.5053354058569
 20
50.84914938935329
 30
0.0
 11
145.208035405857
 21
50.4427883893533
 31
0.0
  0
LINE
  5
132
330
1E
100
AcDbEntity
  8
0
100
AcDbLine
 10
145.208035405857
 20
50.4427883893533
 30
0.0
 11
145.6781354058569
 21
50.17049788935329
 31
0.0
  0
LINE
  5
133
330
1E
100
AcDbEntity
  8
0
100
AcDbLine
 10
160.842866883857
 20
50.26562338935329
 30
0.0
 11
160.8436284822469
 21
50.07385032471729
 31
0.0
  0
LINE
  5
134
330
1E
100
AcDbEntity
  8
0
100
AcDbLine
 10
160.844390521857
 20
50.26257538935329
 30
0.0
 11
160.8450375658569
 21
50.8032833893533
 31
0.0
  0
LINE
  5
135
330
1E
100
AcDbEntity
  8
0
100
AcDbLine
 10
160.8422223958569
 20
50.8089143893533
 30
0.0
 11
160.842866883857
 21
50.26562338935329
 31
0.0
  0
LINE
  5
136
330
1E
100
AcDbEntity
  8
0
100
AcDbLine
 10
160.8450375658569
 20
50.8032833893533
 30
0.0
 11
160.8454707458569
 21
51.61342038935329
 31
0.0
  0
LINE
  5
137
330
1E
100
AcDbEntity
  8
0
100
AcDbLine
 10
145.6781354058569
 20
50.17049788935329
 30
0.0
 11
145.8436354058569
 21
50.07385031015121
 31
0.0
  0
LINE
  5
138
330
1E
100
AcDbEntity
  8
0
100
AcDbLine
 10
134.8110809195699
 20
40.98338141073139
 30
0.0
 11
141.495235405857
 21
52.5820603893533
 31
0.0
  0
LINE
  5
139
330
1E
100
AcDbEntity
  8
0
100
AcDbLine
 10
141.6775354058569
 20
52.48024038935329
 30
0.0
 11
142.146235405857
 21
52.2105303893533
 31
0.0
  0
LINE
  5
13A
330
1E
100
AcDbEntity
  8
0
100
AcDbLine
 10
160.841792435857
 20
51.62078038935329
 30
0.0
 11
160.8422223958569
 21
50.8089143893533
 31
0.0
  0
LINE
  5
13B
330
1E
100
AcDbEntity
  8
0
100
AcDbLine
 10
160.8454707458569
 20
51.61342038935329
 30
0.0
 11
160.8456238158569
 21
52.5698703893533
 31
0.0
  0
LINE
  5
13C
330
1E
100
AcDbEntity
  8
0
100
AcDbLine
 10
142.8481354058569
 20
51.80589038935329
 30
0.0
 11
143.6765354058569
 21
51.32782038935329
 31
0.0
  0
LINE
  5
13D
330
1E
100
AcDbEntity
  8
0
100
AcDbLine
 10
142.146235405857
 20
52.2105303893533
 30
0.0
 11
142.8481354058569
 21
51.80589038935329
 31
0.0
  0
LINE
  5
13E
330
1E
100
AcDbEntity
  8
0
100
AcDbLine
 10
142.8305354058569
 20
51.81516038935329
 30
0.0
 11
143.6593354058569
 21
51.33777038935329
 31
0.0
  0
LINE
  5
13F
330
1E
100
AcDbEntity
  8
0
100
AcDbLine
 10
142.1282354058569
 20
52.2192703893533
 30
0.0
 11
142.8305354058569
 21
51.81516038935329
 31
0.0
  0
LINE
  5
140
330
1E
100
AcDbEntity
  8
0
100
AcDbLine
 10
160.8417947858569
 20
53.53428038935329
 30
0.0
 11
160.842226915857
 21
54.34441038935329
 31
0.0
  0
LINE
  5
141
330
1E
100
AcDbEntity
  8
0
100
AcDbLine
 10
160.8416425258569
 20
52.57783038935329
 30
0.0
 11
160.841792435857
 21
51.62078038935329
 31
0.0
  0
LINE
  5
142
330
1E
100
AcDbEntity
  8
0
100
AcDbLine
 10
160.8416425258569
 20
52.57783038935329
 30
0.0
 11
160.8417947858569
 21
53.53428038935329
 31
0.0
  0
LINE
  5
143
330
1E
100
AcDbEntity
  8
0
100
AcDbLine
 10
160.8454730958569
 20
53.52692038935329
 30
0.0
 11
160.8456238158569
 21
52.5698703893533
 31
0.0
  0
LINE
  5
144
330
1E
100
AcDbEntity
  8
0
100
AcDbLine
 10
160.842226915857
 20
54.34441038935329
 30
0.0
 11
160.842873150857
 21
54.88512038935329
 31
0.0
  0
LINE
  5
145
330
1E
100
AcDbEntity
  8
0
100
AcDbLine
 10
160.8450420758569
 20
54.33878038935329
 30
0.0
 11
160.8454730958569
 21
53.52692038935329
 31
0.0
  0
LINE
  5
146
330
1E
100
AcDbEntity
  8
0
100
AcDbLine
 10
160.842873150857
 20
54.88512038935329
 30
0.0
 11
160.843635190955
 21
55.07384038935329
 31
0.0
  0
LINE
  5
147
330
1E
100
AcDbEntity
  8
0
100
AcDbLine
 10
160.844396789857
 20
54.88207038935329
 30
0.0
 11
160.8450420758569
 21
54.33878038935329
 31
0.0
  0
LINE
  5
148
330
1E
100
AcDbEntity
  8
0
100
AcDbLine
 10
160.843635190955
 20
55.07384038935329
 30
0.0
 11
160.844396789857
 21
54.88207038935329
 31
0.0
  0
LINE
  5
149
330
1E
100
AcDbEntity
  8
0
100
AcDbLine
 10
145.8436354058569
 20
55.07384038935329
 30
0.0
 11
160.843635190955
 21
55.07384038935329
 31
0.0
  0
LINE
  5
14A
330
1E
100
AcDbEntity
  8
0
100
AcDbLine
 10
144.8503354058569
 20
54.97418038935329
 30
0.0
 11
145.8436354058569
 21
55.07384038935329
 31
0.0
  0
LINE
  5
14B
330
1E
100
AcDbEntity
  8
0
100
AcDbLine
 10
143.8965354058569
 20
54.6791503893533
 30
0.0
 11
144.8503354058569
 21
54.97418038935329
 31
0.0
  0
LINE
  5
14C
330
1E
100
AcDbEntity
  8
0
100
AcDbLine
 10
143.020435405857
 20
54.20052038935329
 30
0.0
 11
143.8965354058569
 21
54.6791503893533
 31
0.0
  0
LINE
  5
14D
330
1E
100
AcDbEntity
  8
0
100
AcDbLine
 10
142.256835405857
 20
53.55738038935329
 30
0.0
 11
143.020435405857
 21
54.20052038935329
 31
0.0
  0
LINE
  5
14E
330
1E
100
AcDbEntity
  8
0
100
AcDbLine
 10
141.513535405857
 20
52.57384038935329
 30
0.0
 11
142.256835405857
 21
53.55738038935329
 31
0.0
  0
LINE
  5
14F
330
1E
100
AcDbEntity
  8
0
100
AcDbLine
 10
141.513535405857
 20
52.57384038935329
 30
0.0
 11
141.667399051286
 21
52.4839858798024
 31
0.0
  0
LINE
  5
150
330
1E
100
AcDbEntity
  8
0
100
AcDbLine
 10
141.513535405857
 20
52.57384038935329
 30
0.0
 11
141.6775354058569
 21
52.48024038935329
 31
0.0
  0
LINE
  5
151
330
1E
100
AcDbEntity
  8
0
100
AcDbLine
 10
141.6594354058569
 20
52.48856038935329
 30
0.0
 11
142.1282354058569
 21
52.2192703893533
 31
0.0
  0
LINE
  5
152
330
1E
100
AcDbEntity
  8
0
100
AcDbLine
 10
141.495235405857
 20
52.5820603893533
 30
0.0
 11
141.6594354058569
 21
52.48856038935329
 31
0.0
  0
LINE
  5
153
330
1E
100
AcDbEntity
  8
0
100
AcDbLine
 10
143.6593354058569
 20
51.33777038935329
 30
0.0
 11
144.4884354058569
 21
50.85977838935329
 31
0.0
  0
LINE
  5
154
330
1E
100
AcDbEntity
  8
0
100
AcDbLine
 10
134.7405354058569
 20
129.5928503893529
 30
0.0
 11
134.8110809195699
 21
40.98338141073139
 31
0.0
  0
LINE
  5
155
330
1E
100
AcDbEntity
  8
0
100
AcDbLine
 10
134.7405354058569
 20
129.5928503893529
 30
0.0
 11
134.8110809195699
 21
40.98338141073139
 31
0.0
  0
LINE
  5
156
330
1E
100
AcDbEntity
  8
0
100
AcDbLine
 10
134.8110809195699
 20
40.98338141073139
 30
0.0
 11
134.8436354058569
 21
0.0929605893533139
 31
0.0
  0
LINE
  5
157
330
1E
100
AcDbEntity
  8
0
100
AcDbLine
 10
134.8190423026369
 20
30.98339858030399
 30
0.0
 11
145.8264070277879
 21
50.08391122274289
 31
0.0
  0
LINE
  5
158
330
1E
100
AcDbEntity
  8
0
100
AcDbLine
 10
134.2793354058569
 20
129.5928503893529
 30
0.0
 11
134.7405354058569
 21
129.5928503893529
 31
0.0
  0
LINE
  5
159
330
1E
100
AcDbEntity
  8
0
100
AcDbLine
 10
134.724235405857
 20
150.092850389353
 30
0.0
 11
134.7401354058569
 21
130.092850389353
 31
0.0
  0
LINE
  5
15A
330
1E
100
AcDbEntity
  8
0
100
AcDbLine
 10
134.278935405857
 20
130.092850389353
 30
0.0
 11
134.7401354058569
 21
130.092850389353
 31
0.0
  0
ENDSEC
  0
SECTION
  2
OBJECTS
  0
DICTIONARY
  5
C
330
0
100
AcDbDictionary
  3
ACAD_GROUP
350
D
  3
ACAD_LAYOUT
350
19
  3
ACAD_MLINESTYLE
350
16
  3
ACAD_PLOTSETTINGS
350
18
  3
ACAD_PLOTSTYLENAME
350
E
  3
ACDBHEADERROUNDTRIPXREC
350
187
  3
ACDBVARIABLEDICTIONARY
350
15F
  0
DICTIONARY
  5
1A9
330
1E
100
AcDbDictionary
280
     1
  3
ACAD_LAYOUTSELFREF
360
1AA
  0
DICTIONARY
  5
1A7
330
1A
100
AcDbDictionary
280
     1
  3
ACAD_LAYOUTSELFREF
360
1A8
  0
DICTIONARY
  5
D
102
{ACAD_REACTORS
330
C
102
}
330
C
100
AcDbDictionary
  0
DICTIONARY
  5
19
102
{ACAD_REACTORS
330
C
102
}
330
C
100
AcDbDictionary
  0
DICTIONARY
  5
16
102
{ACAD_REACTORS
330
C
102
}
330
C
100
AcDbDictionary
  3
STANDARD
350
17
  0
DICTIONARY
  5
18
102
{ACAD_REACTORS
330
C
102
}
330
C
100
AcDbDictionary
  0
ACDBDICTIONARYWDFLT
  5
E
102
{ACAD_REACTORS
330
C
102
}
330
C
100
AcDbDictionary
281
     1
  3
Normal
350
F
100
AcDbDictionaryWithDefault
340
F
  0
DICTIONARY
  5
187
102
{ACAD_REACTORS
330
C
102
}
330
C
100
AcDbDictionary
  3
CEPSNTYPE
350
191
  3
FINGERPRINTGUID
350
192
  3
HYPERLINKBASE
350
18A
  3
INSUNITS
350
190
  3
LAYOUTDICT
350
18C
  3
LWETCUNION
350
18F
  3
PLOTSETDICT
350
18D
  3
PLOTSTYLNAMDICT
350
18E
  3
PSVPSCALE
350
194
  3
PUCSBASE
350
197
  3
PUCSORGBACK
350
19D
  3
PUCSORGBOTTOM
350
199
  3
PUCSORGFRONT
350
19C
  3
PUCSORGLEFT
350
19A
  3
PUCSORGRIGHT
350
19B
  3
PUCSORGTOP
350
198
  3
PUCSORTHOREF
350
195
  3
PUCSORTHOVIEW
350
196
  3
STYLESHEET
350
18B
  3
TSTACKALIGN
350
188
  3
TSTACKSIZE
350
189
  3
UCSBASE
350
1A0
  3
UCSORGBACK
350
1A6
  3
UCSORGBOTTOM
350
1A2
  3
UCSORGFRONT
350
1A5
  3
UCSORGLEFT
350
1A3
  3
UCSORGRIGHT
350
1A4
  3
UCSORGTOP
350
1A1
  3
UCSORTHOREF
350
19E
  3
UCSORTHOVIEW
350
19F
  3
VERSIONGUID
350
193
  0
DICTIONARY
  5
15F
102
{ACAD_REACTORS
330
C
102
}
330
C
100
AcDbDictionary
  3
DIMASSOC
350
160
  0
XRECORD
  5
1AA
102
{ACAD_REACTORS
330
1A9
102
}
330
1A9
100
AcDbXrecord
340
1E
  0
XRECORD
  5
1A8
102
{ACAD_REACTORS
330
1A7
102
}
330
1A7
100
AcDbXrecord
340
1A
  0
MLINESTYLE
  5
17
102
{ACAD_REACTORS
330
16
102
}
330
16
100
AcDbMlineStyle
  2
STANDARD
 70
     0
  3

 62
   256
 51
90.0
 52
90.0
 71
     2
 49
0.5
 62
   256
  6
BYLAYER
 49
-0.5
 62
   256
  6
BYLAYER
  0
ACDBPLACEHOLDER
  5
F
102
{ACAD_REACTORS
330
E
102
}
330
E
100
AcDbPlaceHolder
280
     0
  0
XRECORD
  5
191
102
{ACAD_REACTORS
330
187
102
}
330
187
100
AcDbXrecord
 90
        0
  0
XRECORD
  5
192
102
{ACAD_REACTORS
330
187
102
}
330
187
100
AcDbXrecord
  1
{38FD693A-DD38-4709-91D0-BA68A41CB6F8}
  0
XRECORD
  5
18A
102
{ACAD_REACTORS
330
187
102
}
330
187
100
AcDbXrecord
  1

  0
XRECORD
  5
190
102
{ACAD_REACTORS
330
187
102
}
330
187
100
AcDbXrecord
 90
        0
  0
XRECORD
  5
18C
102
{ACAD_REACTORS
330
187
102
}
330
187
100
AcDbXrecord
340
19
  0
XRECORD
  5
18F
102
{ACAD_REACTORS
330
187
102
}
330
187
100
AcDbXrecord
 90
    10781
  0
XRECORD
  5
18D
102
{ACAD_REACTORS
330
187
102
}
330
187
100
AcDbXrecord
340
18
  0
XRECORD
  5
18E
102
{ACAD_REACTORS
330
187
102
}
330
187
100
AcDbXrecord
340
E
  0
XRECORD
  5
194
102
{ACAD_REACTORS
330
187
102
}
330
187
100
AcDbXrecord
 40
0.0
  0
XRECORD
  5
197
102
{ACAD_REACTORS
330
187
102
}
330
187
100
AcDbXrecord
340
0
  0
XRECORD
  5
19D
102
{ACAD_REACTORS
330
187
102
}
330
187
100
AcDbXrecord
 10
0.0
 20
0.0
 30
0.0
  0
XRECORD
  5
199
102
{ACAD_REACTORS
330
187
102
}
330
187
100
AcDbXrecord
 10
0.0
 20
0.0
 30
0.0
  0
XRECORD
  5
19C
102
{ACAD_REACTORS
330
187
102
}
330
187
100
AcDbXrecord
 10
0.0
 20
0.0
 30
0.0
  0
XRECORD
  5
19A
102
{ACAD_REACTORS
330
187
102
}
330
187
100
AcDbXrecord
 10
0.0
 20
0.0
 30
0.0
  0
XRECORD
  5
19B
102
{ACAD_REACTORS
330
187
102
}
330
187
100
AcDbXrecord
 10
0.0
 20
0.0
 30
0.0
  0
XRECORD
  5
198
102
{ACAD_REACTORS
330
187
102
}
330
187
100
AcDbXrecord
 10
0.0
 20
0.0
 30
0.0
  0
XRECORD
  5
195
102
{ACAD_REACTORS
330
187
102
}
330
187
100
AcDbXrecord
340
0
  0
XRECORD
  5
196
102
{ACAD_REACTORS
330
187
102
}
330
187
100
AcDbXrecord
 70
     0
  0
XRECORD
  5
18B
102
{ACAD_REACTORS
330
187
102
}
330
187
100
AcDbXrecord
  1

  0
XRECORD
  5
188
102
{ACAD_REACTORS
330
187
102
}
330
187
100
AcDbXrecord
 90
        1
  0
XRECORD
  5
189
102
{ACAD_REACTORS
330
187
102
}
330
187
100
AcDbXrecord
 90
       70
  0
XRECORD
  5
1A0
102
{ACAD_REACTORS
330
187
102
}
330
187
100
AcDbXrecord
340
0
  0
XRECORD
  5
1A6
102
{ACAD_REACTORS
330
187
102
}
330
187
100
AcDbXrecord
 10
0.0
 20
0.0
 30
0.0
  0
XRECORD
  5
1A2
102
{ACAD_REACTORS
330
187
102
}
330
187
100
AcDbXrecord
 10
0.0
 20
0.0
 30
0.0
  0
XRECORD
  5
1A5
102
{ACAD_REACTORS
330
187
102
}
330
187
100
AcDbXrecord
 10
0.0
 20
0.0
 30
0.0
  0
XRECORD
  5
1A3
102
{ACAD_REACTORS
330
187
102
}
330
187
100
AcDbXrecord
 10
0.0
 20
0.0
 30
0.0
  0
XRECORD
  5
1A4
102
{ACAD_REACTORS
330
187
102
}
330
187
100
AcDbXrecord
 10
0.0
 20
0.0
 30
0.0
  0
XRECORD
  5
1A1
102
{ACAD_REACTORS
330
187
102
}
330
187
100
AcDbXrecord
 10
0.0
 20
0.0
 30
0.0
  0
XRECORD
  5
19E
102
{ACAD_REACTORS
330
187
102
}
330
187
100
AcDbXrecord
340
0
  0
XRECORD
  5
19F
102
{ACAD_REACTORS
330
187
102
}
330
187
100
AcDbXrecord
 70
     1
  0
XRECORD
  5
193
102
{ACAD_REACTORS
330
187
102
}
330
187
100
AcDbXrecord
  1
{279A0154-9825-4894-803A-2AE97A25DCCC}
  0
DICTIONARYVAR
  5
160
102
{ACAD_REACTORS
330
15F
102
}
330
15F
100
DictionaryVariables
280
     0
  1
1
  0
ENDSEC
  0
EOF
