  0
SECTION
  2
HEADER
  9
$ACADVER
  1
AC1015
  9
$ACADMAINTVER
 70
    13
  9
$DWGCODEPAGE
  3
ANSI_1252
  9
$INSBASE
 10
0.0
 20
0.0
 30
0.0
  9
$EXTMIN
 10
-0.0000000000000026
 20
0.0547401893533169
 30
0.0
  9
$EXTMAX
 10
48.0
 20
209.945259810647
 30
0.0
  9
$LIMMIN
 10
0.0
 20
0.0
  9
$LIMMAX
 10
12.0
 20
9.0
  9
$ORTHOMODE
 70
     0
  9
$REGENMODE
 70
     1
  9
$FILLMODE
 70
     1
  9
$QTEXTMODE
 70
     0
  9
$MIRRTEXT
 70
     1
  9
$LTSCALE
 40
1.0
  9
$ATTMODE
 70
     1
  9
$TEXTSIZE
 40
0.2
  9
$TRACEWID
 40
0.05
  9
$TEXTSTYLE
  7
Standard
  9
$CLAYER
  8
0
  9
$CELTYPE
  6
Continuous
  9
$CECOLOR
 62
   256
  9
$CELTSCALE
 40
1.0
  9
$DISPSILH
 70
     0
  9
$DIMSCALE
 40
1.0
  9
$DIMASZ
 40
0.18
  9
$DIMEXO
 40
0.0625
  9
$DIMDLI
 40
0.38
  9
$DIMRND
 40
0.0
  9
$DIMDLE
 40
0.0
  9
$DIMEXE
 40
0.18
  9
$DIMTP
 40
0.0
  9
$DIMTM
 40
0.0
  9
$DIMTXT
 40
0.18
  9
$DIMCEN
 40
0.09
  9
$DIMTSZ
 40
0.0
  9
$DIMTOL
 70
     0
  9
$DIMLIM
 70
     0
  9
$DIMTIH
 70
     1
  9
$DIMTOH
 70
     1
  9
$DIMSE1
 70
     0
  9
$DIMSE2
 70
     0
  9
$DIMTAD
 70
     0
  9
$DIMZIN
 70
     0
  9
$DIMBLK
  1

  9
$DIMASO
 70
     1
  9
$DIMSHO
 70
     1
  9
$DIMPOST
  1

  9
$DIMAPOST
  1

  9
$DIMALT
 70
     0
  9
$DIMALTD
 70
     2
  9
$DIMALTF
 40
25.4
  9
$DIMLFAC
 40
1.0
  9
$DIMTOFL
 70
     0
  9
$DIMTVP
 40
0.0
  9
$DIMTIX
 70
     0
  9
$DIMSOXD
 70
     0
  9
$DIMSAH
 70
     0
  9
$DIMBLK1
  1

  9
$DIMBLK2
  1

  9
$DIMSTYLE
  2
Standard
  9
$DIMCLRD
 70
     0
  9
$DIMCLRE
 70
     0
  9
$DIMCLRT
 70
     0
  9
$DIMTFAC
 40
1.0
  9
$DIMGAP
 40
0.09
  9
$DIMJUST
 70
     0
  9
$DIMSD1
 70
     0
  9
$DIMSD2
 70
     0
  9
$DIMTOLJ
 70
     1
  9
$DIMTZIN
 70
     0
  9
$DIMALTZ
 70
     0
  9
$DIMALTTZ
 70
     0
  9
$DIMUPT
 70
     0
  9
$DIMDEC
 70
     4
  9
$DIMTDEC
 70
     4
  9
$DIMALTU
 70
     2
  9
$DIMALTTD
 70
     2
  9
$DIMTXSTY
  7
Standard
  9
$DIMAUNIT
 70
     0
  9
$DIMADEC
 70
     0
  9
$DIMALTRND
 40
0.0
  9
$DIMAZIN
 70
     0
  9
$DIMDSEP
 70
    46
  9
$DIMATFIT
 70
     3
  9
$DIMFRAC
 70
     0
  9
$DIMLDRBLK
  1

  9
$DIMLUNIT
 70
     2
  9
$DIMLWD
 70
    -2
  9
$DIMLWE
 70
    -2
  9
$DIMTMOVE
 70
     0
  9
$LUNITS
 70
     2
  9
$LUPREC
 70
     4
  9
$SKETCHINC
 40
0.1
  9
$FILLETRAD
 40
0.0
  9
$AUNITS
 70
     0
  9
$AUPREC
 70
     0
  9
$MENU
  1
.
  9
$ELEVATION
 40
0.0
  9
$PELEVATION
 40
0.0
  9
$THICKNESS
 40
0.0
  9
$LIMCHECK
 70
     0
  9
$CHAMFERA
 40
0.0
  9
$CHAMFERB
 40
0.0
  9
$CHAMFERC
 40
0.0
  9
$CHAMFERD
 40
0.0
  9
$SKPOLY
 70
     0
  9
$TDCREATE
 40
2454690.723592476
  9
$TDUCREATE
 40
2454690.640259143
  9
$TDUPDATE
 40
2454690.726357962
  9
$TDUUPDATE
 40
2454690.643024629
  9
$TDINDWG
 40
0.0027654861
  9
$TDUSRTIMER
 40
0.0027654861
  9
$USRTIMER
 70
     1
  9
$ANGBASE
 50
0.0
  9
$ANGDIR
 70
     0
  9
$PDMODE
 70
     0
  9
$PDSIZE
 40
0.0
  9
$PLINEWID
 40
0.0
  9
$SPLFRAME
 70
     0
  9
$SPLINETYPE
 70
     6
  9
$SPLINESEGS
 70
     8
  9
$HANDSEED
  5
149
  9
$SURFTAB1
 70
     6
  9
$SURFTAB2
 70
     6
  9
$SURFTYPE
 70
     6
  9
$SURFU
 70
     6
  9
$SURFV
 70
     6
  9
$UCSBASE
  2

  9
$UCSNAME
  2

  9
$UCSORG
 10
0.0
 20
0.0
 30
0.0
  9
$UCSXDIR
 10
1.0
 20
0.0
 30
0.0
  9
$UCSYDIR
 10
0.0
 20
1.0
 30
0.0
  9
$UCSORTHOREF
  2

  9
$UCSORTHOVIEW
 70
     1
  9
$UCSORGTOP
 10
0.0
 20
0.0
 30
0.0
  9
$UCSORGBOTTOM
 10
0.0
 20
0.0
 30
0.0
  9
$UCSORGLEFT
 10
0.0
 20
0.0
 30
0.0
  9
$UCSORGRIGHT
 10
0.0
 20
0.0
 30
0.0
  9
$UCSORGFRONT
 10
0.0
 20
0.0
 30
0.0
  9
$UCSORGBACK
 10
0.0
 20
0.0
 30
0.0
  9
$PUCSBASE
  2

  9
$PUCSNAME
  2

  9
$PUCSORG
 10
0.0
 20
0.0
 30
0.0
  9
$PUCSXDIR
 10
1.0
 20
0.0
 30
0.0
  9
$PUCSYDIR
 10
0.0
 20
1.0
 30
0.0
  9
$PUCSORTHOREF
  2

  9
$PUCSORTHOVIEW
 70
     0
  9
$PUCSORGTOP
 10
0.0
 20
0.0
 30
0.0
  9
$PUCSORGBOTTOM
 10
0.0
 20
0.0
 30
0.0
  9
$PUCSORGLEFT
 10
0.0
 20
0.0
 30
0.0
  9
$PUCSORGRIGHT
 10
0.0
 20
0.0
 30
0.0
  9
$PUCSORGFRONT
 10
0.0
 20
0.0
 30
0.0
  9
$PUCSORGBACK
 10
0.0
 20
0.0
 30
0.0
  9
$USERI1
 70
     0
  9
$USERI2
 70
     0
  9
$USERI3
 70
     0
  9
$USERI4
 70
     0
  9
$USERI5
 70
     0
  9
$USERR1
 40
0.0
  9
$USERR2
 40
0.0
  9
$USERR3
 40
0.0
  9
$USERR4
 40
0.0
  9
$USERR5
 40
0.0
  9
$WORLDVIEW
 70
     1
  9
$SHADEDGE
 70
     3
  9
$SHADEDIF
 70
    70
  9
$TILEMODE
 70
     1
  9
$MAXACTVP
 70
    64
  9
$PINSBASE
 10
0.0
 20
0.0
 30
0.0
  9
$PLIMCHECK
 70
     0
  9
$PEXTMIN
 10
1.000000000000000E+20
 20
1.000000000000000E+20
 30
1.000000000000000E+20
  9
$PEXTMAX
 10
-1.000000000000000E+20
 20
-1.000000000000000E+20
 30
-1.000000000000000E+20
  9
$PLIMMIN
 10
0.0
 20
0.0
  9
$PLIMMAX
 10
12.0
 20
9.0
  9
$UNITMODE
 70
     0
  9
$VISRETAIN
 70
     1
  9
$PLINEGEN
 70
     0
  9
$PSLTSCALE
 70
     1
  9
$TREEDEPTH
 70
  3020
  9
$CMLSTYLE
  2
Standard
  9
$CMLJUST
 70
     0
  9
$CMLSCALE
 40
1.0
  9
$PROXYGRAPHICS
 70
     1
  9
$MEASUREMENT
 70
     0
  9
$CELWEIGHT
370
    -1
  9
$ENDCAPS
280
     0
  9
$JOINSTYLE
280
     0
  9
$LWDISPLAY
290
     0
  9
$INSUNITS
 70
     0
  9
$HYPERLINKBASE
  1

  9
$STYLESHEET
  1

  9
$XEDIT
290
     1
  9
$CEPSNTYPE
380
     0
  9
$PSTYLEMODE
290
     1
  9
$FINGERPRINTGUID
  2
{DC4F28B8-699C-4D61-B68C-5DBD246E4B76}
  9
$VERSIONGUID
  2
{FCF67AF8-5602-4E68-ABF4-3CE5DC9BBC87}
  9
$EXTNAMES
290
     1
  9
$PSVPSCALE
 40
0.0
  9
$OLESTARTUP
290
     0
  0
ENDSEC
  0
SECTION
  2
CLASSES
  0
CLASS
  1
ACDBDICTIONARYWDFLT
  2
AcDbDictionaryWithDefault
  3
AutoCAD 2000
 90
        0
280
     0
281
     0
  0
CLASS
  1
ACDBPLACEHOLDER
  2
AcDbPlaceHolder
  3
AutoCAD 2000
 90
        0
280
     0
281
     0
  0
CLASS
  1
LAYOUT
  2
AcDbLayout
  3
AutoCAD 2000
 90
        0
280
     0
281
     0
  0
CLASS
  1
DICTIONARYVAR
  2
AcDbDictionaryVar
  3
AutoCAD 2000
 90
        0
280
     0
281
     0
  0
ENDSEC
  0
SECTION
  2
TABLES
  0
TABLE
  2
VPORT
  5
8
330
0
100
AcDbSymbolTable
 70
     3
  0
VPORT
  5
148
330
8
100
AcDbSymbolTableRecord
100
AcDbViewportTableRecord
  2
*Active
 70
     0
 10
0.0
 20
0.0
 11
1.0
 21
1.0
 12
23.99999999999999
 22
105.0000000000001
 13
0.0
 23
0.0
 14
1.0
 24
1.0
 15
0.0
 25
0.0
 16
0.0
 26
0.0
 36
1.0
 17
0.0
 27
0.0
 37
0.0
 40
211.5009328153189
 41
2.043533930857874
 42
50.0
 43
0.0
 44
0.0
 50
0.0
 51
0.0
 71
     0
 72
   100
 73
     1
 74
     3
 75
     0
 76
     0
 77
     0
 78
     0
281
     0
 65
     1
110
0.0
120
0.0
130
0.0
111
1.0
121
0.0
131
0.0
112
0.0
122
1.0
132
0.0
 79
     1
146
0.0
  0
ENDTAB
  0
TABLE
  2
LTYPE
  5
5
330
0
100
AcDbSymbolTable
 70
     1
  0
LTYPE
  5
13
330
5
100
AcDbSymbolTableRecord
100
AcDbLinetypeTableRecord
  2
ByBlock
 70
     0
  3

 72
    65
 73
     0
 40
0.0
  0
LTYPE
  5
14
330
5
100
AcDbSymbolTableRecord
100
AcDbLinetypeTableRecord
  2
ByLayer
 70
     0
  3

 72
    65
 73
     0
 40
0.0
  0
LTYPE
  5
15
330
5
100
AcDbSymbolTableRecord
100
AcDbLinetypeTableRecord
  2
Continuous
 70
     0
  3
Solid line
 72
    65
 73
     0
 40
0.0
  0
ENDTAB
  0
TABLE
  2
LAYER
  5
2
330
0
100
AcDbSymbolTable
 70
     1
  0
LAYER
  5
10
330
2
100
AcDbSymbolTableRecord
100
AcDbLayerTableRecord
  2
0
 70
     0
 62
     7
  6
Continuous
370
    -3
390
F
  0
ENDTAB
  0
TABLE
  2
STYLE
  5
3
330
0
100
AcDbSymbolTable
 70
     1
  0
STYLE
  5
11
330
3
100
AcDbSymbolTableRecord
100
AcDbTextStyleTableRecord
  2
Standard
 70
     0
 40
0.0
 41
1.0
 50
0.0
 71
     0
 42
0.2
  3
txt
  4

  0
ENDTAB
  0
TABLE
  2
VIEW
  5
6
330
0
100
AcDbSymbolTable
 70
     0
  0
ENDTAB
  0
TABLE
  2
UCS
  5
7
330
0
100
AcDbSymbolTable
 70
     0
  0
ENDTAB
  0
TABLE
  2
APPID
  5
9
330
0
100
AcDbSymbolTable
 70
     1
  0
APPID
  5
12
330
9
100
AcDbSymbolTableRecord
100
AcDbRegAppTableRecord
  2
ACAD
 70
     0
  0
ENDTAB
  0
TABLE
  2
DIMSTYLE
  5
A
330
0
100
AcDbSymbolTable
 70
     1
100
AcDbDimStyleTable
 71
     0
  0
DIMSTYLE
105
13F
330
A
100
AcDbSymbolTableRecord
100
AcDbDimStyleTableRecord
  2
Standard
 70
     0
340
11
  0
ENDTAB
  0
TABLE
  2
BLOCK_RECORD
  5
1
330
0
100
AcDbSymbolTable
 70
     0
  0
BLOCK_RECORD
  5
1E
330
1
100
AcDbSymbolTableRecord
100
AcDbBlockTableRecord
  2
*Model_Space
340
21
  0
BLOCK_RECORD
  5
1A
330
1
100
AcDbSymbolTableRecord
100
AcDbBlockTableRecord
  2
*Paper_Space
340
1D
  0
ENDTAB
  0
ENDSEC
  0
SECTION
  2
BLOCKS
  0
BLOCK
  5
1F
330
1E
100
AcDbEntity
  8
0
100
AcDbBlockBegin
  2
*Model_Space
 70
     0
 10
0.0
 20
0.0
 30
0.0
  3
*Model_Space
  1

  0
ENDBLK
  5
20
330
1E
100
AcDbEntity
  8
0
100
AcDbBlockEnd
  0
BLOCK
  5
1B
330
1A
100
AcDbEntity
 67
     1
  8
0
100
AcDbBlockBegin
  2
*Paper_Space
 70
     0
 10
0.0
 20
0.0
 30
0.0
  3
*Paper_Space
  1

  0
ENDBLK
  5
1C
330
1A
100
AcDbEntity
 67
     1
  8
0
100
AcDbBlockEnd
  0
ENDSEC
  0
SECTION
  2
ENTITIES
  0
LINE
  5
22
330
1E
100
AcDbEntity
  8
0
100
AcDbLine
 10
0.461199999999999
 20
0.0701221693533157
 30
0.0
 11
1.8269
 21
0.066537229353316
 31
0.0
  0
LINE
  5
23
330
1E
100
AcDbEntity
  8
0
100
AcDbLine
 10
10.66629999999999
 20
0.0579607893533166
 30
0.0
 11
14.81559999999999
 21
0.0561948893533168
 31
0.0
  0
LINE
  5
24
330
1E
100
AcDbEntity
  8
0
100
AcDbLine
 10
7.02939999999999
 20
0.0603373893533165
 30
0.0
 11
10.66629999999999
 21
0.0579607893533166
 31
0.0
  0
LINE
  5
25
330
1E
100
AcDbEntity
  8
0
100
AcDbLine
 10
4.04469999999999
 20
0.0632332893533162
 30
0.0
 11
7.02939999999999
 21
0.0603373893533165
 31
0.0
  0
LINE
  5
26
330
1E
100
AcDbEntity
  8
0
100
AcDbLine
 10
1.8269
 20
0.066537229353316
 30
0.0
 11
4.04469999999999
 21
0.0632332893533162
 31
0.0
  0
LINE
  5
27
330
1E
100
AcDbEntity
  8
0
100
AcDbLine
 10
11.05829999999999
 20
54.767844145253
 30
0.0
 11
14.09321
 21
50.83506315139111
 31
0.0
  0
LINE
  5
28
330
1E
100
AcDbEntity
  8
0
100
AcDbLine
 10
9.992599999999999
 20
59.4059167779366
 30
0.0
 11
10.0
 21
64.0792907309944
 31
0.0
  0
LINE
  5
29
330
1E
100
AcDbEntity
  8
0
100
AcDbLine
 10
9.992599999999999
 20
59.4059167779366
 30
0.0
 11
11.0582
 21
64.0431622954863
 31
0.0
  0
LINE
  5
2A
330
1E
100
AcDbEntity
  8
0
100
AcDbLine
 10
9.992599999999999
 20
59.4059167779366
 30
0.0
 11
11.05829999999999
 21
54.767844145253
 31
0.0
  0
LINE
  5
2B
330
1E
100
AcDbEntity
  8
0
100
AcDbLine
 10
10.0
 20
64.0792907309944
 30
0.0
 11
11.06559999999999
 21
68.7165329298199
 31
0.0
  0
LINE
  5
2C
330
1E
100
AcDbEntity
  8
0
100
AcDbLine
 10
11.0582
 20
64.0431622954863
 30
0.0
 11
14.09297999999999
 21
67.9735888904689
 31
0.0
  0
LINE
  5
2D
330
1E
100
AcDbEntity
  8
0
100
AcDbLine
 10
-0.0000000000000026
 20
0.0738503893533155
 30
0.0
 11
0.461199999999999
 21
0.0701221693533157
 31
0.0
  0
LINE
  5
2E
330
1E
100
AcDbEntity
  8
0
100
AcDbLine
 10
0.461199999999999
 20
0.0701221693533157
 30
0.0
 11
1.8269
 21
0.066537229353316
 31
0.0
  0
LINE
  5
2F
330
1E
100
AcDbEntity
  8
0
100
AcDbLine
 10
-0.0000000000000026
 20
0.0738503893533155
 30
0.0
 11
0.461199999999999
 21
0.0701221693533157
 31
0.0
  0
LINE
  5
30
330
1E
100
AcDbEntity
  8
0
100
AcDbLine
 10
-0.0000000000000026
 20
0.0738503893533155
 30
0.0
 11
-0.0000000000000026
 21
129.573850389353
 31
0.0
  0
LINE
  5
31
330
1E
100
AcDbEntity
  8
0
100
AcDbLine
 10
11.06559999999999
 20
68.7165329298199
 30
0.0
 11
14.10041
 21
72.64695811291701
 31
0.0
  0
LINE
  5
32
330
1E
100
AcDbEntity
  8
0
100
AcDbLine
 10
10.0
 20
64.24805038935339
 30
0.0
 11
11.0657
 21
68.88575038935329
 31
0.0
  0
LINE
  5
33
330
1E
100
AcDbEntity
  8
0
100
AcDbLine
 10
10.0
 20
64.24805038935339
 30
0.0
 11
10.0193897413154
 21
64.1636703543542
 31
0.0
  0
LINE
  5
34
330
1E
100
AcDbEntity
  8
0
100
AcDbLine
 10
10.0
 20
64.24805038935339
 30
0.0
 11
10.02909999999999
 21
107.721850389353
 31
0.0
  0
LINE
  5
35
330
1E
100
AcDbEntity
  8
0
100
AcDbLine
 10
14.09321
 20
50.83506315139111
 30
0.0
 11
18.63001
 21
48.2081186319096
 31
0.0
  0
LINE
  5
36
330
1E
100
AcDbEntity
  8
0
100
AcDbLine
 10
14.66249
 20
61.7411393356551
 30
0.0
 11
15.37294
 21
64.8327884603703
 31
0.0
  0
LINE
  5
37
330
1E
100
AcDbEntity
  8
0
100
AcDbLine
 10
14.66249
 20
61.7411393356551
 30
0.0
 11
15.37302
 21
58.6489386987847
 31
0.0
  0
LINE
  5
38
330
1E
100
AcDbEntity
  8
0
100
AcDbLine
 10
18.63001
 20
48.2081186319096
 30
0.0
 11
23.99257492999999
 21
47.28175590838169
 31
0.0
  0
LINE
  5
39
330
1E
100
AcDbEntity
  8
0
100
AcDbLine
 10
17.39637999999999
 20
56.0269519126904
 30
0.0
 11
20.42107
 21
54.27558339778979
 31
0.0
  0
LINE
  5
3A
330
1E
100
AcDbEntity
  8
0
100
AcDbLine
 10
15.37302
 20
58.6489386987847
 30
0.0
 11
17.39637999999999
 21
56.0269519126904
 31
0.0
  0
LINE
  5
3B
330
1E
100
AcDbEntity
  8
0
100
AcDbLine
 10
15.37294
 20
64.8327884603703
 30
0.0
 11
17.39622999999999
 21
67.45320853395489
 31
0.0
  0
LINE
  5
3C
330
1E
100
AcDbEntity
  8
0
100
AcDbLine
 10
17.39622999999999
 20
67.45320853395489
 30
0.0
 11
20.42432
 21
69.2034574026146
 31
0.0
  0
LINE
  5
3D
330
1E
100
AcDbEntity
  8
0
100
AcDbLine
 10
14.09297999999999
 20
67.9735888904689
 30
0.0
 11
18.63488
 21
70.59880130928419
 31
0.0
  0
LINE
  5
3E
330
1E
100
AcDbEntity
  8
0
100
AcDbLine
 10
14.10041
 20
72.64695811291701
 30
0.0
 11
18.64232
 21
75.27223472524291
 31
0.0
  0
LINE
  5
3F
330
1E
100
AcDbEntity
  8
0
100
AcDbLine
 10
18.63488
 20
70.59880130928419
 30
0.0
 11
24.01485389999999
 21
71.51915695063779
 31
0.0
  0
LINE
  5
40
330
1E
100
AcDbEntity
  8
0
100
AcDbLine
 10
14.81559999999999
 20
0.0561948893533168
 30
0.0
 11
19.31782999999999
 21
0.0551073893533169
 31
0.0
  0
LINE
  5
41
330
1E
100
AcDbEntity
  8
0
100
AcDbLine
 10
11.0657
 20
68.88575038935329
 30
0.0
 11
14.10051
 21
72.81725038935329
 31
0.0
  0
LINE
  5
42
330
1E
100
AcDbEntity
  8
0
100
AcDbLine
 10
18.64232
 20
75.27223472524291
 30
0.0
 11
24.0222873
 21
76.1925892615871
 31
0.0
  0
LINE
  5
43
330
1E
100
AcDbEntity
  8
0
100
AcDbLine
 10
10.02909999999999
 20
107.721850389353
 30
0.0
 11
10.49009999999999
 21
110.901850389353
 31
0.0
  0
LINE
  5
45
330
1E
100
AcDbEntity
  8
0
100
AcDbLine
 10
10.49009999999999
 20
110.901850389353
 30
0.0
 11
11.5041700043514
 21
113.5148498744965
 31
0.0
  0
LINE
  5
48
330
1E
100
AcDbEntity
  8
0
100
AcDbLine
 10
0.461199999999999
 20
129.569850389353
 30
0.0
 11
1.8269
 21
129.566850389353
 31
0.0
  0
LINE
  5
49
330
1E
100
AcDbEntity
  8
0
100
AcDbLine
 10
-0.0000000000000026
 20
129.573850389353
 30
0.0
 11
0.49592372324106
 21
130.0697741125939
 31
0.0
  0
LINE
  5
4A
330
1E
100
AcDbEntity
  8
0
100
AcDbLine
 10
-0.0000000000000026
 20
129.573850389353
 30
0.0
 11
0.461199999999999
 21
129.569850389353
 31
0.0
  0
LINE
  5
4B
330
1E
100
AcDbEntity
  8
0
100
AcDbLine
 10
0.461199999999999
 20
129.569850389353
 30
0.0
 11
1.8269
 21
129.566850389353
 31
0.0
  0
LINE
  5
4C
330
1E
100
AcDbEntity
  8
0
100
AcDbLine
 10
1.8269
 20
129.566850389353
 30
0.0
 11
4.04469999999999
 21
129.562850389353
 31
0.0
  0
LINE
  5
4D
330
1E
100
AcDbEntity
  8
0
100
AcDbLine
 10
4.04469999999999
 20
129.562850389353
 30
0.0
 11
7.02939999999999
 21
129.559850389353
 31
0.0
  0
LINE
  5
4E
330
1E
100
AcDbEntity
  8
0
100
AcDbLine
 10
7.02939999999999
 20
129.559850389353
 30
0.0
 11
10.66629999999999
 21
129.557850389353
 31
0.0
  0
LINE
  5
4F
330
1E
100
AcDbEntity
  8
0
100
AcDbLine
 10
10.66629999999999
 20
129.557850389353
 30
0.0
 11
14.81559999999999
 21
129.555850389353
 31
0.0
  0
LINE
  5
50
330
1E
100
AcDbEntity
  8
0
100
AcDbLine
 10
14.81559999999999
 20
129.555850389353
 30
0.0
 11
19.31782999999999
 21
129.554850389353
 31
0.0
  0
LINE
  5
51
330
1E
100
AcDbEntity
  8
0
100
AcDbLine
 10
-0.0000000000000026
 20
129.573850389353
 30
0.0
 11
0.49592372324106
 21
130.0697741125939
 31
0.0
  0
LINE
  5
52
330
1E
100
AcDbEntity
  8
0
100
AcDbLine
 10
-0.0000000000000026
 20
129.573850389353
 30
0.0
 11
0.461199999999999
 21
129.569850389353
 31
0.0
  0
LINE
  5
53
330
1E
100
AcDbEntity
  8
0
100
AcDbLine
 10
-0.0000000000000026
 20
129.573850389353
 30
0.0
 11
-0.0000000000000026
 21
0.0738503893533204
 31
0.0
  0
LINE
  5
54
330
1E
100
AcDbEntity
  8
0
100
AcDbLine
 10
14.10051
 20
72.81725038935329
 30
0.0
 11
18.64242999999999
 21
75.4442503893533
 31
0.0
  0
LINE
  5
55
330
1E
100
AcDbEntity
  8
0
100
AcDbLine
 10
20.42107
 20
54.27558339778979
 30
0.0
 11
23.99628941
 21
53.6579476271644
 31
0.0
  0
LINE
  5
56
330
1E
100
AcDbEntity
  8
0
100
AcDbLine
 10
20.42432
 20
69.2034574026146
 30
0.0
 11
24.0111428
 21
69.8170653578451
 31
0.0
  0
LINE
  5
57
330
1E
100
AcDbEntity
  8
0
100
AcDbLine
 10
23.99628941
 20
53.6579476271644
 30
0.0
 11
27.60265
 21
54.2839643514843
 31
0.0
  0
LINE
  5
58
330
1E
100
AcDbEntity
  8
0
100
AcDbLine
 10
23.99257492999999
 20
47.28175590838169
 30
0.0
 11
29.40184999999999
 21
48.22071104309749
 31
0.0
  0
LINE
  5
5C
330
1E
100
AcDbEntity
  8
0
100
AcDbLine
 10
23.9999999999999
 20
0.0547401893533169
 30
0.0
 11
28.68217
 21
0.0551073893533169
 31
0.0
  0
LINE
  5
5D
330
1E
100
AcDbEntity
  8
0
100
AcDbLine
 10
19.31782999999999
 20
0.0551073893533169
 30
0.0
 11
23.9999999999999
 21
0.0547401893533169
 31
0.0
  0
LINE
  5
5E
330
1E
100
AcDbEntity
  8
0
100
AcDbLine
 10
19.31782999999999
 20
129.554850389353
 30
0.0
 11
24.00000000000019
 21
129.554850389353
 31
0.0
  0
LINE
  5
5F
330
1E
100
AcDbEntity
  8
0
100
AcDbLine
 10
18.64242999999999
 20
75.4442503893533
 30
0.0
 11
24.0000000000001
 21
76.3668503893534
 31
0.0
  0
LINE
  5
60
330
1E
100
AcDbEntity
  8
0
100
AcDbLine
 10
-0.0000000000000026
 20
130.0738503893529
 30
0.0
 11
0.461199999999999
 21
130.069850389353
 31
0.0
  0
LINE
  5
61
330
1E
100
AcDbEntity
  8
0
100
AcDbLine
 10
-0.0000000000000026
 20
130.0738503893529
 30
0.0
 11
-0.0000000000000026
 21
150.0738503893529
 31
0.0
  0
LINE
  5
62
330
1E
100
AcDbEntity
  8
0
100
AcDbLine
 10
-0.0000000000000026
 20
150.0738503893529
 30
0.0
 11
-0.0000000000000026
 21
130.0738503893529
 31
0.0
  0
LINE
  5
64
330
1E
100
AcDbEntity
  8
0
100
AcDbLine
 10
-0.0000000000000026
 20
150.0738503893529
 30
0.0
 11
0.461199999999999
 21
150.069850389353
 31
0.0
  0
LINE
  5
65
330
1E
100
AcDbEntity
  8
0
100
AcDbLine
 10
-0.0000000000000026
 20
150.0738503893529
 30
0.0
 11
0.461199999999999
 21
150.069850389353
 31
0.0
  0
LINE
  5
67
330
1E
100
AcDbEntity
  8
0
100
AcDbLine
 10
10.66629999999999
 20
130.057850389353
 30
0.0
 11
14.81559999999999
 21
130.0558503893529
 31
0.0
  0
LINE
  5
68
330
1E
100
AcDbEntity
  8
0
100
AcDbLine
 10
7.02939999999999
 20
130.059850389353
 30
0.0
 11
10.66629999999999
 21
130.057850389353
 31
0.0
  0
LINE
  5
69
330
1E
100
AcDbEntity
  8
0
100
AcDbLine
 10
4.04469999999999
 20
130.062850389353
 30
0.0
 11
7.02939999999999
 21
130.059850389353
 31
0.0
  0
LINE
  5
6A
330
1E
100
AcDbEntity
  8
0
100
AcDbLine
 10
0.461199999999999
 20
130.069850389353
 30
0.0
 11
1.8269
 21
130.066850389353
 31
0.0
  0
LINE
  5
6B
330
1E
100
AcDbEntity
  8
0
100
AcDbLine
 10
1.8269
 20
130.066850389353
 30
0.0
 11
4.04469999999999
 21
130.062850389353
 31
0.0
  0
LINE
  5
6C
330
1E
100
AcDbEntity
  8
0
100
AcDbLine
 10
14.81559999999999
 20
130.0558503893529
 30
0.0
 11
19.31782999999999
 21
130.054850389353
 31
0.0
  0
LINE
  5
6E
330
1E
100
AcDbEntity
  8
0
100
AcDbLine
 10
19.31782999999999
 20
150.054850389353
 30
0.0
 11
24.00000000000019
 21
150.054850389353
 31
0.0
  0
LINE
  5
6F
330
1E
100
AcDbEntity
  8
0
100
AcDbLine
 10
17.47018751334859
 20
150.056118001186
 30
0.0
 11
17.56571
 21
150.1491750380859
 31
0.0
  0
LINE
  5
71
330
1E
100
AcDbEntity
  8
0
100
AcDbLine
 10
14.81559999999999
 20
150.055850389353
 30
0.0
 11
19.31782999999999
 21
150.054850389353
 31
0.0
  0
LINE
  5
72
330
1E
100
AcDbEntity
  8
0
100
AcDbLine
 10
10.66629999999999
 20
150.057850389353
 30
0.0
 11
14.81559999999999
 21
150.055850389353
 31
0.0
  0
LINE
  5
73
330
1E
100
AcDbEntity
  8
0
100
AcDbLine
 10
7.02939999999999
 20
150.059850389353
 30
0.0
 11
10.66629999999999
 21
150.057850389353
 31
0.0
  0
LINE
  5
74
330
1E
100
AcDbEntity
  8
0
100
AcDbLine
 10
4.04469999999999
 20
150.062850389353
 30
0.0
 11
7.02939999999999
 21
150.059850389353
 31
0.0
  0
LINE
  5
75
330
1E
100
AcDbEntity
  8
0
100
AcDbLine
 10
0.461199999999999
 20
150.069850389353
 30
0.0
 11
1.8269
 21
150.066850389353
 31
0.0
  0
LINE
  5
7B
330
1E
100
AcDbEntity
  8
0
100
AcDbLine
 10
17.56571
 20
150.1491750380859
 30
0.0
 11
17.75929999999999
 21
150.337764213169
 31
0.0
  0
LINE
  5
7C
330
1E
100
AcDbEntity
  8
0
100
AcDbLine
 10
17.77796
 20
150.348968467196
 30
0.0
 11
18.55105
 21
150.8967192412649
 31
0.0
  0
LINE
  5
7D
330
1E
100
AcDbEntity
  8
0
100
AcDbLine
 10
18.68352
 20
150.9886308683159
 30
0.0
 11
19.48901
 21
151.449860637911
 31
0.0
  0
LINE
  5
7E
330
1E
100
AcDbEntity
  8
0
100
AcDbLine
 10
18.55105
 20
150.8967192412649
 30
0.0
 11
18.68352
 21
150.9886308683159
 31
0.0
  0
LINE
  5
7F
330
1E
100
AcDbEntity
  8
0
100
AcDbLine
 10
19.3114
 20
177.3565575272129
 30
0.0
 11
19.31197
 21
180.9326143924829
 31
0.0
  0
LINE
  5
80
330
1E
100
AcDbEntity
  8
0
100
AcDbLine
 10
19.3114
 20
177.3565575272129
 30
0.0
 11
19.37268999999999
 21
173.745959884612
 31
0.0
  0
LINE
  5
81
330
1E
100
AcDbEntity
  8
0
100
AcDbLine
 10
19.48901
 20
151.449860637911
 30
0.0
 11
20.33795
 21
151.83343779166
 31
0.0
  0
LINE
  5
82
330
1E
100
AcDbEntity
  8
0
100
AcDbLine
 10
19.49573
 20
170.1043738872489
 30
0.0
 11
19.68034
 21
166.4360699644869
 31
0.0
  0
LINE
  5
83
330
1E
100
AcDbEntity
  8
0
100
AcDbLine
 10
19.37268999999999
 20
173.745959884612
 30
0.0
 11
19.49573
 21
170.1043738872489
 31
0.0
  0
LINE
  5
84
330
1E
100
AcDbEntity
  8
0
100
AcDbLine
 10
19.31197
 20
180.9326143924829
 30
0.0
 11
19.37438
 21
184.4699289342359
 31
0.0
  0
LINE
  5
85
330
1E
100
AcDbEntity
  8
0
100
AcDbLine
 10
19.37438
 20
184.4699289342359
 30
0.0
 11
19.49849
 21
187.9640681333409
 31
0.0
  0
LINE
  5
86
330
1E
100
AcDbEntity
  8
0
100
AcDbLine
 10
19.92646
 20
162.74545271158
 30
0.0
 11
20.23362999999999
 21
159.036206890636
 31
0.0
  0
LINE
  5
87
330
1E
100
AcDbEntity
  8
0
100
AcDbLine
 10
19.68034
 20
166.4360699644869
 30
0.0
 11
19.92646
 21
162.74545271158
 31
0.0
  0
LINE
  5
88
330
1E
100
AcDbEntity
  8
0
100
AcDbLine
 10
19.49849
 20
187.9640681333409
 30
0.0
 11
19.68427
 21
191.411925802742
 31
0.0
  0
LINE
  5
89
330
1E
100
AcDbEntity
  8
0
100
AcDbLine
 10
19.68427
 20
191.411925802742
 30
0.0
 11
19.93148
 21
194.809504305195
 31
0.0
  0
LINE
  5
8A
330
1E
100
AcDbEntity
  8
0
100
AcDbLine
 10
20.33795
 20
151.83343779166
 30
0.0
 11
20.9739249022513
 21
152.050835446243
 31
0.0
  0
LINE
  5
8B
330
1E
100
AcDbEntity
  8
0
100
AcDbLine
 10
20.60153
 20
155.312612591692
 30
0.0
 11
21.00010999999999
 21
151.821482270698
 31
0.0
  0
LINE
  5
8C
330
1E
100
AcDbEntity
  8
0
100
AcDbLine
 10
20.23362999999999
 20
159.036206890636
 30
0.0
 11
20.60153
 21
155.312612591692
 31
0.0
  0
LINE
  5
8D
330
1E
100
AcDbEntity
  8
0
100
AcDbLine
 10
19.93148
 20
194.809504305195
 30
0.0
 11
20.23969
 21
198.1517175755659
 31
0.0
  0
LINE
  5
8E
330
1E
100
AcDbEntity
  8
0
100
AcDbLine
 10
20.23969
 20
198.1517175755659
 30
0.0
 11
20.60882
 21
201.437168393469
 31
0.0
  0
LINE
  5
8F
330
1E
100
AcDbEntity
  8
0
100
AcDbLine
 10
21.51775
 20
151.424817047233
 30
0.0
 11
21.64086
 21
151.3533180613169
 31
0.0
  0
LINE
  5
90
330
1E
100
AcDbEntity
  8
0
100
AcDbLine
 10
21.39470999999999
 20
151.488761185995
 30
0.0
 11
21.51775
 21
151.424817047233
 31
0.0
  0
LINE
  5
91
330
1E
100
AcDbEntity
  8
0
100
AcDbLine
 10
21.27183
 20
151.5451057519669
 30
0.0
 11
21.39470999999999
 21
151.488761185995
 31
0.0
  0
LINE
  5
92
330
1E
100
AcDbEntity
  8
0
100
AcDbLine
 10
21.05996999999999
 20
151.676371538581
 30
0.0
 11
21.27183
 21
151.5451057519669
 31
0.0
  0
LINE
  5
93
330
1E
100
AcDbEntity
  8
0
100
AcDbLine
 10
21.00010999999999
 20
151.821482270698
 30
0.0
 11
21.05996999999999
 21
151.676371538581
 31
0.0
  0
LINE
  5
94
330
1E
100
AcDbEntity
  8
0
100
AcDbLine
 10
20.60882
 20
201.437168393469
 30
0.0
 11
21.03822
 21
204.660335902923
 31
0.0
  0
LINE
  5
95
330
1E
100
AcDbEntity
  8
0
100
AcDbLine
 10
21.52814
 20
207.824481410994
 30
0.0
 11
21.54803999999999
 21
207.921909886065
 31
0.0
  0
LINE
  5
96
330
1E
100
AcDbEntity
  8
0
100
AcDbLine
 10
21.54803999999999
 20
207.921909886065
 30
0.0
 11
21.6903
 21
208.369962699465
 31
0.0
  0
LINE
  5
97
330
1E
100
AcDbEntity
  8
0
100
AcDbLine
 10
21.03822
 20
204.660335902923
 30
0.0
 11
21.52814
 21
207.824481410994
 31
0.0
  0
LINE
  5
98
330
1E
100
AcDbEntity
  8
0
100
AcDbLine
 10
23.05556499999999
 20
150.880596906931
 30
0.0
 11
23.320722
 21
150.8411875237079
 31
0.0
  0
LINE
  5
99
330
1E
100
AcDbEntity
  8
0
100
AcDbLine
 10
21.64086
 20
151.3533180613169
 30
0.0
 11
21.76393
 21
151.2743278618079
 31
0.0
  0
LINE
  5
9A
330
1E
100
AcDbEntity
  8
0
100
AcDbLine
 10
21.76393
 20
151.2743278618079
 30
0.0
 11
22.15542
 21
151.082854220573
 31
0.0
  0
LINE
  5
9B
330
1E
100
AcDbEntity
  8
0
100
AcDbLine
 10
22.15542
 20
151.082854220573
 30
0.0
 11
22.67862
 21
150.936624391316
 31
0.0
  0
LINE
  5
9D
330
1E
100
AcDbEntity
  8
0
100
AcDbLine
 10
22.67862
 20
150.936624391316
 30
0.0
 11
23.05556499999999
 21
150.880596906931
 31
0.0
  0
LINE
  5
9F
330
1E
100
AcDbEntity
  8
0
100
AcDbLine
 10
23.320722
 20
150.8411875237079
 30
0.0
 11
24.0
 21
150.80954384222
 31
0.0
  0
LINE
  5
A2
330
1E
100
AcDbEntity
  8
0
100
AcDbLine
 10
21.6903
 20
208.369962699465
 30
0.0
 11
21.73467999999999
 21
208.503124045483
 31
0.0
  0
LINE
  5
A3
330
1E
100
AcDbEntity
  8
0
100
AcDbLine
 10
21.96127
 20
208.9027011823699
 30
0.0
 11
22.3668
 21
209.3446585343509
 31
0.0
  0
LINE
  5
A4
330
1E
100
AcDbEntity
  8
0
100
AcDbLine
 10
21.73467999999999
 20
208.503124045483
 30
0.0
 11
21.96127
 21
208.9027011823699
 31
0.0
  0
LINE
  5
A5
330
1E
100
AcDbEntity
  8
0
100
AcDbLine
 10
22.3668
 20
209.3446585343509
 30
0.0
 11
22.71679999999999
 21
209.5988293113389
 31
0.0
  0
LINE
  5
A9
330
1E
100
AcDbEntity
  8
0
100
AcDbLine
 10
22.71679999999999
 20
209.5988293113389
 30
0.0
 11
23.017881
 21
209.7319907164609
 31
0.0
  0
LINE
  5
AA
330
1E
100
AcDbEntity
  8
0
100
AcDbLine
 10
23.017881
 20
209.7319907164609
 30
0.0
 11
23.32350499999999
 21
209.862450911457
 31
0.0
  0
LINE
  5
AB
330
1E
100
AcDbEntity
  8
0
100
AcDbLine
 10
23.32350499999999
 20
209.862450911457
 30
0.0
 11
23.63388299999999
 21
209.9237382560759
 31
0.0
  0
LINE
  5
AC
330
1E
100
AcDbEntity
  8
0
100
AcDbLine
 10
23.63388299999999
 20
209.9237382560759
 30
0.0
 11
24.0
 21
209.945259810647
 31
0.0
  0
LINE
  5
B3
330
1E
100
AcDbEntity
  8
0
100
AcDbLine
 10
17.75929999999999
 20
150.337764213169
 30
0.0
 11
17.8457122879958
 21
150.3969724100679
 31
0.0
  0
LINE
  5
B5
330
1E
100
AcDbEntity
  8
0
100
AcDbLine
 10
1.8269
 20
150.066850389353
 30
0.0
 11
4.04469999999999
 21
150.062850389353
 31
0.0
  0
LINE
  5
B6
330
1E
100
AcDbEntity
  8
0
100
AcDbLine
 10
0.461199999999999
 20
150.069850389353
 30
0.0
 11
1.8269
 21
150.066850389353
 31
0.0
  0
LINE
  5
B7
330
1E
100
AcDbEntity
  8
0
100
AcDbLine
 10
0.461199999999999
 20
130.069850389353
 30
0.0
 11
1.8269
 21
130.066850389353
 31
0.0
  0
LINE
  5
B8
330
1E
100
AcDbEntity
  8
0
100
AcDbLine
 10
-0.0000000000000026
 20
130.0738503893529
 30
0.0
 11
0.461199999999999
 21
130.069850389353
 31
0.0
  0
LINE
  5
B9
330
1E
100
AcDbEntity
  8
0
100
AcDbLine
 10
19.31782999999999
 20
130.054850389353
 30
0.0
 11
23.9999999999999
 21
130.054850389353
 31
0.0
  0
LINE
  5
BA
330
1E
100
AcDbEntity
  8
0
100
AcDbLine
 10
19.31782999999999
 20
130.054850389353
 30
0.0
 11
23.9999999999999
 21
130.054850389353
 31
0.0
  0
LINE
  5
BB
330
1E
100
AcDbEntity
  8
0
100
AcDbLine
 10
24.0111428
 20
69.8170653578451
 30
0.0
 11
27.56810999999999
 21
69.20065567962859
 31
0.0
  0
LINE
  5
BC
330
1E
100
AcDbEntity
  8
0
100
AcDbLine
 10
24.01485389999999
 20
71.51915695063779
 30
0.0
 11
29.35004
 21
70.59462287540009
 31
0.0
  0
LINE
  5
BD
330
1E
100
AcDbEntity
  8
0
100
AcDbLine
 10
27.56810999999999
 20
69.20065567962859
 30
0.0
 11
30.59624
 21
67.4480314314433
 31
0.0
  0
LINE
  5
BE
330
1E
100
AcDbEntity
  8
0
100
AcDbLine
 10
27.60265
 20
54.2839643514843
 30
0.0
 11
30.59629
 21
56.0217748101787
 31
0.0
  0
LINE
  5
BF
330
1E
100
AcDbEntity
  8
0
100
AcDbLine
 10
29.35004
 20
70.59462287540009
 30
0.0
 11
33.89199999999999
 21
67.9658337270245
 31
0.0
  0
LINE
  5
C0
330
1E
100
AcDbEntity
  8
0
100
AcDbLine
 10
30.59624
 20
67.4480314314433
 30
0.0
 11
32.61957
 21
64.82603598511929
 31
0.0
  0
LINE
  5
C1
330
1E
100
AcDbEntity
  8
0
100
AcDbLine
 10
32.61957
 20
64.82603598511929
 30
0.0
 11
33.33008
 21
61.7273667487609
 31
0.0
  0
LINE
  5
C2
330
1E
100
AcDbEntity
  8
0
100
AcDbLine
 10
33.89199999999999
 20
67.9658337270245
 30
0.0
 11
36.9269
 21
64.033026752474
 31
0.0
  0
LINE
  5
C3
330
1E
100
AcDbEntity
  8
0
100
AcDbLine
 10
36.9269
 20
64.033026752474
 30
0.0
 11
37.9926
 21
59.3852558262555
 31
0.0
  0
LINE
  5
C4
330
1E
100
AcDbEntity
  8
0
100
AcDbLine
 10
33.89942999999999
 20
72.63920561636879
 30
0.0
 11
36.9343
 21
68.7063985918178
 31
0.0
  0
LINE
  5
C5
330
1E
100
AcDbEntity
  8
0
100
AcDbLine
 10
36.9343
 20
68.7063985918178
 30
0.0
 11
38.0
 21
64.0586269414134
 31
0.0
  0
LINE
  5
C6
330
1E
100
AcDbEntity
  8
0
100
AcDbLine
 10
32.6196
 20
58.64218622353379
 30
0.0
 11
33.33008
 21
61.7273667487609
 31
0.0
  0
LINE
  5
C7
330
1E
100
AcDbEntity
  8
0
100
AcDbLine
 10
36.9269
 20
54.75771726247021
 30
0.0
 11
37.9926
 21
59.3852558262555
 31
0.0
  0
LINE
  5
C8
330
1E
100
AcDbEntity
  8
0
100
AcDbLine
 10
30.59629
 20
56.0217748101787
 30
0.0
 11
32.6196
 21
58.64218622353379
 31
0.0
  0
LINE
  5
C9
330
1E
100
AcDbEntity
  8
0
100
AcDbLine
 10
33.89207999999999
 20
50.8273043277596
 30
0.0
 11
36.9269
 21
54.75771726247021
 31
0.0
  0
LINE
  5
CA
330
1E
100
AcDbEntity
  8
0
100
AcDbLine
 10
29.40184999999999
 20
48.22071104309749
 30
0.0
 11
33.89207999999999
 21
50.8273043277596
 31
0.0
  0
LINE
  5
CB
330
1E
100
AcDbEntity
  8
0
100
AcDbLine
 10
33.18439999999999
 20
0.0561948893533168
 30
0.0
 11
37.3337
 21
0.0579607893533166
 31
0.0
  0
LINE
  5
CC
330
1E
100
AcDbEntity
  8
0
100
AcDbLine
 10
28.68217
 20
0.0551073893533169
 30
0.0
 11
33.18439999999999
 21
0.0561948893533168
 31
0.0
  0
LINE
  5
CD
330
1E
100
AcDbEntity
  8
0
100
AcDbLine
 10
24.0222873
 20
76.1925892615871
 30
0.0
 11
29.35748
 21
75.26796878405569
 31
0.0
  0
LINE
  5
CE
330
1E
100
AcDbEntity
  8
0
100
AcDbLine
 10
29.35748
 20
75.26796878405569
 30
0.0
 11
33.89942999999999
 21
72.63920561636879
 31
0.0
  0
LINE
  5
D2
330
1E
100
AcDbEntity
  8
0
100
AcDbLine
 10
24.00000000000019
 20
129.554850389353
 30
0.0
 11
28.68217
 21
129.554850389353
 31
0.0
  0
LINE
  5
D3
330
1E
100
AcDbEntity
  8
0
100
AcDbLine
 10
28.68217
 20
129.554850389353
 30
0.0
 11
33.18439999999999
 21
129.555850389353
 31
0.0
  0
LINE
  5
D4
330
1E
100
AcDbEntity
  8
0
100
AcDbLine
 10
24.0000000000001
 20
76.3668503893534
 30
0.0
 11
29.35757
 21
75.4442503893533
 31
0.0
  0
LINE
  5
D5
330
1E
100
AcDbEntity
  8
0
100
AcDbLine
 10
33.18439999999999
 20
129.555850389353
 30
0.0
 11
37.3337
 21
129.557850389353
 31
0.0
  0
LINE
  5
D6
330
1E
100
AcDbEntity
  8
0
100
AcDbLine
 10
29.35757
 20
75.4442503893533
 30
0.0
 11
33.89949
 21
72.81725038935329
 31
0.0
  0
LINE
  5
D7
330
1E
100
AcDbEntity
  8
0
100
AcDbLine
 10
33.89949
 20
72.81725038935329
 30
0.0
 11
36.9343
 21
68.88575038935329
 31
0.0
  0
LINE
  5
D8
330
1E
100
AcDbEntity
  8
0
100
AcDbLine
 10
37.9926
 20
59.3852558262555
 30
0.0
 11
38.0
 21
64.0586269414134
 31
0.0
  0
LINE
  5
D9
330
1E
100
AcDbEntity
  8
0
100
AcDbLine
 10
37.3337
 20
0.0579607893533166
 30
0.0
 11
40.97059999999999
 21
0.0603373893533165
 31
0.0
  0
LINE
  5
DA
330
1E
100
AcDbEntity
  8
0
100
AcDbLine
 10
47.5388
 20
0.0701221693533157
 30
0.0
 11
48.0
 21
0.0738503893533154
 31
0.0
  0
LINE
  5
DB
330
1E
100
AcDbEntity
  8
0
100
AcDbLine
 10
48.0
 20
0.0738503893533154
 30
0.0
 11
48.0
 21
129.573850389353
 31
0.0
  0
LINE
  5
DC
330
1E
100
AcDbEntity
  8
0
100
AcDbLine
 10
46.17309999999999
 20
0.066537229353316
 30
0.0
 11
47.5388
 21
0.0701221693533157
 31
0.0
  0
LINE
  5
DD
330
1E
100
AcDbEntity
  8
0
100
AcDbLine
 10
43.95529999999999
 20
0.0632332893533162
 30
0.0
 11
46.17309999999999
 21
0.066537229353316
 31
0.0
  0
LINE
  5
DE
330
1E
100
AcDbEntity
  8
0
100
AcDbLine
 10
40.97059999999999
 20
0.0603373893533165
 30
0.0
 11
43.95529999999999
 21
0.0632332893533162
 31
0.0
  0
LINE
  5
DF
330
1E
100
AcDbEntity
  8
0
100
AcDbLine
 10
38.02088041548291
 20
107.5984746986476
 30
0.0
 11
38.0
 21
64.24805038935339
 31
0.0
  0
LINE
  5
E0
330
1E
100
AcDbEntity
  8
0
100
AcDbLine
 10
37.3337
 20
129.557850389353
 30
0.0
 11
40.97059999999999
 21
129.559850389353
 31
0.0
  0
LINE
  5
E1
330
1E
100
AcDbEntity
  8
0
100
AcDbLine
 10
40.97059999999999
 20
129.559850389353
 30
0.0
 11
43.95529999999999
 21
129.562850389353
 31
0.0
  0
LINE
  5
E2
330
1E
100
AcDbEntity
  8
0
100
AcDbLine
 10
43.95529999999999
 20
129.562850389353
 30
0.0
 11
46.17309999999999
 21
129.566850389353
 31
0.0
  0
LINE
  5
E3
330
1E
100
AcDbEntity
  8
0
100
AcDbLine
 10
46.17309999999999
 20
129.566850389353
 30
0.0
 11
47.5388
 21
129.569850389353
 31
0.0
  0
LINE
  5
E4
330
1E
100
AcDbEntity
  8
0
100
AcDbLine
 10
48.0
 20
129.573850389353
 30
0.0
 11
48.0
 21
0.0738503893533204
 31
0.0
  0
LINE
  5
E5
330
1E
100
AcDbEntity
  8
0
100
AcDbLine
 10
47.5388
 20
129.569850389353
 30
0.0
 11
48.0
 21
129.573850389353
 31
0.0
  0
LINE
  5
E6
330
1E
100
AcDbEntity
  8
0
100
AcDbLine
 10
37.97825973993889
 20
64.15344139612329
 30
0.0
 11
38.0
 21
64.24805038935339
 31
0.0
  0
LINE
  5
E7
330
1E
100
AcDbEntity
  8
0
100
AcDbLine
 10
36.9343
 20
68.88575038935329
 30
0.0
 11
38.0
 21
64.24805038935339
 31
0.0
  0
LINE
  5
E8
330
1E
100
AcDbEntity
  8
0
100
AcDbLine
 10
28.68217
 20
150.054850389353
 30
0.0
 11
33.18439999999999
 21
150.055850389353
 31
0.0
  0
LINE
  5
E9
330
1E
100
AcDbEntity
  8
0
100
AcDbLine
 10
30.43429
 20
150.1491750380859
 30
0.0
 11
30.5306922254226
 21
150.055260968605
 31
0.0
  0
LINE
  5
EA
330
1E
100
AcDbEntity
  8
0
100
AcDbLine
 10
30.2407
 20
150.337764213169
 30
0.0
 11
30.5306911572623
 21
150.055260968368
 31
0.0
  0
LINE
  5
EB
330
1E
100
AcDbEntity
  8
0
100
AcDbLine
 10
30.2407
 20
150.337764213169
 30
0.0
 11
30.43429
 21
150.1491750380859
 31
0.0
  0
LINE
  5
EC
330
1E
100
AcDbEntity
  8
0
100
AcDbLine
 10
24.0
 20
150.80954384222
 30
0.0
 11
24.679278
 21
150.8411875237079
 31
0.0
  0
LINE
  5
ED
330
1E
100
AcDbEntity
  8
0
100
AcDbLine
 10
24.679278
 20
150.8411875237079
 30
0.0
 11
25.32137999999999
 21
150.936624391316
 31
0.0
  0
LINE
  5
F6
330
1E
100
AcDbEntity
  8
0
100
AcDbLine
 10
25.32137999999999
 20
150.936624391316
 30
0.0
 11
25.84458
 21
151.082854220573
 31
0.0
  0
LINE
  5
F7
330
1E
100
AcDbEntity
  8
0
100
AcDbLine
 10
25.94562999999999
 20
151.132279740335
 30
0.0
 11
26.23607
 21
151.2743278618079
 31
0.0
  0
LINE
  5
F8
330
1E
100
AcDbEntity
  8
0
100
AcDbLine
 10
26.23607
 20
151.2743278618079
 30
0.0
 11
26.35914
 21
151.3533180613169
 31
0.0
  0
LINE
  5
F9
330
1E
100
AcDbEntity
  8
0
100
AcDbLine
 10
25.84458
 20
151.082854220573
 30
0.0
 11
26.23607
 21
151.2743278618079
 31
0.0
  0
LINE
  5
FA
330
1E
100
AcDbEntity
  8
0
100
AcDbLine
 10
25.84458
 20
151.082854220573
 30
0.0
 11
25.94562999999999
 21
151.132279740335
 31
0.0
  0
LINE
  5
FE
330
1E
100
AcDbEntity
  8
0
100
AcDbLine
 10
26.35914
 20
151.3533180613169
 30
0.0
 11
26.48225
 21
151.424817047233
 31
0.0
  0
LINE
  5
FF
330
1E
100
AcDbEntity
  8
0
100
AcDbLine
 10
26.48225
 20
151.424817047233
 30
0.0
 11
26.60529
 21
151.488761185995
 31
0.0
  0
LINE
  5
100
330
1E
100
AcDbEntity
  8
0
100
AcDbLine
 10
26.60529
 20
151.488761185995
 30
0.0
 11
26.72817
 21
151.5451057519669
 31
0.0
  0
LINE
  5
104
330
1E
100
AcDbEntity
  8
0
100
AcDbLine
 10
24.982119
 20
209.7319907164609
 30
0.0
 11
25.2832
 21
209.5988293113389
 31
0.0
  0
LINE
  5
105
330
1E
100
AcDbEntity
  8
0
100
AcDbLine
 10
24.366117
 20
209.9237382560759
 30
0.0
 11
24.676495
 21
209.862450911457
 31
0.0
  0
LINE
  5
106
330
1E
100
AcDbEntity
  8
0
100
AcDbLine
 10
24.0
 20
209.945259810647
 30
0.0
 11
24.366117
 21
209.9237382560759
 31
0.0
  0
LINE
  5
107
330
1E
100
AcDbEntity
  8
0
100
AcDbLine
 10
24.676495
 20
209.862450911457
 30
0.0
 11
24.982119
 21
209.7319907164609
 31
0.0
  0
LINE
  5
108
330
1E
100
AcDbEntity
  8
0
100
AcDbLine
 10
25.2832
 20
209.5988293113389
 30
0.0
 11
25.6332
 21
209.3446585343509
 31
0.0
  0
LINE
  5
109
330
1E
100
AcDbEntity
  8
0
100
AcDbLine
 10
25.6332
 20
209.3446585343509
 30
0.0
 11
26.03873
 21
208.9027011823699
 31
0.0
  0
LINE
  5
10A
330
1E
100
AcDbEntity
  8
0
100
AcDbLine
 10
26.03873
 20
208.9027011823699
 30
0.0
 11
26.26532
 21
208.503124045483
 31
0.0
  0
LINE
  5
10B
330
1E
100
AcDbEntity
  8
0
100
AcDbLine
 10
26.26532
 20
208.503124045483
 30
0.0
 11
26.3097
 21
208.369962699465
 31
0.0
  0
LINE
  5
10C
330
1E
100
AcDbEntity
  8
0
100
AcDbLine
 10
26.45195999999999
 20
207.921909886065
 30
0.0
 11
26.47185999999999
 21
207.824481410994
 31
0.0
  0
LINE
  5
10D
330
1E
100
AcDbEntity
  8
0
100
AcDbLine
 10
26.3097
 20
208.369962699465
 30
0.0
 11
26.45195999999999
 21
207.921909886065
 31
0.0
  0
LINE
  5
10E
330
1E
100
AcDbEntity
  8
0
100
AcDbLine
 10
26.47185999999999
 20
207.824481410994
 30
0.0
 11
26.96177999999999
 21
204.660335902923
 31
0.0
  0
LINE
  5
10F
330
1E
100
AcDbEntity
  8
0
100
AcDbLine
 10
28.51099
 20
151.449860637911
 30
0.0
 11
29.31648
 21
150.9886308683159
 31
0.0
  0
LINE
  5
110
330
1E
100
AcDbEntity
  8
0
100
AcDbLine
 10
29.31648
 20
150.9886308683159
 30
0.0
 11
29.44895
 21
150.8967192412649
 31
0.0
  0
LINE
  5
111
330
1E
100
AcDbEntity
  8
0
100
AcDbLine
 10
29.44895
 20
150.8967192412649
 30
0.0
 11
30.22204
 21
150.348968467196
 31
0.0
  0
LINE
  5
112
330
1E
100
AcDbEntity
  8
0
100
AcDbLine
 10
30.1542877120041
 20
150.3969724100679
 30
0.0
 11
30.2407
 21
150.337764213169
 31
0.0
  0
LINE
  5
113
330
1E
100
AcDbEntity
  8
0
100
AcDbLine
 10
26.94002
 20
151.676361380748
 30
0.0
 11
26.99989
 21
151.821547091707
 31
0.0
  0
LINE
  5
114
330
1E
100
AcDbEntity
  8
0
100
AcDbLine
 10
27.0260684429579
 20
152.0508377210749
 30
0.0
 11
27.66205
 21
151.83343779166
 31
0.0
  0
LINE
  5
115
330
1E
100
AcDbEntity
  8
0
100
AcDbLine
 10
26.96177999999999
 20
204.660335902923
 30
0.0
 11
27.39117999999999
 21
201.437168393469
 31
0.0
  0
LINE
  5
116
330
1E
100
AcDbEntity
  8
0
100
AcDbLine
 10
27.39117999999999
 20
201.437168393469
 30
0.0
 11
27.76030999999999
 21
198.1517175755659
 31
0.0
  0
LINE
  5
117
330
1E
100
AcDbEntity
  8
0
100
AcDbLine
 10
27.66205
 20
151.83343779166
 30
0.0
 11
28.51099
 21
151.449860637911
 31
0.0
  0
LINE
  5
118
330
1E
100
AcDbEntity
  8
0
100
AcDbLine
 10
27.76030999999999
 20
198.1517175755659
 30
0.0
 11
28.06852
 21
194.809504305195
 31
0.0
  0
LINE
  5
119
330
1E
100
AcDbEntity
  8
0
100
AcDbLine
 10
28.06852
 20
194.809504305195
 30
0.0
 11
28.31573
 21
191.411925802742
 31
0.0
  0
LINE
  5
11A
330
1E
100
AcDbEntity
  8
0
100
AcDbLine
 10
28.31573
 20
191.411925802742
 30
0.0
 11
28.50150999999999
 21
187.9640681333409
 31
0.0
  0
LINE
  5
11B
330
1E
100
AcDbEntity
  8
0
100
AcDbLine
 10
28.50150999999999
 20
187.9640681333409
 30
0.0
 11
28.62562
 21
184.4699289342359
 31
0.0
  0
LINE
  5
11C
330
1E
100
AcDbEntity
  8
0
100
AcDbLine
 10
28.62562
 20
184.4699289342359
 30
0.0
 11
28.68802999999999
 21
180.9326143924829
 31
0.0
  0
LINE
  5
11D
330
1E
100
AcDbEntity
  8
0
100
AcDbLine
 10
28.68802999999999
 20
180.9326143924829
 30
0.0
 11
28.6886
 21
177.3565575272129
 31
0.0
  0
LINE
  5
11E
330
1E
100
AcDbEntity
  8
0
100
AcDbLine
 10
28.62731
 20
173.745959884612
 30
0.0
 11
28.6886
 21
177.3565575272129
 31
0.0
  0
LINE
  5
11F
330
1E
100
AcDbEntity
  8
0
100
AcDbLine
 10
28.50427
 20
170.1043738872489
 30
0.0
 11
28.62731
 21
173.745959884612
 31
0.0
  0
LINE
  5
120
330
1E
100
AcDbEntity
  8
0
100
AcDbLine
 10
28.31965999999999
 20
166.4360699644869
 30
0.0
 11
28.50427
 21
170.1043738872489
 31
0.0
  0
LINE
  5
121
330
1E
100
AcDbEntity
  8
0
100
AcDbLine
 10
28.07354
 20
162.74545271158
 30
0.0
 11
28.31965999999999
 21
166.4360699644869
 31
0.0
  0
LINE
  5
122
330
1E
100
AcDbEntity
  8
0
100
AcDbLine
 10
27.76637
 20
159.036206890636
 30
0.0
 11
28.07354
 21
162.74545271158
 31
0.0
  0
LINE
  5
123
330
1E
100
AcDbEntity
  8
0
100
AcDbLine
 10
27.39847
 20
155.312612591692
 30
0.0
 11
27.76637
 21
159.036206890636
 31
0.0
  0
LINE
  5
124
330
1E
100
AcDbEntity
  8
0
100
AcDbLine
 10
26.99989
 20
151.821547091707
 30
0.0
 11
27.39847
 21
155.312612591692
 31
0.0
  0
LINE
  5
125
330
1E
100
AcDbEntity
  8
0
100
AcDbLine
 10
26.72817
 20
151.5451057519669
 30
0.0
 11
26.94002
 21
151.676361380748
 31
0.0
  0
LINE
  5
128
330
1E
100
AcDbEntity
  8
0
100
AcDbLine
 10
33.18439999999999
 20
150.055850389353
 30
0.0
 11
37.3337
 21
150.057850389353
 31
0.0
  0
LINE
  5
129
330
1E
100
AcDbEntity
  8
0
100
AcDbLine
 10
24.00000000000019
 20
150.054850389353
 30
0.0
 11
28.68217
 21
150.054850389353
 31
0.0
  0
LINE
  5
12C
330
1E
100
AcDbEntity
  8
0
100
AcDbLine
 10
40.97059999999999
 20
150.059850389353
 30
0.0
 11
43.95529999999999
 21
150.062850389353
 31
0.0
  0
LINE
  5
12D
330
1E
100
AcDbEntity
  8
0
100
AcDbLine
 10
37.3337
 20
150.057850389353
 30
0.0
 11
40.97059999999999
 21
150.059850389353
 31
0.0
  0
LINE
  5
130
330
1E
100
AcDbEntity
  8
0
100
AcDbLine
 10
46.17309999999999
 20
150.066850389353
 30
0.0
 11
47.5388
 21
150.069850389353
 31
0.0
  0
LINE
  5
131
330
1E
100
AcDbEntity
  8
0
100
AcDbLine
 10
43.95529999999999
 20
150.062850389353
 30
0.0
 11
46.17309999999999
 21
150.066850389353
 31
0.0
  0
LINE
  5
132
330
1E
100
AcDbEntity
  8
0
100
AcDbLine
 10
47.50407627675889
 20
130.0697741125939
 30
0.0
 11
48.0
 21
129.573850389353
 31
0.0
  0
LINE
  5
133
330
1E
100
AcDbEntity
  8
0
100
AcDbLine
 10
48.0
 20
150.0738503893529
 30
0.0
 11
48.0
 21
130.0738503893529
 31
0.0
  0
LINE
  5
135
330
1E
100
AcDbEntity
  8
0
100
AcDbLine
 10
47.5388
 20
150.069850389353
 30
0.0
 11
48.0
 21
150.0738503893529
 31
0.0
  0
LINE
  5
136
330
1E
100
AcDbEntity
  8
0
100
AcDbLine
 10
48.0
 20
130.0738503893529
 30
0.0
 11
48.0
 21
150.0738503893529
 31
0.0
  0
LINE
  5
137
330
1E
100
AcDbEntity
  8
0
100
AcDbLine
 10
47.5388
 20
130.069850389353
 30
0.0
 11
48.0
 21
130.0738503893529
 31
0.0
  0
LINE
  5
138
330
1E
100
AcDbEntity
  8
0
100
AcDbLine
 10
46.17309999999999
 20
130.066850389353
 30
0.0
 11
47.5388
 21
130.069850389353
 31
0.0
  0
LINE
  5
139
330
1E
100
AcDbEntity
  8
0
100
AcDbLine
 10
43.95529999999999
 20
130.062850389353
 30
0.0
 11
46.17309999999999
 21
130.066850389353
 31
0.0
  0
LINE
  5
13A
330
1E
100
AcDbEntity
  8
0
100
AcDbLine
 10
40.97059999999999
 20
130.059850389353
 30
0.0
 11
43.95529999999999
 21
130.062850389353
 31
0.0
  0
LINE
  5
13B
330
1E
100
AcDbEntity
  8
0
100
AcDbLine
 10
37.3337
 20
130.057850389353
 30
0.0
 11
40.97059999999999
 21
130.059850389353
 31
0.0
  0
LINE
  5
13C
330
1E
100
AcDbEntity
  8
0
100
AcDbLine
 10
33.18439999999999
 20
130.0558503893529
 30
0.0
 11
37.3337
 21
130.057850389353
 31
0.0
  0
LINE
  5
13D
330
1E
100
AcDbEntity
  8
0
100
AcDbLine
 10
28.68217
 20
130.054850389353
 30
0.0
 11
33.18439999999999
 21
130.0558503893529
 31
0.0
  0
LINE
  5
13E
330
1E
100
AcDbEntity
  8
0
100
AcDbLine
 10
23.9999999999999
 20
130.054850389353
 30
0.0
 11
28.68217
 21
130.054850389353
 31
0.0
  0
LWPOLYLINE
  5
144
330
1E
100
AcDbEntity
  8
0
100
AcDbPolyline
 90
       15
 70
     0
 43
0.0
 10
38.02088041548291
 20
107.5984746986476
 10
37.52338104306909
 20
110.4820860957882
 10
36.62788277651361
 20
113.1668279791309
 10
35.3841348486369
 20
115.4538303424392
 10
33.74238702030288
 20
117.293375561044
 10
31.95138948087628
 20
118.8346160165131
 10
29.66289256903564
 20
120.0775522012857
 10
27.02614700218964
 20
120.9724659982535
 10
24.19040148511498
 20
121.3702055182881
 10
21.70290462304569
 20
121.2210531367202
 10
18.71790939487846
 20
120.3261393397523
 10
16.13091306085266
 20
119.0334860227499
 10
14.14091557119741
 20
117.4922450748417
 10
12.44941851004296
 20
115.1555255793035
 10
11.5041700043514
 20
113.5148498744965
  0
ENDSEC
  0
SECTION
  2
OBJECTS
  0
DICTIONARY
  5
C
330
0
100
AcDbDictionary
281
     1
  3
ACAD_GROUP
350
D
  3
ACAD_LAYOUT
350
19
  3
ACAD_MLINESTYLE
350
16
  3
ACAD_PLOTSETTINGS
350
18
  3
ACAD_PLOTSTYLENAME
350
E
  3
AcDbVariableDictionary
350
145
  0
DICTIONARY
  5
D
102
{ACAD_REACTORS
330
C
102
}
330
C
100
AcDbDictionary
281
     1
  0
DICTIONARY
  5
19
102
{ACAD_REACTORS
330
C
102
}
330
C
100
AcDbDictionary
281
     1
  3
Layout1
350
1D
  3
Model
350
21
  0
DICTIONARY
  5
16
102
{ACAD_REACTORS
330
C
102
}
330
C
100
AcDbDictionary
281
     1
  3
Standard
350
17
  0
DICTIONARY
  5
18
102
{ACAD_REACTORS
330
C
102
}
330
C
100
AcDbDictionary
281
     1
  0
ACDBDICTIONARYWDFLT
  5
E
102
{ACAD_REACTORS
330
C
102
}
330
C
100
AcDbDictionary
281
     1
  3
Normal
350
F
100
AcDbDictionaryWithDefault
340
F
  0
DICTIONARY
  5
145
102
{ACAD_REACTORS
330
C
102
}
330
C
100
AcDbDictionary
281
     1
  3
DIMASSOC
350
146
  0
LAYOUT
  5
1D
102
{ACAD_REACTORS
330
19
102
}
330
19
100
AcDbPlotSettings
  1

  2
hp deskjet 980c series
  4

  6

 40
0.0
 41
0.0
 42
0.0
 43
0.0
 44
0.0
 45
0.0
 46
0.0
 47
0.0
 48
0.0
 49
0.0
140
0.0
141
0.0
142
1.0
143
1.0
 70
   688
 72
     0
 73
     0
 74
     5
  7

 75
    16
147
1.0
148
0.0
149
0.0
100
AcDbLayout
  1
Layout1
 70
     1
 71
     1
 10
0.0
 20
0.0
 11
12.0
 21
9.0
 12
0.0
 22
0.0
 32
0.0
 14
1.000000000000000E+20
 24
1.000000000000000E+20
 34
1.000000000000000E+20
 15
-1.000000000000000E+20
 25
-1.000000000000000E+20
 35
-1.000000000000000E+20
146
0.0
 13
0.0
 23
0.0
 33
0.0
 16
1.0
 26
0.0
 36
0.0
 17
0.0
 27
1.0
 37
0.0
 76
     0
330
1A
  0
LAYOUT
  5
21
102
{ACAD_REACTORS
330
19
102
}
330
19
100
AcDbPlotSettings
  1

  2
hp deskjet 980c series
  4

  6

 40
0.0
 41
0.0
 42
0.0
 43
0.0
 44
0.0
 45
0.0
 46
0.0
 47
0.0
 48
0.0
 49
0.0
140
0.0
141
0.0
142
1.0
143
1.0
 70
  1712
 72
     0
 73
     0
 74
     0
  7

 75
     0
147
1.0
148
0.0
149
0.0
100
AcDbLayout
  1
Model
 70
     1
 71
     0
 10
0.0
 20
0.0
 11
12.0
 21
9.0
 12
0.0
 22
0.0
 32
0.0
 14
0.0
 24
0.0
 34
0.0
 15
0.0
 25
0.0
 35
0.0
146
0.0
 13
0.0
 23
0.0
 33
0.0
 16
1.0
 26
0.0
 36
0.0
 17
0.0
 27
1.0
 37
0.0
 76
     0
330
1E
  0
MLINESTYLE
  5
17
102
{ACAD_REACTORS
330
16
102
}
330
16
100
AcDbMlineStyle
  2
STANDARD
 70
     0
  3

 62
   256
 51
90.0
 52
90.0
 71
     2
 49
0.5
 62
   256
  6
BYLAYER
 49
-0.5
 62
   256
  6
BYLAYER
  0
ACDBPLACEHOLDER
  5
F
102
{ACAD_REACTORS
330
E
102
}
330
E
  0
DICTIONARYVAR
  5
146
102
{ACAD_REACTORS
330
145
102
}
330
145
100
DictionaryVariables
280
     0
  1
1
  0
ENDSEC
  0
EOF
