  0
SECTION
  2
HEADER
  9
$ACADVER
  1
AC1015
  9
$ACADMAINTVER
 70
    13
  9
$DWGCODEPAGE
  3
ANSI_1252
  9
$INSBASE
 10
0.0
 20
0.0
 30
0.0
  9
$EXTMIN
 10
0.249999999999998
 20
-0.115449999999991
 30
0.0
  9
$EXTMAX
 10
403.7499999999999
 20
759.11545
 30
0.0
  9
$LIMMIN
 10
0.0
 20
0.0
  9
$LIMMAX
 10
12.0
 20
9.0
  9
$ORTHOMODE
 70
     0
  9
$REGENMODE
 70
     1
  9
$FILLMODE
 70
     1
  9
$QTEXTMODE
 70
     0
  9
$MIRRTEXT
 70
     1
  9
$LTSCALE
 40
1.0
  9
$ATTMODE
 70
     1
  9
$TEXTSIZE
 40
0.2
  9
$TRACEWID
 40
0.05
  9
$TEXTSTYLE
  7
Standard
  9
$CLAYER
  8
0
  9
$CELTYPE
  6
Continuous
  9
$CECOLOR
 62
   256
  9
$CELTSCALE
 40
1.0
  9
$DISPSILH
 70
     0
  9
$DIMSCALE
 40
1.0
  9
$DIMASZ
 40
0.18
  9
$DIMEXO
 40
0.0625
  9
$DIMDLI
 40
0.38
  9
$DIMRND
 40
0.0
  9
$DIMDLE
 40
0.0
  9
$DIMEXE
 40
0.18
  9
$DIMTP
 40
0.0
  9
$DIMTM
 40
0.0
  9
$DIMTXT
 40
0.18
  9
$DIMCEN
 40
0.09
  9
$DIMTSZ
 40
0.0
  9
$DIMTOL
 70
     0
  9
$DIMLIM
 70
     0
  9
$DIMTIH
 70
     1
  9
$DIMTOH
 70
     1
  9
$DIMSE1
 70
     0
  9
$DIMSE2
 70
     0
  9
$DIMTAD
 70
     0
  9
$DIMZIN
 70
     0
  9
$DIMBLK
  1

  9
$DIMASO
 70
     1
  9
$DIMSHO
 70
     1
  9
$DIMPOST
  1

  9
$DIMAPOST
  1

  9
$DIMALT
 70
     0
  9
$DIMALTD
 70
     2
  9
$DIMALTF
 40
25.4
  9
$DIMLFAC
 40
1.0
  9
$DIMTOFL
 70
     0
  9
$DIMTVP
 40
0.0
  9
$DIMTIX
 70
     0
  9
$DIMSOXD
 70
     0
  9
$DIMSAH
 70
     0
  9
$DIMBLK1
  1

  9
$DIMBLK2
  1

  9
$DIMSTYLE
  2
Standard
  9
$DIMCLRD
 70
     0
  9
$DIMCLRE
 70
     0
  9
$DIMCLRT
 70
     0
  9
$DIMTFAC
 40
1.0
  9
$DIMGAP
 40
0.09
  9
$DIMJUST
 70
     0
  9
$DIMSD1
 70
     0
  9
$DIMSD2
 70
     0
  9
$DIMTOLJ
 70
     1
  9
$DIMTZIN
 70
     0
  9
$DIMALTZ
 70
     0
  9
$DIMALTTZ
 70
     0
  9
$DIMUPT
 70
     0
  9
$DIMDEC
 70
     4
  9
$DIMTDEC
 70
     4
  9
$DIMALTU
 70
     2
  9
$DIMALTTD
 70
     2
  9
$DIMTXSTY
  7
Standard
  9
$DIMAUNIT
 70
     0
  9
$DIMADEC
 70
     0
  9
$DIMALTRND
 40
0.0
  9
$DIMAZIN
 70
     0
  9
$DIMDSEP
 70
    46
  9
$DIMATFIT
 70
     3
  9
$DIMFRAC
 70
     0
  9
$DIMLDRBLK
  1

  9
$DIMLUNIT
 70
     2
  9
$DIMLWD
 70
    -2
  9
$DIMLWE
 70
    -2
  9
$DIMTMOVE
 70
     0
  9
$LUNITS
 70
     2
  9
$LUPREC
 70
     4
  9
$SKETCHINC
 40
0.1
  9
$FILLETRAD
 40
0.0
  9
$AUNITS
 70
     0
  9
$AUPREC
 70
     0
  9
$MENU
  1
.
  9
$ELEVATION
 40
0.0
  9
$PELEVATION
 40
0.0
  9
$THICKNESS
 40
0.0
  9
$LIMCHECK
 70
     0
  9
$CHAMFERA
 40
0.0
  9
$CHAMFERB
 40
0.0
  9
$CHAMFERC
 40
0.0
  9
$CHAMFERD
 40
0.0
  9
$SKPOLY
 70
     0
  9
$TDCREATE
 40
2454635.817372685
  9
$TDUCREATE
 40
2454635.734039352
  9
$TDUPDATE
 40
2454635.818084305
  9
$TDUUPDATE
 40
2454635.734750972
  9
$TDINDWG
 40
0.0007118056
  9
$TDUSRTIMER
 40
0.0007118056
  9
$USRTIMER
 70
     1
  9
$ANGBASE
 50
0.0
  9
$ANGDIR
 70
     0
  9
$PDMODE
 70
     0
  9
$PDSIZE
 40
0.0
  9
$PLINEWID
 40
0.0
  9
$SPLFRAME
 70
     0
  9
$SPLINETYPE
 70
     6
  9
$SPLINESEGS
 70
     8
  9
$HANDSEED
  5
5DC
  9
$SURFTAB1
 70
     6
  9
$SURFTAB2
 70
     6
  9
$SURFTYPE
 70
     6
  9
$SURFU
 70
     6
  9
$SURFV
 70
     6
  9
$UCSBASE
  2

  9
$UCSNAME
  2

  9
$UCSORG
 10
0.0
 20
0.0
 30
0.0
  9
$UCSXDIR
 10
1.0
 20
0.0
 30
0.0
  9
$UCSYDIR
 10
0.0
 20
1.0
 30
0.0
  9
$UCSORTHOREF
  2

  9
$UCSORTHOVIEW
 70
     1
  9
$UCSORGTOP
 10
0.0
 20
0.0
 30
0.0
  9
$UCSORGBOTTOM
 10
0.0
 20
0.0
 30
0.0
  9
$UCSORGLEFT
 10
0.0
 20
0.0
 30
0.0
  9
$UCSORGRIGHT
 10
0.0
 20
0.0
 30
0.0
  9
$UCSORGFRONT
 10
0.0
 20
0.0
 30
0.0
  9
$UCSORGBACK
 10
0.0
 20
0.0
 30
0.0
  9
$PUCSBASE
  2

  9
$PUCSNAME
  2

  9
$PUCSORG
 10
0.0
 20
0.0
 30
0.0
  9
$PUCSXDIR
 10
1.0
 20
0.0
 30
0.0
  9
$PUCSYDIR
 10
0.0
 20
1.0
 30
0.0
  9
$PUCSORTHOREF
  2

  9
$PUCSORTHOVIEW
 70
     0
  9
$PUCSORGTOP
 10
0.0
 20
0.0
 30
0.0
  9
$PUCSORGBOTTOM
 10
0.0
 20
0.0
 30
0.0
  9
$PUCSORGLEFT
 10
0.0
 20
0.0
 30
0.0
  9
$PUCSORGRIGHT
 10
0.0
 20
0.0
 30
0.0
  9
$PUCSORGFRONT
 10
0.0
 20
0.0
 30
0.0
  9
$PUCSORGBACK
 10
0.0
 20
0.0
 30
0.0
  9
$USERI1
 70
     0
  9
$USERI2
 70
     0
  9
$USERI3
 70
     0
  9
$USERI4
 70
     0
  9
$USERI5
 70
     0
  9
$USERR1
 40
0.0
  9
$USERR2
 40
0.0
  9
$USERR3
 40
0.0
  9
$USERR4
 40
0.0
  9
$USERR5
 40
0.0
  9
$WORLDVIEW
 70
     1
  9
$SHADEDGE
 70
     3
  9
$SHADEDIF
 70
    70
  9
$TILEMODE
 70
     1
  9
$MAXACTVP
 70
    64
  9
$PINSBASE
 10
0.0
 20
0.0
 30
0.0
  9
$PLIMCHECK
 70
     0
  9
$PEXTMIN
 10
1.000000000000000E+20
 20
1.000000000000000E+20
 30
1.000000000000000E+20
  9
$PEXTMAX
 10
-1.000000000000000E+20
 20
-1.000000000000000E+20
 30
-1.000000000000000E+20
  9
$PLIMMIN
 10
0.0
 20
0.0
  9
$PLIMMAX
 10
12.0
 20
9.0
  9
$UNITMODE
 70
     0
  9
$VISRETAIN
 70
     1
  9
$PLINEGEN
 70
     0
  9
$PSLTSCALE
 70
     1
  9
$TREEDEPTH
 70
  3020
  9
$CMLSTYLE
  2
Standard
  9
$CMLJUST
 70
     0
  9
$CMLSCALE
 40
1.0
  9
$PROXYGRAPHICS
 70
     1
  9
$MEASUREMENT
 70
     0
  9
$CELWEIGHT
370
    -1
  9
$ENDCAPS
280
     0
  9
$JOINSTYLE
280
     0
  9
$LWDISPLAY
290
     0
  9
$INSUNITS
 70
     0
  9
$HYPERLINKBASE
  1

  9
$STYLESHEET
  1

  9
$XEDIT
290
     1
  9
$CEPSNTYPE
380
     0
  9
$PSTYLEMODE
290
     1
  9
$FINGERPRINTGUID
  2
{8C8F22F3-8497-4E28-9913-46E7F4F4CFBF}
  9
$VERSIONGUID
  2
{5AC9B809-994D-4D21-966B-F5C675075DB4}
  9
$EXTNAMES
290
     1
  9
$PSVPSCALE
 40
0.0
  9
$OLESTARTUP
290
     0
  0
ENDSEC
  0
SECTION
  2
CLASSES
  0
CLASS
  1
ACDBDICTIONARYWDFLT
  2
AcDbDictionaryWithDefault
  3
AutoCAD 2000
 90
        0
280
     0
281
     0
  0
CLASS
  1
ACDBPLACEHOLDER
  2
AcDbPlaceHolder
  3
AutoCAD 2000
 90
        0
280
     0
281
     0
  0
CLASS
  1
LAYOUT
  2
AcDbLayout
  3
AutoCAD 2000
 90
        0
280
     0
281
     0
  0
CLASS
  1
DICTIONARYVAR
  2
AcDbDictionaryVar
  3
AutoCAD 2000
 90
        0
280
     0
281
     0
  0
ENDSEC
  0
SECTION
  2
TABLES
  0
TABLE
  2
VPORT
  5
8
330
0
100
AcDbSymbolTable
 70
     2
  0
VPORT
  5
5DB
330
8
100
AcDbSymbolTableRecord
100
AcDbViewportTableRecord
  2
*Active
 70
     0
 10
0.0
 20
0.0
 11
1.0
 21
1.0
 12
202.0
 22
379.4999999999999
 13
0.0
 23
0.0
 14
1.0
 24
1.0
 15
0.0
 25
0.0
 16
0.0
 26
0.0
 36
1.0
 17
0.0
 27
0.0
 37
0.0
 40
765.0562010230179
 41
2.043533930857874
 42
50.0
 43
0.0
 44
0.0
 50
0.0
 51
0.0
 71
     0
 72
   100
 73
     1
 74
     3
 75
     0
 76
     0
 77
     0
 78
     0
281
     0
 65
     1
110
0.0
120
0.0
130
0.0
111
1.0
121
0.0
131
0.0
112
0.0
122
1.0
132
0.0
 79
     1
146
0.0
  0
ENDTAB
  0
TABLE
  2
LTYPE
  5
5
330
0
100
AcDbSymbolTable
 70
     1
  0
LTYPE
  5
13
330
5
100
AcDbSymbolTableRecord
100
AcDbLinetypeTableRecord
  2
ByBlock
 70
     0
  3

 72
    65
 73
     0
 40
0.0
  0
LTYPE
  5
14
330
5
100
AcDbSymbolTableRecord
100
AcDbLinetypeTableRecord
  2
ByLayer
 70
     0
  3

 72
    65
 73
     0
 40
0.0
  0
LTYPE
  5
15
330
5
100
AcDbSymbolTableRecord
100
AcDbLinetypeTableRecord
  2
Continuous
 70
     0
  3
Solid line
 72
    65
 73
     0
 40
0.0
  0
ENDTAB
  0
TABLE
  2
LAYER
  5
2
330
0
100
AcDbSymbolTable
 70
     1
  0
LAYER
  5
10
330
2
100
AcDbSymbolTableRecord
100
AcDbLayerTableRecord
  2
0
 70
     0
 62
     7
  6
Continuous
370
    -3
390
F
  0
ENDTAB
  0
TABLE
  2
STYLE
  5
3
330
0
100
AcDbSymbolTable
 70
     1
  0
STYLE
  5
11
330
3
100
AcDbSymbolTableRecord
100
AcDbTextStyleTableRecord
  2
Standard
 70
     0
 40
0.0
 41
1.0
 50
0.0
 71
     0
 42
0.2
  3
txt
  4

  0
ENDTAB
  0
TABLE
  2
VIEW
  5
6
330
0
100
AcDbSymbolTable
 70
     0
  0
ENDTAB
  0
TABLE
  2
UCS
  5
7
330
0
100
AcDbSymbolTable
 70
     0
  0
ENDTAB
  0
TABLE
  2
APPID
  5
9
330
0
100
AcDbSymbolTable
 70
     1
  0
APPID
  5
12
330
9
100
AcDbSymbolTableRecord
100
AcDbRegAppTableRecord
  2
ACAD
 70
     0
  0
ENDTAB
  0
TABLE
  2
DIMSTYLE
  5
A
330
0
100
AcDbSymbolTable
 70
     1
100
AcDbDimStyleTable
 71
     0
  0
DIMSTYLE
105
5D3
330
A
100
AcDbSymbolTableRecord
100
AcDbDimStyleTableRecord
  2
Standard
 70
     0
340
11
  0
ENDTAB
  0
TABLE
  2
BLOCK_RECORD
  5
1
330
0
100
AcDbSymbolTable
 70
     0
  0
BLOCK_RECORD
  5
1E
330
1
100
AcDbSymbolTableRecord
100
AcDbBlockTableRecord
  2
*Model_Space
340
21
  0
BLOCK_RECORD
  5
1A
330
1
100
AcDbSymbolTableRecord
100
AcDbBlockTableRecord
  2
*Paper_Space
340
1D
  0
ENDTAB
  0
ENDSEC
  0
SECTION
  2
BLOCKS
  0
BLOCK
  5
1F
330
1E
100
AcDbEntity
  8
0
100
AcDbBlockBegin
  2
*Model_Space
 70
     0
 10
0.0
 20
0.0
 30
0.0
  3
*Model_Space
  1

  0
ENDBLK
  5
20
330
1E
100
AcDbEntity
  8
0
100
AcDbBlockEnd
  0
BLOCK
  5
1B
330
1A
100
AcDbEntity
 67
     1
  8
0
100
AcDbBlockBegin
  2
*Paper_Space
 70
     0
 10
0.0
 20
0.0
 30
0.0
  3
*Paper_Space
  1

  0
ENDBLK
  5
1C
330
1A
100
AcDbEntity
 67
     1
  8
0
100
AcDbBlockEnd
  0
ENDSEC
  0
SECTION
  2
ENTITIES
  0
LINE
  5
22
330
1E
100
AcDbEntity
  8
0
100
AcDbLine
 10
0.249999999999998
 20
502.51345
 30
0.0
 11
0.249999999999998
 21
498.51345
 31
0.0
  0
LINE
  5
23
330
1E
100
AcDbEntity
  8
0
100
AcDbLine
 10
0.249999999999998
 20
502.51345
 30
0.0
 11
30.85
 21
502.51345
 31
0.0
  0
LINE
  5
24
330
1E
100
AcDbEntity
  8
0
100
AcDbLine
 10
0.249999999999998
 20
502.51345
 30
0.0
 11
0.7499999999999979
 21
502.01345
 31
0.0
  0
LINE
  5
25
330
1E
100
AcDbEntity
  8
0
100
AcDbLine
 10
0.249999999999998
 20
498.51345
 30
0.0
 11
0.249999999999998
 21
494.5134499999999
 31
0.0
  0
LINE
  5
26
330
1E
100
AcDbEntity
  8
0
100
AcDbLine
 10
0.249999999999998
 20
498.51345
 30
0.0
 11
0.249999999999998
 21
502.51345
 31
0.0
  0
LINE
  5
27
330
1E
100
AcDbEntity
  8
0
100
AcDbLine
 10
4.75
 20
467.5134499999999
 30
0.0
 11
31.25
 21
467.5134499999999
 31
0.0
  0
LINE
  5
28
330
1E
100
AcDbEntity
  8
0
100
AcDbLine
 10
4.75
 20
467.5134499999999
 30
0.0
 11
4.75
 21
468.01345
 31
0.0
  0
LINE
  5
29
330
1E
100
AcDbEntity
  8
0
100
AcDbLine
 10
4.25
 20
494.5134499999999
 30
0.0
 11
4.25
 21
468.01345
 31
0.0
  0
LINE
  5
2A
330
1E
100
AcDbEntity
  8
0
100
AcDbLine
 10
4.75
 20
468.01345
 30
0.0
 11
31.25
 21
468.01345
 31
0.0
  0
LINE
  5
2B
330
1E
100
AcDbEntity
  8
0
100
AcDbLine
 10
4.75
 20
494.5134499999999
 30
0.0
 11
4.75
 21
468.01345
 31
0.0
  0
LINE
  5
2C
330
1E
100
AcDbEntity
  8
0
100
AcDbLine
 10
4.75
 20
468.01345
 30
0.0
 11
4.75
 21
467.5134499999999
 31
0.0
  0
LINE
  5
2D
330
1E
100
AcDbEntity
  8
0
100
AcDbLine
 10
4.75
 20
468.01345
 30
0.0
 11
4.75
 21
494.5134499999999
 31
0.0
  0
LINE
  5
2E
330
1E
100
AcDbEntity
  8
0
100
AcDbLine
 10
4.75
 20
468.01345
 30
0.0
 11
31.25
 21
468.01345
 31
0.0
  0
LINE
  5
2F
330
1E
100
AcDbEntity
  8
0
100
AcDbLine
 10
4.25
 20
468.01345
 30
0.0
 11
4.75
 21
467.5134499999999
 31
0.0
  0
LINE
  5
30
330
1E
100
AcDbEntity
  8
0
100
AcDbLine
 10
4.25
 20
468.01345
 30
0.0
 11
4.25
 21
494.5134499999999
 31
0.0
  0
LINE
  5
31
330
1E
100
AcDbEntity
  8
0
100
AcDbLine
 10
4.25
 20
468.01345
 30
0.0
 11
4.75
 21
468.01345
 31
0.0
  0
LINE
  5
32
330
1E
100
AcDbEntity
  8
0
100
AcDbLine
 10
4.75
 20
467.5134499999999
 30
0.0
 11
31.25
 21
467.5134499999999
 31
0.0
  0
LINE
  5
33
330
1E
100
AcDbEntity
  8
0
100
AcDbLine
 10
18.35
 20
494.01345
 30
0.0
 11
20.05
 21
489.81345
 31
0.0
  0
LINE
  5
34
330
1E
100
AcDbEntity
  8
0
100
AcDbLine
 10
18.2833333333333
 20
494.5134499999999
 30
0.0
 11
18.35
 21
494.01345
 31
0.0
  0
LINE
  5
35
330
1E
100
AcDbEntity
  8
0
100
AcDbLine
 10
17.94999999999999
 20
493.91345
 30
0.0
 11
19.64999999999999
 21
489.61345
 31
0.0
  0
LINE
  5
36
330
1E
100
AcDbEntity
  8
0
100
AcDbLine
 10
17.8586956521739
 20
494.5134499999999
 30
0.0
 11
17.94999999999999
 21
493.91345
 31
0.0
  0
LINE
  5
37
330
1E
100
AcDbEntity
  8
0
100
AcDbLine
 10
26.55
 20
483.3134499999999
 30
0.0
 11
30.75
 21
481.61345
 31
0.0
  0
LINE
  5
38
330
1E
100
AcDbEntity
  8
0
100
AcDbLine
 10
26.35
 20
482.91345
 30
0.0
 11
30.64999999999999
 21
481.2134499999999
 31
0.0
  0
LINE
  5
39
330
1E
100
AcDbEntity
  8
0
100
AcDbLine
 10
30.75
 20
481.61345
 30
0.0
 11
31.25
 21
481.546783333333
 31
0.0
  0
LINE
  5
3A
330
1E
100
AcDbEntity
  8
0
100
AcDbLine
 10
30.64999999999999
 20
481.2134499999999
 30
0.0
 11
31.25
 21
481.122145652174
 31
0.0
  0
LINE
  5
3B
330
1E
100
AcDbEntity
  8
0
100
AcDbLine
 10
22.85
 20
486.11345
 30
0.0
 11
26.55
 21
483.3134499999999
 31
0.0
  0
LINE
  5
3C
330
1E
100
AcDbEntity
  8
0
100
AcDbLine
 10
20.05
 20
489.81345
 30
0.0
 11
22.85
 21
486.11345
 31
0.0
  0
LINE
  5
3D
330
1E
100
AcDbEntity
  8
0
100
AcDbLine
 10
22.55
 20
485.81345
 30
0.0
 11
26.35
 21
482.91345
 31
0.0
  0
LINE
  5
3E
330
1E
100
AcDbEntity
  8
0
100
AcDbLine
 10
19.64999999999999
 20
489.61345
 30
0.0
 11
22.55
 21
485.81345
 31
0.0
  0
LINE
  5
3F
330
1E
100
AcDbEntity
  8
0
100
AcDbLine
 10
0.249999999999998
 20
494.5134499999999
 30
0.0
 11
0.7499999999999979
 21
495.0134499999999
 31
0.0
  0
LINE
  5
40
330
1E
100
AcDbEntity
  8
0
100
AcDbLine
 10
121.75
 20
441.5134499999999
 30
0.0
 11
122.2499999999999
 21
441.5134499999999
 31
0.0
  0
LINE
  5
41
330
1E
100
AcDbEntity
  8
0
100
AcDbLine
 10
121.75
 20
441.5134499999999
 30
0.0
 11
121.75
 21
442.0134499999999
 31
0.0
  0
LINE
  5
42
330
1E
100
AcDbEntity
  8
0
100
AcDbLine
 10
121.75
 20
441.5134499999999
 30
0.0
 11
135.25
 21
441.5134499999999
 31
0.0
  0
LINE
  5
43
330
1E
100
AcDbEntity
  8
0
100
AcDbLine
 10
121.25
 20
442.0134499999999
 30
0.0
 11
121.25
 21
466.5134499999999
 31
0.0
  0
LINE
  5
44
330
1E
100
AcDbEntity
  8
0
100
AcDbLine
 10
121.25
 20
442.0134499999999
 30
0.0
 11
121.75
 21
442.0134499999999
 31
0.0
  0
LINE
  5
45
330
1E
100
AcDbEntity
  8
0
100
AcDbLine
 10
121.25
 20
442.0134499999999
 30
0.0
 11
121.75
 21
441.5134499999999
 31
0.0
  0
LINE
  5
46
330
1E
100
AcDbEntity
  8
0
100
AcDbLine
 10
122.467
 20
436.61345
 30
0.0
 11
122.943
 21
436.61345
 31
0.0
  0
LINE
  5
47
330
1E
100
AcDbEntity
  8
0
100
AcDbLine
 10
122.467
 20
436.61345
 30
0.0
 11
135.25
 21
436.5134499999999
 31
0.0
  0
LINE
  5
48
330
1E
100
AcDbEntity
  8
0
100
AcDbLine
 10
122.727
 20
436.8634499999999
 30
0.0
 11
123.9829999999999
 21
436.8634499999999
 31
0.0
  0
LINE
  5
49
330
1E
100
AcDbEntity
  8
0
100
AcDbLine
 10
123.9829999999999
 20
436.8634499999999
 30
0.0
 11
126.0629999999999
 21
436.8634499999999
 31
0.0
  0
LINE
  5
4A
330
1E
100
AcDbEntity
  8
0
100
AcDbLine
 10
122.943
 20
436.61345
 30
0.0
 11
124.1999999999999
 21
436.61345
 31
0.0
  0
LINE
  5
4B
330
1E
100
AcDbEntity
  8
0
100
AcDbLine
 10
128.316
 20
144.06245
 30
0.0
 11
131.9979999999999
 21
120.8514499999999
 31
0.0
  0
LINE
  5
4C
330
1E
100
AcDbEntity
  8
0
100
AcDbLine
 10
131.9979999999999
 20
120.8514499999999
 30
0.0
 11
137.627
 21
97.24145
 31
0.0
  0
LINE
  5
4D
330
1E
100
AcDbEntity
  8
0
100
AcDbLine
 10
137.627
 20
97.24145
 30
0.0
 11
146.729
 21
73.73145
 31
0.0
  0
LINE
  5
4E
330
1E
100
AcDbEntity
  8
0
100
AcDbLine
 10
126.96
 20
163.9864499999999
 30
0.0
 11
127.3735967600049
 21
436.575066234374
 31
0.0
  0
LINE
  5
4F
330
1E
100
AcDbEntity
  8
0
100
AcDbLine
 10
126.96
 20
163.9864499999999
 30
0.0
 11
128.316
 21
144.06245
 31
0.0
  0
LINE
  5
50
330
1E
100
AcDbEntity
  8
0
100
AcDbLine
 10
126.96
 20
163.9864499999999
 30
0.0
 11
127.3735967600049
 21
436.575066234374
 31
0.0
  0
LINE
  5
51
330
1E
100
AcDbEntity
  8
0
100
AcDbLine
 10
140.287
 20
164.52645
 30
0.0
 11
140.657087476875
 21
436.555749049338
 31
0.0
  0
LINE
  5
52
330
1E
100
AcDbEntity
  8
0
100
AcDbLine
 10
140.287
 20
164.52645
 30
0.0
 11
141.547
 21
145.39945
 31
0.0
  0
LINE
  5
53
330
1E
100
AcDbEntity
  8
0
100
AcDbLine
 10
140.287
 20
164.52645
 30
0.0
 11
140.657087476875
 21
436.555749049338
 31
0.0
  0
LINE
  5
54
330
1E
100
AcDbEntity
  8
0
100
AcDbLine
 10
141.547
 20
145.39945
 30
0.0
 11
145.032
 21
123.98145
 31
0.0
  0
LINE
  5
55
330
1E
100
AcDbEntity
  8
0
100
AcDbLine
 10
145.032
 20
123.98145
 30
0.0
 11
150.1279999999999
 21
102.86245
 31
0.0
  0
LINE
  5
56
330
1E
100
AcDbEntity
  8
0
100
AcDbLine
 10
126.237
 20
436.61345
 30
0.0
 11
128.8799999999999
 21
436.61345
 31
0.0
  0
LINE
  5
57
330
1E
100
AcDbEntity
  8
0
100
AcDbLine
 10
128.8799999999999
 20
436.61345
 30
0.0
 11
131.9569999999999
 21
436.61345
 31
0.0
  0
LINE
  5
58
330
1E
100
AcDbEntity
  8
0
100
AcDbLine
 10
131.9569999999999
 20
436.61345
 30
0.0
 11
135.25
 21
436.61345
 31
0.0
  0
LINE
  5
59
330
1E
100
AcDbEntity
  8
0
100
AcDbLine
 10
141.62
 20
436.61345
 30
0.0
 11
144.263
 21
436.61345
 31
0.0
  0
LINE
  5
5A
330
1E
100
AcDbEntity
  8
0
100
AcDbLine
 10
138.543
 20
436.61345
 30
0.0
 11
141.62
 21
436.61345
 31
0.0
  0
LINE
  5
5B
330
1E
100
AcDbEntity
  8
0
100
AcDbLine
 10
135.25
 20
436.61345
 30
0.0
 11
138.543
 21
436.61345
 31
0.0
  0
LINE
  5
5C
330
1E
100
AcDbEntity
  8
0
100
AcDbLine
 10
135.25
 20
436.5134499999999
 30
0.0
 11
148.0329999999999
 21
436.61345
 31
0.0
  0
LINE
  5
5D
330
1E
100
AcDbEntity
  8
0
100
AcDbLine
 10
146.729
 20
73.73145
 30
0.0
 11
156.672
 21
52.71155
 31
0.0
  0
LINE
  5
5E
330
1E
100
AcDbEntity
  8
0
100
AcDbLine
 10
239.444
 20
-0.115449999999991
 30
0.0
 11
255.573
 21
1.67775000000001
 31
0.0
  0
LINE
  5
5F
330
1E
100
AcDbEntity
  8
0
100
AcDbLine
 10
192.057761881369
 20
15.30750192966559
 30
0.0
 11
202.619
 21
8.779350000000018
 31
0.0
  0
LINE
  5
60
330
1E
100
AcDbEntity
  8
0
100
AcDbLine
 10
186.3419999999999
 20
18.84055
 30
0.0
 11
186.6785037052229
 21
18.6325490736015
 31
0.0
  0
LINE
  5
61
330
1E
100
AcDbEntity
  8
0
100
AcDbLine
 10
202.619
 20
8.779350000000018
 30
0.0
 11
203.15
 21
8.551450000000018
 31
0.0
  0
LINE
  5
62
330
1E
100
AcDbEntity
  8
0
100
AcDbLine
 10
156.672
 20
52.71155
 30
0.0
 11
169.8459999999999
 21
35.97554999999999
 31
0.0
  0
LINE
  5
63
330
1E
100
AcDbEntity
  8
0
100
AcDbLine
 10
169.8459999999999
 20
35.97554999999999
 30
0.0
 11
186.3419999999999
 21
18.84055
 31
0.0
  0
LINE
  5
64
330
1E
100
AcDbEntity
  8
0
100
AcDbLine
 10
150.1279999999999
 20
102.86245
 30
0.0
 11
158.216
 21
81.64345
 31
0.0
  0
LINE
  5
65
330
1E
100
AcDbEntity
  8
0
100
AcDbLine
 10
158.216
 20
81.64345
 30
0.0
 11
166.988
 21
62.71555
 31
0.0
  0
LINE
  5
66
330
1E
100
AcDbEntity
  8
0
100
AcDbLine
 10
166.988
 20
62.71555
 30
0.0
 11
178.672
 21
47.77255
 31
0.0
  0
LINE
  5
67
330
1E
100
AcDbEntity
  8
0
100
AcDbLine
 10
178.672
 20
47.77255
 30
0.0
 11
193.4429999999999
 21
32.03255
 31
0.0
  0
LINE
  5
68
330
1E
100
AcDbEntity
  8
0
100
AcDbLine
 10
193.335317036528
 20
32.147297129175
 30
0.0
 11
207.232446224028
 21
23.5401055555551
 31
0.0
  0
LINE
  5
69
330
1E
100
AcDbEntity
  8
0
100
AcDbLine
 10
207.30705642277
 20
23.4941557068434
 30
0.0
 11
223.5879999999999
 21
17.41754999999999
 31
0.0
  0
LINE
  5
6A
330
1E
100
AcDbEntity
  8
0
100
AcDbLine
 10
203.15
 20
8.551450000000018
 30
0.0
 11
221.629
 21
1.67775000000002
 31
0.0
  0
LINE
  5
6B
330
1E
100
AcDbEntity
  8
0
100
AcDbLine
 10
223.5879999999999
 20
17.41754999999999
 30
0.0
 11
239.136
 21
15.82354999999999
 31
0.0
  0
LINE
  5
6C
330
1E
100
AcDbEntity
  8
0
100
AcDbLine
 10
221.629
 20
1.67775000000002
 30
0.0
 11
239.444
 21
-0.115449999999991
 31
0.0
  0
LINE
  5
6D
330
1E
100
AcDbEntity
  8
0
100
AcDbLine
 10
221.629
 20
1.67775000000002
 30
0.0
 11
239.444
 21
-0.115449999999991
 31
0.0
  0
LINE
  5
6E
330
1E
100
AcDbEntity
  8
0
100
AcDbLine
 10
255.573
 20
1.67775000000002
 30
0.0
 11
273.7859999999999
 21
8.551450000000018
 31
0.0
  0
LINE
  5
6F
330
1E
100
AcDbEntity
  8
0
100
AcDbLine
 10
297.109
 20
47.90155
 30
0.0
 11
308.134
 21
62.84455
 31
0.0
  0
LINE
  5
70
330
1E
100
AcDbEntity
  8
0
100
AcDbLine
 10
305.6639999999999
 20
35.94655
 30
0.0
 11
318.1929999999999
 21
52.58355
 31
0.0
  0
LINE
  5
71
330
1E
100
AcDbEntity
  8
0
100
AcDbLine
 10
308.134
 20
62.84455
 30
0.0
 11
316.094
 21
81.67244999999999
 31
0.0
  0
LINE
  5
72
330
1E
100
AcDbEntity
  8
0
100
AcDbLine
 10
330.105
 20
144.85945
 30
0.0
 11
330.624
 21
163.9864499999999
 31
0.0
  0
LINE
  5
73
330
1E
100
AcDbEntity
  8
0
100
AcDbLine
 10
327.448
 20
123.4414499999999
 30
0.0
 11
330.105
 21
144.85945
 31
0.0
  0
LINE
  5
74
330
1E
100
AcDbEntity
  8
0
100
AcDbLine
 10
323.169
 20
102.3214499999999
 30
0.0
 11
327.448
 21
123.4414499999999
 31
0.0
  0
LINE
  5
75
330
1E
100
AcDbEntity
  8
0
100
AcDbLine
 10
343.3669999999999
 20
144.60245
 30
0.0
 11
343.9509999999999
 21
164.52645
 31
0.0
  0
LINE
  5
76
330
1E
100
AcDbEntity
  8
0
100
AcDbLine
 10
340.583
 20
121.39145
 30
0.0
 11
343.3669999999999
 21
144.60245
 31
0.0
  0
LINE
  5
77
330
1E
100
AcDbEntity
  8
0
100
AcDbLine
 10
335.8669999999999
 20
97.78145000000002
 30
0.0
 11
340.583
 21
121.39145
 31
0.0
  0
LINE
  5
78
330
1E
100
AcDbEntity
  8
0
100
AcDbLine
 10
327.675
 20
74.27145
 30
0.0
 11
335.8669999999999
 21
97.78145000000002
 31
0.0
  0
LINE
  5
79
330
1E
100
AcDbEntity
  8
0
100
AcDbLine
 10
318.545
 20
53.25155
 30
0.0
 11
327.675
 21
74.27145
 31
0.0
  0
LINE
  5
7A
330
1E
100
AcDbEntity
  8
0
100
AcDbLine
 10
318.1929999999999
 20
52.58355
 30
0.0
 11
318.545
 21
53.25155
 31
0.0
  0
LINE
  5
7B
330
1E
100
AcDbEntity
  8
0
100
AcDbLine
 10
283.0239999999999
 20
32.36055
 30
0.0
 11
297.109
 21
47.90155
 31
0.0
  0
LINE
  5
7C
330
1E
100
AcDbEntity
  8
0
100
AcDbLine
 10
289.7569999999999
 20
18.51354999999999
 30
0.0
 11
305.6639999999999
 21
35.94655
 31
0.0
  0
LINE
  5
7D
330
1E
100
AcDbEntity
  8
0
100
AcDbLine
 10
269.052
 20
23.49455
 30
0.0
 11
283.0239999999999
 21
32.36055
 31
0.0
  0
LINE
  5
7E
330
1E
100
AcDbEntity
  8
0
100
AcDbLine
 10
273.7859999999999
 20
8.551450000000018
 30
0.0
 11
289.7569999999999
 21
18.51354999999999
 31
0.0
  0
LINE
  5
7F
330
1E
100
AcDbEntity
  8
0
100
AcDbLine
 10
253.0059999999999
 20
17.41754999999999
 30
0.0
 11
269.052
 21
23.49455
 31
0.0
  0
LINE
  5
80
330
1E
100
AcDbEntity
  8
0
100
AcDbLine
 10
255.573
 20
1.67775000000001
 30
0.0
 11
273.7859999999999
 21
8.551450000000018
 31
0.0
  0
LINE
  5
81
330
1E
100
AcDbEntity
  8
0
100
AcDbLine
 10
239.136
 20
15.82354999999999
 30
0.0
 11
253.0059999999999
 21
17.41754999999999
 31
0.0
  0
LINE
  5
82
330
1E
100
AcDbEntity
  8
0
100
AcDbLine
 10
239.444
 20
-0.115449999999991
 30
0.0
 11
255.573
 21
1.67775000000001
 31
0.0
  0
LINE
  5
83
330
1E
100
AcDbEntity
  8
0
100
AcDbLine
 10
148.0329999999999
 20
436.61345
 30
0.0
 11
148.2499999999999
 21
436.8634499999999
 31
0.0
  0
LINE
  5
84
330
1E
100
AcDbEntity
  8
0
100
AcDbLine
 10
147.557
 20
436.61345
 30
0.0
 11
148.0329999999999
 21
436.61345
 31
0.0
  0
LINE
  5
85
330
1E
100
AcDbEntity
  8
0
100
AcDbLine
 10
146.3
 20
436.61345
 30
0.0
 11
147.557
 21
436.61345
 31
0.0
  0
LINE
  5
86
330
1E
100
AcDbEntity
  8
0
100
AcDbLine
 10
126.0629999999999
 20
436.8634499999999
 30
0.0
 11
128.793
 21
436.8634499999999
 31
0.0
  0
LINE
  5
87
330
1E
100
AcDbEntity
  8
0
100
AcDbLine
 10
128.793
 20
436.8634499999999
 30
0.0
 11
131.9129999999999
 21
436.8634499999999
 31
0.0
  0
LINE
  5
88
330
1E
100
AcDbEntity
  8
0
100
AcDbLine
 10
131.9129999999999
 20
436.8634499999999
 30
0.0
 11
135.25
 21
436.8634499999999
 31
0.0
  0
LINE
  5
89
330
1E
100
AcDbEntity
  8
0
100
AcDbLine
 10
147.773
 20
436.8634499999999
 30
0.0
 11
148.2499999999999
 21
436.8634499999999
 31
0.0
  0
LINE
  5
8A
330
1E
100
AcDbEntity
  8
0
100
AcDbLine
 10
148.2499999999999
 20
436.8634499999999
 30
0.0
 11
148.2499999999999
 21
441.5134499999999
 31
0.0
  0
LINE
  5
8B
330
1E
100
AcDbEntity
  8
0
100
AcDbLine
 10
146.517
 20
436.8634499999999
 30
0.0
 11
147.773
 21
436.8634499999999
 31
0.0
  0
LINE
  5
8C
330
1E
100
AcDbEntity
  8
0
100
AcDbLine
 10
144.437
 20
436.8634499999999
 30
0.0
 11
146.517
 21
436.8634499999999
 31
0.0
  0
LINE
  5
8D
330
1E
100
AcDbEntity
  8
0
100
AcDbLine
 10
141.707
 20
436.8634499999999
 30
0.0
 11
144.437
 21
436.8634499999999
 31
0.0
  0
LINE
  5
8E
330
1E
100
AcDbEntity
  8
0
100
AcDbLine
 10
138.587
 20
436.8634499999999
 30
0.0
 11
141.707
 21
436.8634499999999
 31
0.0
  0
LINE
  5
8F
330
1E
100
AcDbEntity
  8
0
100
AcDbLine
 10
135.25
 20
436.8634499999999
 30
0.0
 11
138.587
 21
436.8634499999999
 31
0.0
  0
LINE
  5
90
330
1E
100
AcDbEntity
  8
0
100
AcDbLine
 10
144.263
 20
436.61345
 30
0.0
 11
146.3
 21
436.61345
 31
0.0
  0
LINE
  5
91
330
1E
100
AcDbEntity
  8
0
100
AcDbLine
 10
124.1999999999999
 20
436.61345
 30
0.0
 11
126.237
 21
436.61345
 31
0.0
  0
LINE
  5
92
330
1E
100
AcDbEntity
  8
0
100
AcDbLine
 10
122.2499999999999
 20
441.5134499999999
 30
0.0
 11
122.727
 21
441.5134499999999
 31
0.0
  0
LINE
  5
93
330
1E
100
AcDbEntity
  8
0
100
AcDbLine
 10
122.2499999999999
 20
441.5134499999999
 30
0.0
 11
122.2499999999999
 21
436.8634499999999
 31
0.0
  0
LINE
  5
94
330
1E
100
AcDbEntity
  8
0
100
AcDbLine
 10
122.727
 20
441.5134499999999
 30
0.0
 11
123.9829999999999
 21
441.5134499999999
 31
0.0
  0
LINE
  5
95
330
1E
100
AcDbEntity
  8
0
100
AcDbLine
 10
123.9829999999999
 20
441.5134499999999
 30
0.0
 11
126.0629999999999
 21
441.5134499999999
 31
0.0
  0
LINE
  5
96
330
1E
100
AcDbEntity
  8
0
100
AcDbLine
 10
126.0629999999999
 20
441.5134499999999
 30
0.0
 11
128.793
 21
441.5134499999999
 31
0.0
  0
LINE
  5
97
330
1E
100
AcDbEntity
  8
0
100
AcDbLine
 10
128.793
 20
441.5134499999999
 30
0.0
 11
131.9129999999999
 21
441.5134499999999
 31
0.0
  0
LINE
  5
98
330
1E
100
AcDbEntity
  8
0
100
AcDbLine
 10
131.9129999999999
 20
441.5134499999999
 30
0.0
 11
135.25
 21
441.5134499999999
 31
0.0
  0
LINE
  5
99
330
1E
100
AcDbEntity
  8
0
100
AcDbLine
 10
147.773
 20
441.5134499999999
 30
0.0
 11
148.2499999999999
 21
441.5134499999999
 31
0.0
  0
LINE
  5
9A
330
1E
100
AcDbEntity
  8
0
100
AcDbLine
 10
146.517
 20
441.5134499999999
 30
0.0
 11
147.773
 21
441.5134499999999
 31
0.0
  0
LINE
  5
9B
330
1E
100
AcDbEntity
  8
0
100
AcDbLine
 10
144.437
 20
441.5134499999999
 30
0.0
 11
146.517
 21
441.5134499999999
 31
0.0
  0
LINE
  5
9C
330
1E
100
AcDbEntity
  8
0
100
AcDbLine
 10
141.707
 20
441.5134499999999
 30
0.0
 11
144.437
 21
441.5134499999999
 31
0.0
  0
LINE
  5
9D
330
1E
100
AcDbEntity
  8
0
100
AcDbLine
 10
138.587
 20
441.5134499999999
 30
0.0
 11
141.707
 21
441.5134499999999
 31
0.0
  0
LINE
  5
9E
330
1E
100
AcDbEntity
  8
0
100
AcDbLine
 10
135.25
 20
442.0134499999999
 30
0.0
 11
148.75
 21
442.0134499999999
 31
0.0
  0
LINE
  5
9F
330
1E
100
AcDbEntity
  8
0
100
AcDbLine
 10
135.25
 20
441.5134499999999
 30
0.0
 11
138.587
 21
441.5134499999999
 31
0.0
  0
LINE
  5
A0
330
1E
100
AcDbEntity
  8
0
100
AcDbLine
 10
135.25
 20
441.5134499999999
 30
0.0
 11
148.75
 21
441.5134499999999
 31
0.0
  0
LINE
  5
A1
330
1E
100
AcDbEntity
  8
0
100
AcDbLine
 10
231.25
 20
463.5134499999999
 30
0.0
 11
235.25
 21
463.5134499999999
 31
0.0
  0
LINE
  5
A2
330
1E
100
AcDbEntity
  8
0
100
AcDbLine
 10
231.25
 20
463.5134499999999
 30
0.0
 11
231.25
 21
494.11345
 31
0.0
  0
LINE
  5
A3
330
1E
100
AcDbEntity
  8
0
100
AcDbLine
 10
231.25
 20
463.5134499999999
 30
0.0
 11
231.7499999999999
 21
464.01345
 31
0.0
  0
LINE
  5
A4
330
1E
100
AcDbEntity
  8
0
100
AcDbLine
 10
239.25
 20
463.5134499999999
 30
0.0
 11
239.25
 21
494.11345
 31
0.0
  0
LINE
  5
A5
330
1E
100
AcDbEntity
  8
0
100
AcDbLine
 10
235.25
 20
463.5134499999999
 30
0.0
 11
239.25
 21
463.5134499999999
 31
0.0
  0
LINE
  5
A6
330
1E
100
AcDbEntity
  8
0
100
AcDbLine
 10
149.2499999999999
 20
442.0134499999999
 30
0.0
 11
149.2499999999999
 21
466.5134499999999
 31
0.0
  0
LINE
  5
A7
330
1E
100
AcDbEntity
  8
0
100
AcDbLine
 10
148.75
 20
442.0134499999999
 30
0.0
 11
149.2499999999999
 21
442.0134499999999
 31
0.0
  0
LINE
  5
A8
330
1E
100
AcDbEntity
  8
0
100
AcDbLine
 10
148.75
 20
442.0134499999999
 30
0.0
 11
148.75
 21
441.5134499999999
 31
0.0
  0
LINE
  5
A9
330
1E
100
AcDbEntity
  8
0
100
AcDbLine
 10
148.75
 20
442.0134499999999
 30
0.0
 11
148.75
 21
466.5134499999999
 31
0.0
  0
LINE
  5
AA
330
1E
100
AcDbEntity
  8
0
100
AcDbLine
 10
148.75
 20
441.5134499999999
 30
0.0
 11
149.2499999999999
 21
442.0134499999999
 31
0.0
  0
LINE
  5
AB
330
1E
100
AcDbEntity
  8
0
100
AcDbLine
 10
148.75
 20
441.5134499999999
 30
0.0
 11
148.75
 21
442.0134499999999
 31
0.0
  0
LINE
  5
AC
330
1E
100
AcDbEntity
  8
0
100
AcDbLine
 10
148.2499999999999
 20
441.5134499999999
 30
0.0
 11
148.2499999999999
 21
436.8634499999999
 31
0.0
  0
LINE
  5
AD
330
1E
100
AcDbEntity
  8
0
100
AcDbLine
 10
148.2499999999999
 20
441.5134499999999
 30
0.0
 11
148.75
 21
441.5134499999999
 31
0.0
  0
LINE
  5
AE
330
1E
100
AcDbEntity
  8
0
100
AcDbLine
 10
122.2499999999999
 20
436.8634499999999
 30
0.0
 11
122.2499999999999
 21
441.5134499999999
 31
0.0
  0
LINE
  5
AF
330
1E
100
AcDbEntity
  8
0
100
AcDbLine
 10
122.2499999999999
 20
436.8634499999999
 30
0.0
 11
122.467
 21
436.61345
 31
0.0
  0
LINE
  5
B0
330
1E
100
AcDbEntity
  8
0
100
AcDbLine
 10
122.2499999999999
 20
436.8634499999999
 30
0.0
 11
122.727
 21
436.8634499999999
 31
0.0
  0
LINE
  5
B1
330
1E
100
AcDbEntity
  8
0
100
AcDbLine
 10
121.75
 20
442.0134499999999
 30
0.0
 11
121.75
 21
466.5134499999999
 31
0.0
  0
LINE
  5
B2
330
1E
100
AcDbEntity
  8
0
100
AcDbLine
 10
121.75
 20
442.0134499999999
 30
0.0
 11
135.25
 21
442.0134499999999
 31
0.0
  0
LINE
  5
B3
330
1E
100
AcDbEntity
  8
0
100
AcDbLine
 10
121.75
 20
442.0134499999999
 30
0.0
 11
121.75
 21
441.5134499999999
 31
0.0
  0
LINE
  5
B4
330
1E
100
AcDbEntity
  8
0
100
AcDbLine
 10
39.25
 20
463.5134499999999
 30
0.0
 11
39.25
 21
494.11345
 31
0.0
  0
LINE
  5
B5
330
1E
100
AcDbEntity
  8
0
100
AcDbLine
 10
35.25
 20
463.5134499999999
 30
0.0
 11
39.25
 21
463.5134499999999
 31
0.0
  0
LINE
  5
B6
330
1E
100
AcDbEntity
  8
0
100
AcDbLine
 10
231.7499999999999
 20
464.01345
 30
0.0
 11
235.25
 21
464.01345
 31
0.0
  0
LINE
  5
B7
330
1E
100
AcDbEntity
  8
0
100
AcDbLine
 10
231.7499999999999
 20
464.01345
 30
0.0
 11
231.7499999999999
 21
494.71345
 31
0.0
  0
LINE
  5
B8
330
1E
100
AcDbEntity
  8
0
100
AcDbLine
 10
238.75
 20
464.01345
 30
0.0
 11
239.25
 21
463.5134499999999
 31
0.0
  0
LINE
  5
B9
330
1E
100
AcDbEntity
  8
0
100
AcDbLine
 10
238.75
 20
464.01345
 30
0.0
 11
238.75
 21
494.71345
 31
0.0
  0
LINE
  5
BA
330
1E
100
AcDbEntity
  8
0
100
AcDbLine
 10
235.25
 20
464.01345
 30
0.0
 11
238.75
 21
464.01345
 31
0.0
  0
LINE
  5
BB
330
1E
100
AcDbEntity
  8
0
100
AcDbLine
 10
39.25
 20
468.01345
 30
0.0
 11
121.25
 21
468.01345
 31
0.0
  0
LINE
  5
BC
330
1E
100
AcDbEntity
  8
0
100
AcDbLine
 10
39.25
 20
467.5134499999999
 30
0.0
 11
121.25
 21
467.5134499999999
 31
0.0
  0
LINE
  5
BD
330
1E
100
AcDbEntity
  8
0
100
AcDbLine
 10
39.25
 20
481.122145652174
 30
0.0
 11
39.85
 21
481.2134499999999
 31
0.0
  0
LINE
  5
BE
330
1E
100
AcDbEntity
  8
0
100
AcDbLine
 10
39.25
 20
481.546783333333
 30
0.0
 11
39.75
 21
481.61345
 31
0.0
  0
LINE
  5
BF
330
1E
100
AcDbEntity
  8
0
100
AcDbLine
 10
39.75
 20
481.61345
 30
0.0
 11
43.95
 21
483.3134499999999
 31
0.0
  0
LINE
  5
C0
330
1E
100
AcDbEntity
  8
0
100
AcDbLine
 10
43.95
 20
483.3134499999999
 30
0.0
 11
47.64999999999999
 21
486.11345
 31
0.0
  0
LINE
  5
C1
330
1E
100
AcDbEntity
  8
0
100
AcDbLine
 10
39.85
 20
481.2134499999999
 30
0.0
 11
44.15
 21
482.91345
 31
0.0
  0
LINE
  5
C2
330
1E
100
AcDbEntity
  8
0
100
AcDbLine
 10
44.15
 20
482.91345
 30
0.0
 11
47.95
 21
485.81345
 31
0.0
  0
LINE
  5
C3
330
1E
100
AcDbEntity
  8
0
100
AcDbLine
 10
47.64999999999999
 20
486.11345
 30
0.0
 11
50.45
 21
489.81345
 31
0.0
  0
LINE
  5
C4
330
1E
100
AcDbEntity
  8
0
100
AcDbLine
 10
50.45
 20
489.81345
 30
0.0
 11
52.14999999999999
 21
494.01345
 31
0.0
  0
LINE
  5
C5
330
1E
100
AcDbEntity
  8
0
100
AcDbLine
 10
52.14999999999999
 20
494.01345
 30
0.0
 11
52.2166666666667
 21
494.5134499999999
 31
0.0
  0
LINE
  5
C6
330
1E
100
AcDbEntity
  8
0
100
AcDbLine
 10
50.85
 20
489.61345
 30
0.0
 11
52.54999999999999
 21
493.91345
 31
0.0
  0
LINE
  5
C7
330
1E
100
AcDbEntity
  8
0
100
AcDbLine
 10
47.95
 20
485.81345
 30
0.0
 11
50.85
 21
489.61345
 31
0.0
  0
LINE
  5
C8
330
1E
100
AcDbEntity
  8
0
100
AcDbLine
 10
149.2499999999999
 20
466.5134499999999
 30
0.0
 11
149.2499999999999
 21
442.0134499999999
 31
0.0
  0
LINE
  5
C9
330
1E
100
AcDbEntity
  8
0
100
AcDbLine
 10
149.2499999999999
 20
466.5134499999999
 30
0.0
 11
149.2499999999999
 21
478.31345
 31
0.0
  0
LINE
  5
CA
330
1E
100
AcDbEntity
  8
0
100
AcDbLine
 10
148.75
 20
466.5134499999999
 30
0.0
 11
148.75
 21
442.0134499999999
 31
0.0
  0
LINE
  5
CB
330
1E
100
AcDbEntity
  8
0
100
AcDbLine
 10
148.75
 20
466.5134499999999
 30
0.0
 11
148.75
 21
478.41345
 31
0.0
  0
LINE
  5
CC
330
1E
100
AcDbEntity
  8
0
100
AcDbLine
 10
121.25
 20
466.5134499999999
 30
0.0
 11
121.25
 21
478.31345
 31
0.0
  0
LINE
  5
CD
330
1E
100
AcDbEntity
  8
0
100
AcDbLine
 10
121.25
 20
466.5134499999999
 30
0.0
 11
121.25
 21
471.3134499999999
 31
0.0
  0
LINE
  5
CE
330
1E
100
AcDbEntity
  8
0
100
AcDbLine
 10
121.25
 20
466.5134499999999
 30
0.0
 11
121.25
 21
442.0134499999999
 31
0.0
  0
LINE
  5
CF
330
1E
100
AcDbEntity
  8
0
100
AcDbLine
 10
121.75
 20
466.5134499999999
 30
0.0
 11
121.75
 21
478.41345
 31
0.0
  0
LINE
  5
D0
330
1E
100
AcDbEntity
  8
0
100
AcDbLine
 10
121.75
 20
466.5134499999999
 30
0.0
 11
121.75
 21
442.0134499999999
 31
0.0
  0
LINE
  5
D1
330
1E
100
AcDbEntity
  8
0
100
AcDbLine
 10
239.25
 20
467.5134499999999
 30
0.0
 11
329.591500492508
 21
467.5134499999999
 31
0.0
  0
LINE
  5
D2
330
1E
100
AcDbEntity
  8
0
100
AcDbLine
 10
185.25
 20
467.5134499999999
 30
0.0
 11
231.25
 21
467.5134499999999
 31
0.0
  0
LINE
  5
D3
330
1E
100
AcDbEntity
  8
0
100
AcDbLine
 10
365.75
 20
467.5134499999999
 30
0.0
 11
366.25
 21
468.01345
 31
0.0
  0
LINE
  5
D4
330
1E
100
AcDbEntity
  8
0
100
AcDbLine
 10
365.75
 20
467.5134499999999
 30
0.0
 11
365.75
 21
468.01345
 31
0.0
  0
LINE
  5
D5
330
1E
100
AcDbEntity
  8
0
100
AcDbLine
 10
342.917703647528
 20
467.5134499999999
 30
0.0
 11
365.75
 21
467.5134499999999
 31
0.0
  0
LINE
  5
D6
330
1E
100
AcDbEntity
  8
0
100
AcDbLine
 10
121.25
 20
471.3134499999999
 30
0.0
 11
121.25
 21
475.71345
 31
0.0
  0
LINE
  5
D7
330
1E
100
AcDbEntity
  8
0
100
AcDbLine
 10
121.25
 20
471.3134499999999
 30
0.0
 11
121.25
 21
466.5134499999999
 31
0.0
  0
LINE
  5
D8
330
1E
100
AcDbEntity
  8
0
100
AcDbLine
 10
121.25
 20
475.71345
 30
0.0
 11
121.25
 21
479.6134499999999
 31
0.0
  0
LINE
  5
D9
330
1E
100
AcDbEntity
  8
0
100
AcDbLine
 10
121.25
 20
475.71345
 30
0.0
 11
121.25
 21
471.3134499999999
 31
0.0
  0
LINE
  5
DA
330
1E
100
AcDbEntity
  8
0
100
AcDbLine
 10
121.25
 20
479.6134499999999
 30
0.0
 11
121.25
 21
482.61345
 31
0.0
  0
LINE
  5
DB
330
1E
100
AcDbEntity
  8
0
100
AcDbLine
 10
121.25
 20
479.6134499999999
 30
0.0
 11
121.25
 21
475.71345
 31
0.0
  0
LINE
  5
DC
330
1E
100
AcDbEntity
  8
0
100
AcDbLine
 10
121.25
 20
482.61345
 30
0.0
 11
121.25
 21
484.41345
 31
0.0
  0
LINE
  5
DD
330
1E
100
AcDbEntity
  8
0
100
AcDbLine
 10
121.25
 20
482.61345
 30
0.0
 11
121.25
 21
479.6134499999999
 31
0.0
  0
LINE
  5
DE
330
1E
100
AcDbEntity
  8
0
100
AcDbLine
 10
121.25
 20
484.41345
 30
0.0
 11
121.25
 21
485.01345
 31
0.0
  0
LINE
  5
DF
330
1E
100
AcDbEntity
  8
0
100
AcDbLine
 10
121.25
 20
484.41345
 30
0.0
 11
121.25
 21
482.61345
 31
0.0
  0
LINE
  5
E0
330
1E
100
AcDbEntity
  8
0
100
AcDbLine
 10
121.25
 20
485.01345
 30
0.0
 11
121.25
 21
484.41345
 31
0.0
  0
LINE
  5
E1
330
1E
100
AcDbEntity
  8
0
100
AcDbLine
 10
121.25
 20
485.01345
 30
0.0
 11
121.25
 21
512.01345
 31
0.0
  0
LINE
  5
E2
330
1E
100
AcDbEntity
  8
0
100
AcDbLine
 10
121.25
 20
478.31345
 30
0.0
 11
121.25
 21
489.21345
 31
0.0
  0
LINE
  5
E3
330
1E
100
AcDbEntity
  8
0
100
AcDbLine
 10
121.25
 20
478.31345
 30
0.0
 11
121.25
 21
466.5134499999999
 31
0.0
  0
LINE
  5
E4
330
1E
100
AcDbEntity
  8
0
100
AcDbLine
 10
121.25
 20
489.21345
 30
0.0
 11
121.25
 21
498.61345
 31
0.0
  0
LINE
  5
E5
330
1E
100
AcDbEntity
  8
0
100
AcDbLine
 10
121.25
 20
489.21345
 30
0.0
 11
121.25
 21
478.31345
 31
0.0
  0
LINE
  5
E6
330
1E
100
AcDbEntity
  8
0
100
AcDbLine
 10
149.2499999999999
 20
478.31345
 30
0.0
 11
149.2499999999999
 21
466.5134499999999
 31
0.0
  0
LINE
  5
E7
330
1E
100
AcDbEntity
  8
0
100
AcDbLine
 10
149.2499999999999
 20
478.31345
 30
0.0
 11
149.2499999999999
 21
489.21345
 31
0.0
  0
LINE
  5
E8
330
1E
100
AcDbEntity
  8
0
100
AcDbLine
 10
149.2499999999999
 20
489.21345
 30
0.0
 11
149.2499999999999
 21
478.31345
 31
0.0
  0
LINE
  5
E9
330
1E
100
AcDbEntity
  8
0
100
AcDbLine
 10
149.2499999999999
 20
489.21345
 30
0.0
 11
149.2499999999999
 21
498.61345
 31
0.0
  0
LINE
  5
EA
330
1E
100
AcDbEntity
  8
0
100
AcDbLine
 10
148.75
 20
478.41345
 30
0.0
 11
148.75
 21
466.5134499999999
 31
0.0
  0
LINE
  5
EB
330
1E
100
AcDbEntity
  8
0
100
AcDbLine
 10
148.75
 20
478.41345
 30
0.0
 11
148.75
 21
489.4134499999999
 31
0.0
  0
LINE
  5
EC
330
1E
100
AcDbEntity
  8
0
100
AcDbLine
 10
148.75
 20
489.4134499999999
 30
0.0
 11
148.75
 21
478.41345
 31
0.0
  0
LINE
  5
ED
330
1E
100
AcDbEntity
  8
0
100
AcDbLine
 10
148.75
 20
489.4134499999999
 30
0.0
 11
148.75
 21
499.0134499999999
 31
0.0
  0
LINE
  5
EE
330
1E
100
AcDbEntity
  8
0
100
AcDbLine
 10
121.75
 20
478.41345
 30
0.0
 11
121.75
 21
489.4134499999999
 31
0.0
  0
LINE
  5
EF
330
1E
100
AcDbEntity
  8
0
100
AcDbLine
 10
121.75
 20
478.41345
 30
0.0
 11
121.75
 21
466.5134499999999
 31
0.0
  0
LINE
  5
F0
330
1E
100
AcDbEntity
  8
0
100
AcDbLine
 10
121.75
 20
489.4134499999999
 30
0.0
 11
121.75
 21
499.0134499999999
 31
0.0
  0
LINE
  5
F1
330
1E
100
AcDbEntity
  8
0
100
AcDbLine
 10
121.75
 20
489.4134499999999
 30
0.0
 11
121.75
 21
478.41345
 31
0.0
  0
LINE
  5
F2
330
1E
100
AcDbEntity
  8
0
100
AcDbLine
 10
239.25
 20
468.01345
 30
0.0
 11
329.5897996561619
 21
468.01345
 31
0.0
  0
LINE
  5
F3
330
1E
100
AcDbEntity
  8
0
100
AcDbLine
 10
185.25
 20
468.01345
 30
0.0
 11
231.25
 21
468.01345
 31
0.0
  0
LINE
  5
F4
330
1E
100
AcDbEntity
  8
0
100
AcDbLine
 10
366.25
 20
468.01345
 30
0.0
 11
366.25
 21
529.01345
 31
0.0
  0
LINE
  5
F5
330
1E
100
AcDbEntity
  8
0
100
AcDbLine
 10
342.915998464876
 20
468.01345
 30
0.0
 11
365.75
 21
468.01345
 31
0.0
  0
LINE
  5
F6
330
1E
100
AcDbEntity
  8
0
100
AcDbLine
 10
239.25
 20
481.546783333333
 30
0.0
 11
239.7499999999999
 21
481.61345
 31
0.0
  0
LINE
  5
F7
330
1E
100
AcDbEntity
  8
0
100
AcDbLine
 10
239.7499999999999
 20
481.61345
 30
0.0
 11
243.9499999999999
 21
483.3134499999999
 31
0.0
  0
LINE
  5
F8
330
1E
100
AcDbEntity
  8
0
100
AcDbLine
 10
239.25
 20
481.122145652174
 30
0.0
 11
239.8499999999999
 21
481.2134499999999
 31
0.0
  0
LINE
  5
F9
330
1E
100
AcDbEntity
  8
0
100
AcDbLine
 10
239.8499999999999
 20
481.2134499999999
 30
0.0
 11
244.15
 21
482.91345
 31
0.0
  0
LINE
  5
FA
330
1E
100
AcDbEntity
  8
0
100
AcDbLine
 10
244.15
 20
482.91345
 30
0.0
 11
247.9499999999999
 21
485.81345
 31
0.0
  0
LINE
  5
FB
330
1E
100
AcDbEntity
  8
0
100
AcDbLine
 10
230.75
 20
481.61345
 30
0.0
 11
231.25
 21
481.546783333333
 31
0.0
  0
LINE
  5
FC
330
1E
100
AcDbEntity
  8
0
100
AcDbLine
 10
230.65
 20
481.2134499999999
 30
0.0
 11
231.25
 21
481.122145652174
 31
0.0
  0
LINE
  5
FD
330
1E
100
AcDbEntity
  8
0
100
AcDbLine
 10
243.9499999999999
 20
483.3134499999999
 30
0.0
 11
247.65
 21
486.11345
 31
0.0
  0
LINE
  5
FE
330
1E
100
AcDbEntity
  8
0
100
AcDbLine
 10
247.65
 20
486.11345
 30
0.0
 11
250.4499999999999
 21
489.81345
 31
0.0
  0
LINE
  5
FF
330
1E
100
AcDbEntity
  8
0
100
AcDbLine
 10
250.85
 20
489.61345
 30
0.0
 11
252.55
 21
493.91345
 31
0.0
  0
LINE
  5
100
330
1E
100
AcDbEntity
  8
0
100
AcDbLine
 10
247.9499999999999
 20
485.81345
 30
0.0
 11
250.85
 21
489.61345
 31
0.0
  0
LINE
  5
101
330
1E
100
AcDbEntity
  8
0
100
AcDbLine
 10
226.55
 20
483.3134499999999
 30
0.0
 11
230.75
 21
481.61345
 31
0.0
  0
LINE
  5
102
330
1E
100
AcDbEntity
  8
0
100
AcDbLine
 10
222.8499999999999
 20
486.11345
 30
0.0
 11
226.55
 21
483.3134499999999
 31
0.0
  0
LINE
  5
103
330
1E
100
AcDbEntity
  8
0
100
AcDbLine
 10
226.35
 20
482.91345
 30
0.0
 11
230.65
 21
481.2134499999999
 31
0.0
  0
LINE
  5
104
330
1E
100
AcDbEntity
  8
0
100
AcDbLine
 10
222.55
 20
485.81345
 30
0.0
 11
226.35
 21
482.91345
 31
0.0
  0
LINE
  5
105
330
1E
100
AcDbEntity
  8
0
100
AcDbLine
 10
250.4499999999999
 20
489.81345
 30
0.0
 11
252.15
 21
494.01345
 31
0.0
  0
LINE
  5
106
330
1E
100
AcDbEntity
  8
0
100
AcDbLine
 10
252.55
 20
493.91345
 30
0.0
 11
252.641304347826
 21
494.5134499999999
 31
0.0
  0
LINE
  5
107
330
1E
100
AcDbEntity
  8
0
100
AcDbLine
 10
220.05
 20
489.81345
 30
0.0
 11
222.8499999999999
 21
486.11345
 31
0.0
  0
LINE
  5
108
330
1E
100
AcDbEntity
  8
0
100
AcDbLine
 10
219.6499999999999
 20
489.61345
 30
0.0
 11
222.55
 21
485.81345
 31
0.0
  0
LINE
  5
109
330
1E
100
AcDbEntity
  8
0
100
AcDbLine
 10
217.9499999999999
 20
493.91345
 30
0.0
 11
219.6499999999999
 21
489.61345
 31
0.0
  0
LINE
  5
10A
330
1E
100
AcDbEntity
  8
0
100
AcDbLine
 10
252.15
 20
494.01345
 30
0.0
 11
252.2166666666669
 21
494.5134499999999
 31
0.0
  0
LINE
  5
10B
330
1E
100
AcDbEntity
  8
0
100
AcDbLine
 10
231.25
 20
494.11345
 30
0.0
 11
231.25
 21
463.5134499999999
 31
0.0
  0
LINE
  5
10C
330
1E
100
AcDbEntity
  8
0
100
AcDbLine
 10
231.25
 20
494.11345
 30
0.0
 11
231.7499999999999
 21
494.71345
 31
0.0
  0
LINE
  5
10D
330
1E
100
AcDbEntity
  8
0
100
AcDbLine
 10
239.25
 20
494.11345
 30
0.0
 11
239.25
 21
463.5134499999999
 31
0.0
  0
LINE
  5
10E
330
1E
100
AcDbEntity
  8
0
100
AcDbLine
 10
239.25
 20
494.11345
 30
0.0
 11
239.4499999999999
 21
494.31345
 31
0.0
  0
LINE
  5
10F
330
1E
100
AcDbEntity
  8
0
100
AcDbLine
 10
218.3499999999999
 20
494.01345
 30
0.0
 11
220.05
 21
489.81345
 31
0.0
  0
LINE
  5
110
330
1E
100
AcDbEntity
  8
0
100
AcDbLine
 10
318.35
 20
494.01345
 30
0.0
 11
320.05
 21
489.81345
 31
0.0
  0
LINE
  5
111
330
1E
100
AcDbEntity
  8
0
100
AcDbLine
 10
317.9499999999999
 20
493.91345
 30
0.0
 11
319.6499999999999
 21
489.61345
 31
0.0
  0
LINE
  5
112
330
1E
100
AcDbEntity
  8
0
100
AcDbLine
 10
325.2499999999999
 20
476.0134499999999
 30
0.0
 11
327.1499999999999
 21
476.0134499999999
 31
0.0
  0
LINE
  5
113
330
1E
100
AcDbEntity
  8
0
100
AcDbLine
 10
323.55
 20
476.0134499999999
 30
0.0
 11
325.75
 21
476.0134499999999
 31
0.0
  0
LINE
  5
114
330
1E
100
AcDbEntity
  8
0
100
AcDbLine
 10
328.55
 20
476.0134499999999
 30
0.0
 11
329.562586274618
 21
476.0134499999999
 31
0.0
  0
LINE
  5
115
330
1E
100
AcDbEntity
  8
0
100
AcDbLine
 10
342.8887155424409
 20
476.0134499999999
 30
0.0
 11
343.35
 21
476.0134499999999
 31
0.0
  0
LINE
  5
116
330
1E
100
AcDbEntity
  8
0
100
AcDbLine
 10
342.8887155424409
 20
476.0134499999999
 30
0.0
 11
344.75
 21
476.0134499999999
 31
0.0
  0
LINE
  5
117
330
1E
100
AcDbEntity
  8
0
100
AcDbLine
 10
343.35
 20
476.0134499999999
 30
0.0
 11
344.75
 21
476.0134499999999
 31
0.0
  0
LINE
  5
118
330
1E
100
AcDbEntity
  8
0
100
AcDbLine
 10
343.35
 20
476.0134499999999
 30
0.0
 11
345.25
 21
476.0134499999999
 31
0.0
  0
LINE
  5
119
330
1E
100
AcDbEntity
  8
0
100
AcDbLine
 10
343.35
 20
476.0134499999999
 30
0.0
 11
343.35
 21
521.01345
 31
0.0
  0
LINE
  5
11A
330
1E
100
AcDbEntity
  8
0
100
AcDbLine
 10
344.75
 20
476.0134499999999
 30
0.0
 11
346.95
 21
476.0134499999999
 31
0.0
  0
LINE
  5
11B
330
1E
100
AcDbEntity
  8
0
100
AcDbLine
 10
344.75
 20
476.0134499999999
 30
0.0
 11
344.75
 21
521.01345
 31
0.0
  0
LINE
  5
11C
330
1E
100
AcDbEntity
  8
0
100
AcDbLine
 10
345.25
 20
476.0134499999999
 30
0.0
 11
346.35
 21
476.0134499999999
 31
0.0
  0
LINE
  5
11D
330
1E
100
AcDbEntity
  8
0
100
AcDbLine
 10
348.75
 20
476.0134499999999
 30
0.0
 11
348.75
 21
521.01345
 31
0.0
  0
LINE
  5
11E
330
1E
100
AcDbEntity
  8
0
100
AcDbLine
 10
346.95
 20
476.0134499999999
 30
0.0
 11
348.2499999999999
 21
476.0134499999999
 31
0.0
  0
LINE
  5
11F
330
1E
100
AcDbEntity
  8
0
100
AcDbLine
 10
346.35
 20
476.0134499999999
 30
0.0
 11
346.75
 21
476.0134499999999
 31
0.0
  0
LINE
  5
120
330
1E
100
AcDbEntity
  8
0
100
AcDbLine
 10
348.2499999999999
 20
476.0134499999999
 30
0.0
 11
348.75
 21
476.0134499999999
 31
0.0
  0
LINE
  5
121
330
1E
100
AcDbEntity
  8
0
100
AcDbLine
 10
327.1499999999999
 20
476.0134499999999
 30
0.0
 11
327.1499999999999
 21
521.01345
 31
0.0
  0
LINE
  5
122
330
1E
100
AcDbEntity
  8
0
100
AcDbLine
 10
327.1499999999999
 20
476.0134499999999
 30
0.0
 11
329.55
 21
476.0134499999999
 31
0.0
  0
LINE
  5
123
330
1E
100
AcDbEntity
  8
0
100
AcDbLine
 10
325.75
 20
476.0134499999999
 30
0.0
 11
327.1499999999999
 21
476.0134499999999
 31
0.0
  0
LINE
  5
124
330
1E
100
AcDbEntity
  8
0
100
AcDbLine
 10
325.75
 20
476.0134499999999
 30
0.0
 11
328.55
 21
476.0134499999999
 31
0.0
  0
LINE
  5
125
330
1E
100
AcDbEntity
  8
0
100
AcDbLine
 10
325.75
 20
476.0134499999999
 30
0.0
 11
325.75
 21
521.01345
 31
0.0
  0
LINE
  5
126
330
1E
100
AcDbEntity
  8
0
100
AcDbLine
 10
324.1499999999999
 20
476.0134499999999
 30
0.0
 11
325.2499999999999
 21
476.0134499999999
 31
0.0
  0
LINE
  5
127
330
1E
100
AcDbEntity
  8
0
100
AcDbLine
 10
322.25
 20
476.0134499999999
 30
0.0
 11
323.55
 21
476.0134499999999
 31
0.0
  0
LINE
  5
128
330
1E
100
AcDbEntity
  8
0
100
AcDbLine
 10
323.75
 20
476.0134499999999
 30
0.0
 11
324.1499999999999
 21
476.0134499999999
 31
0.0
  0
LINE
  5
129
330
1E
100
AcDbEntity
  8
0
100
AcDbLine
 10
321.75
 20
476.0134499999999
 30
0.0
 11
322.25
 21
476.0134499999999
 31
0.0
  0
LINE
  5
12A
330
1E
100
AcDbEntity
  8
0
100
AcDbLine
 10
321.75
 20
476.0134499999999
 30
0.0
 11
321.75
 21
521.01345
 31
0.0
  0
LINE
  5
12B
330
1E
100
AcDbEntity
  8
0
100
AcDbLine
 10
348.75
 20
487.567021428571
 30
0.0
 11
350.45
 21
489.81345
 31
0.0
  0
LINE
  5
12C
330
1E
100
AcDbEntity
  8
0
100
AcDbLine
 10
320.05
 20
489.81345
 30
0.0
 11
321.75
 21
487.567021428571
 31
0.0
  0
LINE
  5
12D
330
1E
100
AcDbEntity
  8
0
100
AcDbLine
 10
329.5132654222419
 20
490.51245
 30
0.0
 11
330.624
 21
163.9864499999999
 31
0.0
  0
LINE
  5
12E
330
1E
100
AcDbEntity
  8
0
100
AcDbLine
 10
329.5132654222419
 20
490.51245
 30
0.0
 11
330.624
 21
163.9864499999999
 31
0.0
  0
LINE
  5
12F
330
1E
100
AcDbEntity
  8
0
100
AcDbLine
 10
335.25
 20
490.51245
 30
0.0
 11
337.85
 21
490.51245
 31
0.0
  0
LINE
  5
130
330
1E
100
AcDbEntity
  8
0
100
AcDbLine
 10
337.85
 20
490.51245
 30
0.0
 11
340.2499999999999
 21
490.51245
 31
0.0
  0
LINE
  5
131
330
1E
100
AcDbEntity
  8
0
100
AcDbLine
 10
340.2499999999999
 20
490.51245
 30
0.0
 11
342.35
 21
490.51245
 31
0.0
  0
LINE
  5
132
330
1E
100
AcDbEntity
  8
0
100
AcDbLine
 10
342.8392686558929
 20
490.51245
 30
0.0
 11
343.35
 21
490.51245
 31
0.0
  0
LINE
  5
133
330
1E
100
AcDbEntity
  8
0
100
AcDbLine
 10
342.8392686558929
 20
490.51245
 30
0.0
 11
343.9509999999999
 21
164.52645
 31
0.0
  0
LINE
  5
134
330
1E
100
AcDbEntity
  8
0
100
AcDbLine
 10
342.8392686558929
 20
490.51245
 30
0.0
 11
343.9509999999999
 21
164.52645
 31
0.0
  0
LINE
  5
135
330
1E
100
AcDbEntity
  8
0
100
AcDbLine
 10
342.35
 20
490.51245
 30
0.0
 11
343.35
 21
490.51245
 31
0.0
  0
LINE
  5
136
330
1E
100
AcDbEntity
  8
0
100
AcDbLine
 10
332.6499999999999
 20
490.51245
 30
0.0
 11
335.25
 21
490.51245
 31
0.0
  0
LINE
  5
137
330
1E
100
AcDbEntity
  8
0
100
AcDbLine
 10
330.25
 20
490.51245
 30
0.0
 11
332.6499999999999
 21
490.51245
 31
0.0
  0
LINE
  5
138
330
1E
100
AcDbEntity
  8
0
100
AcDbLine
 10
328.1499999999999
 20
490.51245
 30
0.0
 11
330.25
 21
490.51245
 31
0.0
  0
LINE
  5
139
330
1E
100
AcDbEntity
  8
0
100
AcDbLine
 10
328.1499999999999
 20
490.51245
 30
0.0
 11
329.5132654222419
 21
490.51245
 31
0.0
  0
LINE
  5
13A
330
1E
100
AcDbEntity
  8
0
100
AcDbLine
 10
327.1499999999999
 20
490.51245
 30
0.0
 11
328.1499999999999
 21
490.51245
 31
0.0
  0
LINE
  5
13B
330
1E
100
AcDbEntity
  8
0
100
AcDbLine
 10
350.45
 20
489.81345
 30
0.0
 11
352.1499999999999
 21
494.01345
 31
0.0
  0
LINE
  5
13C
330
1E
100
AcDbEntity
  8
0
100
AcDbLine
 10
352.1499999999999
 20
494.01345
 30
0.0
 11
352.7499999999999
 21
498.51345
 31
0.0
  0
LINE
  5
13D
330
1E
100
AcDbEntity
  8
0
100
AcDbLine
 10
350.85
 20
489.61345
 30
0.0
 11
352.55
 21
493.91345
 31
0.0
  0
LINE
  5
13E
330
1E
100
AcDbEntity
  8
0
100
AcDbLine
 10
352.55
 20
493.91345
 30
0.0
 11
353.25
 21
498.51345
 31
0.0
  0
LINE
  5
13F
330
1E
100
AcDbEntity
  8
0
100
AcDbLine
 10
348.75
 20
486.861725862069
 30
0.0
 11
350.85
 21
489.61345
 31
0.0
  0
LINE
  5
140
330
1E
100
AcDbEntity
  8
0
100
AcDbLine
 10
319.6499999999999
 20
489.61345
 30
0.0
 11
321.75
 21
486.861725862069
 31
0.0
  0
LINE
  5
141
330
1E
100
AcDbEntity
  8
0
100
AcDbLine
 10
365.75
 20
468.01345
 30
0.0
 11
365.75
 21
529.01345
 31
0.0
  0
LINE
  5
142
330
1E
100
AcDbEntity
  8
0
100
AcDbLine
 10
365.75
 20
468.01345
 30
0.0
 11
366.25
 21
468.01345
 31
0.0
  0
LINE
  5
143
330
1E
100
AcDbEntity
  8
0
100
AcDbLine
 10
365.75
 20
468.01345
 30
0.0
 11
365.75
 21
467.5134499999999
 31
0.0
  0
LINE
  5
144
330
1E
100
AcDbEntity
  8
0
100
AcDbLine
 10
149.2499999999999
 20
468.01345
 30
0.0
 11
185.25
 21
468.01345
 31
0.0
  0
LINE
  5
145
330
1E
100
AcDbEntity
  8
0
100
AcDbLine
 10
149.2499999999999
 20
467.5134499999999
 30
0.0
 11
185.25
 21
467.5134499999999
 31
0.0
  0
LINE
  5
146
330
1E
100
AcDbEntity
  8
0
100
AcDbLine
 10
52.54999999999999
 20
493.91345
 30
0.0
 11
52.6413043478261
 21
494.5134499999999
 31
0.0
  0
LINE
  5
147
330
1E
100
AcDbEntity
  8
0
100
AcDbLine
 10
38.75
 20
464.01345
 30
0.0
 11
39.25
 21
463.5134499999999
 31
0.0
  0
LINE
  5
148
330
1E
100
AcDbEntity
  8
0
100
AcDbLine
 10
38.75
 20
464.01345
 30
0.0
 11
38.75
 21
494.71345
 31
0.0
  0
LINE
  5
149
330
1E
100
AcDbEntity
  8
0
100
AcDbLine
 10
35.25
 20
464.01345
 30
0.0
 11
38.75
 21
464.01345
 31
0.0
  0
LINE
  5
14A
330
1E
100
AcDbEntity
  8
0
100
AcDbLine
 10
39.25
 20
494.11345
 30
0.0
 11
39.45
 21
494.31345
 31
0.0
  0
LINE
  5
14B
330
1E
100
AcDbEntity
  8
0
100
AcDbLine
 10
39.25
 20
494.11345
 30
0.0
 11
39.25
 21
463.5134499999999
 31
0.0
  0
LINE
  5
14C
330
1E
100
AcDbEntity
  8
0
100
AcDbLine
 10
31.75
 20
464.01345
 30
0.0
 11
35.25
 21
464.01345
 31
0.0
  0
LINE
  5
14D
330
1E
100
AcDbEntity
  8
0
100
AcDbLine
 10
31.75
 20
464.01345
 30
0.0
 11
31.75
 21
494.71345
 31
0.0
  0
LINE
  5
14E
330
1E
100
AcDbEntity
  8
0
100
AcDbLine
 10
39.45
 20
494.31345
 30
0.0
 11
39.64999999999999
 21
494.5134499999999
 31
0.0
  0
LINE
  5
14F
330
1E
100
AcDbEntity
  8
0
100
AcDbLine
 10
200.2499999999999
 20
494.5134499999999
 30
0.0
 11
200.2499999999999
 21
498.51345
 31
0.0
  0
LINE
  5
150
330
1E
100
AcDbEntity
  8
0
100
AcDbLine
 10
200.2499999999999
 20
494.5134499999999
 30
0.0
 11
230.8499999999999
 21
494.5134499999999
 31
0.0
  0
LINE
  5
151
330
1E
100
AcDbEntity
  8
0
100
AcDbLine
 10
200.2499999999999
 20
494.5134499999999
 30
0.0
 11
200.7499999999999
 21
495.0134499999999
 31
0.0
  0
LINE
  5
152
330
1E
100
AcDbEntity
  8
0
100
AcDbLine
 10
230.8499999999999
 20
494.5134499999999
 30
0.0
 11
231.05
 21
494.31345
 31
0.0
  0
LINE
  5
153
330
1E
100
AcDbEntity
  8
0
100
AcDbLine
 10
230.8499999999999
 20
494.5134499999999
 30
0.0
 11
231.4499999999999
 21
495.0134499999999
 31
0.0
  0
LINE
  5
154
330
1E
100
AcDbEntity
  8
0
100
AcDbLine
 10
270.25
 20
494.5134499999999
 30
0.0
 11
270.25
 21
498.51345
 31
0.0
  0
LINE
  5
155
330
1E
100
AcDbEntity
  8
0
100
AcDbLine
 10
239.4499999999999
 20
494.31345
 30
0.0
 11
239.65
 21
494.5134499999999
 31
0.0
  0
LINE
  5
156
330
1E
100
AcDbEntity
  8
0
100
AcDbLine
 10
239.65
 20
494.5134499999999
 30
0.0
 11
270.25
 21
494.5134499999999
 31
0.0
  0
LINE
  5
157
330
1E
100
AcDbEntity
  8
0
100
AcDbLine
 10
231.05
 20
494.31345
 30
0.0
 11
231.25
 21
494.11345
 31
0.0
  0
LINE
  5
158
330
1E
100
AcDbEntity
  8
0
100
AcDbLine
 10
218.283333333333
 20
494.5134499999999
 30
0.0
 11
218.3499999999999
 21
494.01345
 31
0.0
  0
LINE
  5
159
330
1E
100
AcDbEntity
  8
0
100
AcDbLine
 10
217.858695652174
 20
494.5134499999999
 30
0.0
 11
217.9499999999999
 21
493.91345
 31
0.0
  0
LINE
  5
15A
330
1E
100
AcDbEntity
  8
0
100
AcDbLine
 10
70.25
 20
494.5134499999999
 30
0.0
 11
70.25
 21
498.51345
 31
0.0
  0
LINE
  5
15B
330
1E
100
AcDbEntity
  8
0
100
AcDbLine
 10
39.64999999999999
 20
494.5134499999999
 30
0.0
 11
70.25
 21
494.5134499999999
 31
0.0
  0
LINE
  5
15C
330
1E
100
AcDbEntity
  8
0
100
AcDbLine
 10
31.25
 20
494.11345
 30
0.0
 11
31.25
 21
463.5134499999999
 31
0.0
  0
LINE
  5
15D
330
1E
100
AcDbEntity
  8
0
100
AcDbLine
 10
31.25
 20
494.11345
 30
0.0
 11
31.75
 21
494.71345
 31
0.0
  0
LINE
  5
15E
330
1E
100
AcDbEntity
  8
0
100
AcDbLine
 10
31.05
 20
494.31345
 30
0.0
 11
31.25
 21
494.11345
 31
0.0
  0
LINE
  5
15F
330
1E
100
AcDbEntity
  8
0
100
AcDbLine
 10
31.25
 20
463.5134499999999
 30
0.0
 11
35.25
 21
463.5134499999999
 31
0.0
  0
LINE
  5
160
330
1E
100
AcDbEntity
  8
0
100
AcDbLine
 10
31.25
 20
463.5134499999999
 30
0.0
 11
31.25
 21
494.11345
 31
0.0
  0
LINE
  5
161
330
1E
100
AcDbEntity
  8
0
100
AcDbLine
 10
31.25
 20
463.5134499999999
 30
0.0
 11
31.75
 21
464.01345
 31
0.0
  0
LINE
  5
162
330
1E
100
AcDbEntity
  8
0
100
AcDbLine
 10
30.85
 20
494.5134499999999
 30
0.0
 11
31.05
 21
494.31345
 31
0.0
  0
LINE
  5
163
330
1E
100
AcDbEntity
  8
0
100
AcDbLine
 10
30.85
 20
494.5134499999999
 30
0.0
 11
31.45
 21
495.0134499999999
 31
0.0
  0
LINE
  5
164
330
1E
100
AcDbEntity
  8
0
100
AcDbLine
 10
0.7499999999999949
 20
502.01345
 30
0.0
 11
31.45
 21
502.01345
 31
0.0
  0
LINE
  5
165
330
1E
100
AcDbEntity
  8
0
100
AcDbLine
 10
0.25
 20
502.51345
 30
0.0
 11
30.85
 21
502.51345
 31
0.0
  0
LINE
  5
166
330
1E
100
AcDbEntity
  8
0
100
AcDbLine
 10
0.7499999999999979
 20
502.01345
 30
0.0
 11
31.45
 21
502.01345
 31
0.0
  0
LINE
  5
167
330
1E
100
AcDbEntity
  8
0
100
AcDbLine
 10
0.7499999999999979
 20
502.01345
 30
0.0
 11
0.7499999999999979
 21
498.51345
 31
0.0
  0
LINE
  5
168
330
1E
100
AcDbEntity
  8
0
100
AcDbLine
 10
0.249999999999998
 20
502.51345
 30
0.0
 11
0.7499999999999979
 21
502.01345
 31
0.0
  0
LINE
  5
169
330
1E
100
AcDbEntity
  8
0
100
AcDbLine
 10
0.7499999999999979
 20
498.51345
 30
0.0
 11
0.7499999999999979
 21
495.0134499999999
 31
0.0
  0
LINE
  5
16A
330
1E
100
AcDbEntity
  8
0
100
AcDbLine
 10
0.7499999999999979
 20
498.51345
 30
0.0
 11
0.7499999999999979
 21
502.01345
 31
0.0
  0
LINE
  5
16B
330
1E
100
AcDbEntity
  8
0
100
AcDbLine
 10
0.7499999999999949
 20
495.0134499999999
 30
0.0
 11
31.45
 21
495.0134499999999
 31
0.0
  0
LINE
  5
16C
330
1E
100
AcDbEntity
  8
0
100
AcDbLine
 10
231.7499999999999
 20
494.71345
 30
0.0
 11
231.7499999999999
 21
464.01345
 31
0.0
  0
LINE
  5
16D
330
1E
100
AcDbEntity
  8
0
100
AcDbLine
 10
238.75
 20
494.71345
 30
0.0
 11
238.75
 21
464.01345
 31
0.0
  0
LINE
  5
16E
330
1E
100
AcDbEntity
  8
0
100
AcDbLine
 10
238.75
 20
494.71345
 30
0.0
 11
239.25
 21
494.11345
 31
0.0
  0
LINE
  5
16F
330
1E
100
AcDbEntity
  8
0
100
AcDbLine
 10
38.75
 20
494.71345
 30
0.0
 11
38.75
 21
464.01345
 31
0.0
  0
LINE
  5
170
330
1E
100
AcDbEntity
  8
0
100
AcDbLine
 10
38.75
 20
494.71345
 30
0.0
 11
39.25
 21
494.11345
 31
0.0
  0
LINE
  5
171
330
1E
100
AcDbEntity
  8
0
100
AcDbLine
 10
39.04999999999999
 20
495.0134499999999
 30
0.0
 11
39.64999999999999
 21
494.5134499999999
 31
0.0
  0
LINE
  5
172
330
1E
100
AcDbEntity
  8
0
100
AcDbLine
 10
39.04999999999999
 20
495.0134499999999
 30
0.0
 11
69.75
 21
495.0134499999999
 31
0.0
  0
LINE
  5
173
330
1E
100
AcDbEntity
  8
0
100
AcDbLine
 10
4.75
 20
502.51345
 30
0.0
 11
4.75
 21
529.01345
 31
0.0
  0
LINE
  5
174
330
1E
100
AcDbEntity
  8
0
100
AcDbLine
 10
4.25
 20
502.51345
 30
0.0
 11
4.25
 21
529.01345
 31
0.0
  0
LINE
  5
175
330
1E
100
AcDbEntity
  8
0
100
AcDbLine
 10
18.2833333333333
 20
502.51345
 30
0.0
 11
18.35
 21
503.0134499999999
 31
0.0
  0
LINE
  5
176
330
1E
100
AcDbEntity
  8
0
100
AcDbLine
 10
17.8586956521739
 20
502.51345
 30
0.0
 11
17.94999999999999
 21
503.11345
 31
0.0
  0
LINE
  5
177
330
1E
100
AcDbEntity
  8
0
100
AcDbLine
 10
30.85
 20
502.51345
 30
0.0
 11
31.05
 21
502.71345
 31
0.0
  0
LINE
  5
178
330
1E
100
AcDbEntity
  8
0
100
AcDbLine
 10
30.85
 20
502.51345
 30
0.0
 11
31.45
 21
502.01345
 31
0.0
  0
LINE
  5
179
330
1E
100
AcDbEntity
  8
0
100
AcDbLine
 10
31.75
 20
502.31345
 30
0.0
 11
31.75
 21
533.01345
 31
0.0
  0
LINE
  5
17A
330
1E
100
AcDbEntity
  8
0
100
AcDbLine
 10
38.75
 20
502.31345
 30
0.0
 11
39.25
 21
502.91345
 31
0.0
  0
LINE
  5
17B
330
1E
100
AcDbEntity
  8
0
100
AcDbLine
 10
38.75
 20
502.31345
 30
0.0
 11
38.75
 21
533.01345
 31
0.0
  0
LINE
  5
17C
330
1E
100
AcDbEntity
  8
0
100
AcDbLine
 10
39.04999999999999
 20
502.01345
 30
0.0
 11
69.75
 21
502.01345
 31
0.0
  0
LINE
  5
17D
330
1E
100
AcDbEntity
  8
0
100
AcDbLine
 10
39.04999999999999
 20
502.01345
 30
0.0
 11
39.64999999999999
 21
502.51345
 31
0.0
  0
LINE
  5
17E
330
1E
100
AcDbEntity
  8
0
100
AcDbLine
 10
69.75
 20
502.01345
 30
0.0
 11
69.75
 21
498.51345
 31
0.0
  0
LINE
  5
17F
330
1E
100
AcDbEntity
  8
0
100
AcDbLine
 10
69.75
 20
502.01345
 30
0.0
 11
70.25
 21
502.51345
 31
0.0
  0
LINE
  5
180
330
1E
100
AcDbEntity
  8
0
100
AcDbLine
 10
31.05
 20
502.71345
 30
0.0
 11
31.25
 21
502.91345
 31
0.0
  0
LINE
  5
181
330
1E
100
AcDbEntity
  8
0
100
AcDbLine
 10
31.25
 20
502.91345
 30
0.0
 11
31.25
 21
533.51345
 31
0.0
  0
LINE
  5
182
330
1E
100
AcDbEntity
  8
0
100
AcDbLine
 10
31.25
 20
502.91345
 30
0.0
 11
31.75
 21
502.31345
 31
0.0
  0
LINE
  5
183
330
1E
100
AcDbEntity
  8
0
100
AcDbLine
 10
20.05
 20
507.21345
 30
0.0
 11
22.85
 21
510.91345
 31
0.0
  0
LINE
  5
184
330
1E
100
AcDbEntity
  8
0
100
AcDbLine
 10
18.35
 20
503.0134499999999
 30
0.0
 11
20.05
 21
507.21345
 31
0.0
  0
LINE
  5
185
330
1E
100
AcDbEntity
  8
0
100
AcDbLine
 10
17.94999999999999
 20
503.11345
 30
0.0
 11
19.64999999999999
 21
507.41345
 31
0.0
  0
LINE
  5
186
330
1E
100
AcDbEntity
  8
0
100
AcDbLine
 10
22.85
 20
510.91345
 30
0.0
 11
26.55
 21
513.71345
 31
0.0
  0
LINE
  5
187
330
1E
100
AcDbEntity
  8
0
100
AcDbLine
 10
4.75
 20
529.01345
 30
0.0
 11
31.25
 21
529.01345
 31
0.0
  0
LINE
  5
188
330
1E
100
AcDbEntity
  8
0
100
AcDbLine
 10
4.75
 20
529.01345
 30
0.0
 11
4.75
 21
529.51345
 31
0.0
  0
LINE
  5
189
330
1E
100
AcDbEntity
  8
0
100
AcDbLine
 10
4.75
 20
529.01345
 30
0.0
 11
31.25
 21
529.01345
 31
0.0
  0
LINE
  5
18A
330
1E
100
AcDbEntity
  8
0
100
AcDbLine
 10
4.75
 20
529.01345
 30
0.0
 11
4.75
 21
502.51345
 31
0.0
  0
LINE
  5
18B
330
1E
100
AcDbEntity
  8
0
100
AcDbLine
 10
4.75
 20
529.51345
 30
0.0
 11
31.25
 21
529.51345
 31
0.0
  0
LINE
  5
18C
330
1E
100
AcDbEntity
  8
0
100
AcDbLine
 10
4.75
 20
529.51345
 30
0.0
 11
31.25
 21
529.51345
 31
0.0
  0
LINE
  5
18D
330
1E
100
AcDbEntity
  8
0
100
AcDbLine
 10
4.75
 20
529.51345
 30
0.0
 11
4.75
 21
529.01345
 31
0.0
  0
LINE
  5
18E
330
1E
100
AcDbEntity
  8
0
100
AcDbLine
 10
4.25
 20
529.01345
 30
0.0
 11
4.25
 21
502.51345
 31
0.0
  0
LINE
  5
18F
330
1E
100
AcDbEntity
  8
0
100
AcDbLine
 10
4.25
 20
529.01345
 30
0.0
 11
4.75
 21
529.51345
 31
0.0
  0
LINE
  5
190
330
1E
100
AcDbEntity
  8
0
100
AcDbLine
 10
4.25
 20
529.01345
 30
0.0
 11
4.75
 21
529.01345
 31
0.0
  0
LINE
  5
191
330
1E
100
AcDbEntity
  8
0
100
AcDbLine
 10
26.55
 20
513.71345
 30
0.0
 11
30.75
 21
515.41345
 31
0.0
  0
LINE
  5
192
330
1E
100
AcDbEntity
  8
0
100
AcDbLine
 10
26.35
 20
514.1134499999999
 30
0.0
 11
30.64999999999999
 21
515.81345
 31
0.0
  0
LINE
  5
193
330
1E
100
AcDbEntity
  8
0
100
AcDbLine
 10
22.55
 20
511.21345
 30
0.0
 11
26.35
 21
514.1134499999999
 31
0.0
  0
LINE
  5
194
330
1E
100
AcDbEntity
  8
0
100
AcDbLine
 10
30.75
 20
515.41345
 30
0.0
 11
31.25
 21
515.480116666667
 31
0.0
  0
LINE
  5
195
330
1E
100
AcDbEntity
  8
0
100
AcDbLine
 10
30.64999999999999
 20
515.81345
 30
0.0
 11
31.25
 21
515.904754347826
 31
0.0
  0
LINE
  5
196
330
1E
100
AcDbEntity
  8
0
100
AcDbLine
 10
19.64999999999999
 20
507.41345
 30
0.0
 11
22.55
 21
511.21345
 31
0.0
  0
LINE
  5
197
330
1E
100
AcDbEntity
  8
0
100
AcDbLine
 10
31.75
 20
533.01345
 30
0.0
 11
35.25
 21
533.01345
 31
0.0
  0
LINE
  5
198
330
1E
100
AcDbEntity
  8
0
100
AcDbLine
 10
31.75
 20
533.01345
 30
0.0
 11
31.75
 21
502.31345
 31
0.0
  0
LINE
  5
199
330
1E
100
AcDbEntity
  8
0
100
AcDbLine
 10
31.25
 20
533.51345
 30
0.0
 11
35.25
 21
533.51345
 31
0.0
  0
LINE
  5
19A
330
1E
100
AcDbEntity
  8
0
100
AcDbLine
 10
31.25
 20
533.51345
 30
0.0
 11
31.25
 21
502.91345
 31
0.0
  0
LINE
  5
19B
330
1E
100
AcDbEntity
  8
0
100
AcDbLine
 10
31.25
 20
533.51345
 30
0.0
 11
31.75
 21
533.01345
 31
0.0
  0
LINE
  5
19C
330
1E
100
AcDbEntity
  8
0
100
AcDbLine
 10
35.25
 20
533.01345
 30
0.0
 11
38.75
 21
533.01345
 31
0.0
  0
LINE
  5
19D
330
1E
100
AcDbEntity
  8
0
100
AcDbLine
 10
39.25
 20
515.480116666667
 30
0.0
 11
39.75
 21
515.41345
 31
0.0
  0
LINE
  5
19E
330
1E
100
AcDbEntity
  8
0
100
AcDbLine
 10
39.25
 20
529.01345
 30
0.0
 11
124.2499999999999
 21
529.01345
 31
0.0
  0
LINE
  5
19F
330
1E
100
AcDbEntity
  8
0
100
AcDbLine
 10
39.25
 20
529.51345
 30
0.0
 11
124.5139999999999
 21
529.51345
 31
0.0
  0
LINE
  5
1A0
330
1E
100
AcDbEntity
  8
0
100
AcDbLine
 10
39.25
 20
515.904754347826
 30
0.0
 11
39.85
 21
515.81345
 31
0.0
  0
LINE
  5
1A1
330
1E
100
AcDbEntity
  8
0
100
AcDbLine
 10
38.75
 20
533.01345
 30
0.0
 11
39.25
 21
533.51345
 31
0.0
  0
LINE
  5
1A2
330
1E
100
AcDbEntity
  8
0
100
AcDbLine
 10
38.75
 20
533.01345
 30
0.0
 11
38.75
 21
502.31345
 31
0.0
  0
LINE
  5
1A3
330
1E
100
AcDbEntity
  8
0
100
AcDbLine
 10
39.25
 20
533.51345
 30
0.0
 11
39.25
 21
502.91345
 31
0.0
  0
LINE
  5
1A4
330
1E
100
AcDbEntity
  8
0
100
AcDbLine
 10
35.25
 20
533.51345
 30
0.0
 11
39.25
 21
533.51345
 31
0.0
  0
LINE
  5
1A5
330
1E
100
AcDbEntity
  8
0
100
AcDbLine
 10
39.25
 20
502.91345
 30
0.0
 11
39.45
 21
502.71345
 31
0.0
  0
LINE
  5
1A6
330
1E
100
AcDbEntity
  8
0
100
AcDbLine
 10
39.25
 20
502.91345
 30
0.0
 11
39.25
 21
533.51345
 31
0.0
  0
LINE
  5
1A7
330
1E
100
AcDbEntity
  8
0
100
AcDbLine
 10
52.14999999999999
 20
503.0134499999999
 30
0.0
 11
52.2166666666667
 21
502.51345
 31
0.0
  0
LINE
  5
1A8
330
1E
100
AcDbEntity
  8
0
100
AcDbLine
 10
47.64999999999999
 20
510.91345
 30
0.0
 11
50.45
 21
507.21345
 31
0.0
  0
LINE
  5
1A9
330
1E
100
AcDbEntity
  8
0
100
AcDbLine
 10
50.45
 20
507.21345
 30
0.0
 11
52.14999999999999
 21
503.0134499999999
 31
0.0
  0
LINE
  5
1AA
330
1E
100
AcDbEntity
  8
0
100
AcDbLine
 10
39.75
 20
515.41345
 30
0.0
 11
43.95
 21
513.71345
 31
0.0
  0
LINE
  5
1AB
330
1E
100
AcDbEntity
  8
0
100
AcDbLine
 10
43.95
 20
513.71345
 30
0.0
 11
47.64999999999999
 21
510.91345
 31
0.0
  0
LINE
  5
1AC
330
1E
100
AcDbEntity
  8
0
100
AcDbLine
 10
39.85
 20
515.81345
 30
0.0
 11
44.15
 21
514.1134499999999
 31
0.0
  0
LINE
  5
1AD
330
1E
100
AcDbEntity
  8
0
100
AcDbLine
 10
44.15
 20
514.1134499999999
 30
0.0
 11
47.95
 21
511.21345
 31
0.0
  0
LINE
  5
1AE
330
1E
100
AcDbEntity
  8
0
100
AcDbLine
 10
47.95
 20
511.21345
 30
0.0
 11
50.85
 21
507.41345
 31
0.0
  0
LINE
  5
1AF
330
1E
100
AcDbEntity
  8
0
100
AcDbLine
 10
50.85
 20
507.41345
 30
0.0
 11
52.54999999999999
 21
503.11345
 31
0.0
  0
LINE
  5
1B0
330
1E
100
AcDbEntity
  8
0
100
AcDbLine
 10
52.54999999999999
 20
503.11345
 30
0.0
 11
52.6413043478261
 21
502.51345
 31
0.0
  0
LINE
  5
1B1
330
1E
100
AcDbEntity
  8
0
100
AcDbLine
 10
39.45
 20
502.71345
 30
0.0
 11
39.64999999999999
 21
502.51345
 31
0.0
  0
LINE
  5
1B2
330
1E
100
AcDbEntity
  8
0
100
AcDbLine
 10
39.64999999999999
 20
502.51345
 30
0.0
 11
70.25
 21
502.51345
 31
0.0
  0
LINE
  5
1B3
330
1E
100
AcDbEntity
  8
0
100
AcDbLine
 10
70.25
 20
502.51345
 30
0.0
 11
70.25
 21
498.51345
 31
0.0
  0
LINE
  5
1B4
330
1E
100
AcDbEntity
  8
0
100
AcDbLine
 10
69.75
 20
498.51345
 30
0.0
 11
69.75
 21
495.0134499999999
 31
0.0
  0
LINE
  5
1B5
330
1E
100
AcDbEntity
  8
0
100
AcDbLine
 10
69.75
 20
498.51345
 30
0.0
 11
69.75
 21
502.01345
 31
0.0
  0
LINE
  5
1B6
330
1E
100
AcDbEntity
  8
0
100
AcDbLine
 10
69.75
 20
495.0134499999999
 30
0.0
 11
70.25
 21
494.5134499999999
 31
0.0
  0
LINE
  5
1B7
330
1E
100
AcDbEntity
  8
0
100
AcDbLine
 10
69.75
 20
495.0134499999999
 30
0.0
 11
69.75
 21
498.51345
 31
0.0
  0
LINE
  5
1B8
330
1E
100
AcDbEntity
  8
0
100
AcDbLine
 10
121.25
 20
498.61345
 30
0.0
 11
121.25
 21
505.9134499999999
 31
0.0
  0
LINE
  5
1B9
330
1E
100
AcDbEntity
  8
0
100
AcDbLine
 10
121.25
 20
498.61345
 30
0.0
 11
121.25
 21
489.21345
 31
0.0
  0
LINE
  5
1BA
330
1E
100
AcDbEntity
  8
0
100
AcDbLine
 10
121.25
 20
505.9134499999999
 30
0.0
 11
121.25
 21
510.4134499999999
 31
0.0
  0
LINE
  5
1BB
330
1E
100
AcDbEntity
  8
0
100
AcDbLine
 10
121.25
 20
505.9134499999999
 30
0.0
 11
121.25
 21
498.61345
 31
0.0
  0
LINE
  5
1BC
330
1E
100
AcDbEntity
  8
0
100
AcDbLine
 10
121.75
 20
499.0134499999999
 30
0.0
 11
121.75
 21
506.31345
 31
0.0
  0
LINE
  5
1BD
330
1E
100
AcDbEntity
  8
0
100
AcDbLine
 10
121.75
 20
499.0134499999999
 30
0.0
 11
121.75
 21
489.4134499999999
 31
0.0
  0
LINE
  5
1BE
330
1E
100
AcDbEntity
  8
0
100
AcDbLine
 10
121.25
 20
510.4134499999999
 30
0.0
 11
121.25
 21
512.01345
 31
0.0
  0
LINE
  5
1BF
330
1E
100
AcDbEntity
  8
0
100
AcDbLine
 10
121.25
 20
510.4134499999999
 30
0.0
 11
121.25
 21
505.9134499999999
 31
0.0
  0
LINE
  5
1C0
330
1E
100
AcDbEntity
  8
0
100
AcDbLine
 10
121.25
 20
512.01345
 30
0.0
 11
121.75
 21
512.51345
 31
0.0
  0
LINE
  5
1C1
330
1E
100
AcDbEntity
  8
0
100
AcDbLine
 10
121.25
 20
512.01345
 30
0.0
 11
121.25
 21
510.4134499999999
 31
0.0
  0
LINE
  5
1C2
330
1E
100
AcDbEntity
  8
0
100
AcDbLine
 10
121.75
 20
506.31345
 30
0.0
 11
121.75
 21
510.81345
 31
0.0
  0
LINE
  5
1C3
330
1E
100
AcDbEntity
  8
0
100
AcDbLine
 10
121.75
 20
506.31345
 30
0.0
 11
121.75
 21
499.0134499999999
 31
0.0
  0
LINE
  5
1C4
330
1E
100
AcDbEntity
  8
0
100
AcDbLine
 10
129.2499999999999
 20
512.51345
 30
0.0
 11
129.2499999999999
 21
517.51345
 31
0.0
  0
LINE
  5
1C5
330
1E
100
AcDbEntity
  8
0
100
AcDbLine
 10
141.25
 20
512.51345
 30
0.0
 11
141.25
 21
517.51345
 31
0.0
  0
LINE
  5
1C6
330
1E
100
AcDbEntity
  8
0
100
AcDbLine
 10
135.25
 20
512.51345
 30
0.0
 11
148.75
 21
512.51345
 31
0.0
  0
LINE
  5
1C7
330
1E
100
AcDbEntity
  8
0
100
AcDbLine
 10
121.75
 20
510.81345
 30
0.0
 11
121.75
 21
512.51345
 31
0.0
  0
LINE
  5
1C8
330
1E
100
AcDbEntity
  8
0
100
AcDbLine
 10
121.75
 20
510.81345
 30
0.0
 11
121.75
 21
506.31345
 31
0.0
  0
LINE
  5
1C9
330
1E
100
AcDbEntity
  8
0
100
AcDbLine
 10
127.682
 20
517.51345
 30
0.0
 11
129.926
 21
517.51345
 31
0.0
  0
LINE
  5
1CA
330
1E
100
AcDbEntity
  8
0
100
AcDbLine
 10
127.682
 20
517.51345
 30
0.0
 11
129.2499999999999
 21
517.51345
 31
0.0
  0
LINE
  5
1CB
330
1E
100
AcDbEntity
  8
0
100
AcDbLine
 10
125.966
 20
517.51345
 30
0.0
 11
127.682
 21
517.51345
 31
0.0
  0
LINE
  5
1CC
330
1E
100
AcDbEntity
  8
0
100
AcDbLine
 10
124.91
 20
517.51345
 30
0.0
 11
125.966
 21
517.51345
 31
0.0
  0
LINE
  5
1CD
330
1E
100
AcDbEntity
  8
0
100
AcDbLine
 10
124.5139999999999
 20
517.51345
 30
0.0
 11
124.91
 21
517.51345
 31
0.0
  0
LINE
  5
1CE
330
1E
100
AcDbEntity
  8
0
100
AcDbLine
 10
129.926
 20
517.51345
 30
0.0
 11
132.4779999999999
 21
517.51345
 31
0.0
  0
LINE
  5
1CF
330
1E
100
AcDbEntity
  8
0
100
AcDbLine
 10
132.4779999999999
 20
517.51345
 30
0.0
 11
135.25
 21
517.51345
 31
0.0
  0
LINE
  5
1D0
330
1E
100
AcDbEntity
  8
0
100
AcDbLine
 10
133.7139999999999
 20
517.51345
 30
0.0
 11
135.25
 21
517.51345
 31
0.0
  0
LINE
  5
1D1
330
1E
100
AcDbEntity
  8
0
100
AcDbLine
 10
132.274
 20
517.51345
 30
0.0
 11
133.7139999999999
 21
517.51345
 31
0.0
  0
LINE
  5
1D2
330
1E
100
AcDbEntity
  8
0
100
AcDbLine
 10
131.002
 20
517.51345
 30
0.0
 11
132.274
 21
517.51345
 31
0.0
  0
LINE
  5
1D3
330
1E
100
AcDbEntity
  8
0
100
AcDbLine
 10
130.042
 20
517.51345
 30
0.0
 11
131.002
 21
517.51345
 31
0.0
  0
LINE
  5
1D4
330
1E
100
AcDbEntity
  8
0
100
AcDbLine
 10
129.466
 20
517.51345
 30
0.0
 11
130.042
 21
517.51345
 31
0.0
  0
LINE
  5
1D5
330
1E
100
AcDbEntity
  8
0
100
AcDbLine
 10
129.2499999999999
 20
517.51345
 30
0.0
 11
129.466
 21
517.51345
 31
0.0
  0
LINE
  5
1D6
330
1E
100
AcDbEntity
  8
0
100
AcDbLine
 10
129.2499999999999
 20
517.51345
 30
0.0
 11
129.2499999999999
 21
512.51345
 31
0.0
  0
LINE
  5
1D7
330
1E
100
AcDbEntity
  8
0
100
AcDbLine
 10
138.022
 20
517.51345
 30
0.0
 11
140.5739999999999
 21
517.51345
 31
0.0
  0
LINE
  5
1D8
330
1E
100
AcDbEntity
  8
0
100
AcDbLine
 10
135.25
 20
517.51345
 30
0.0
 11
136.786
 21
517.51345
 31
0.0
  0
LINE
  5
1D9
330
1E
100
AcDbEntity
  8
0
100
AcDbLine
 10
135.25
 20
517.51345
 30
0.0
 11
138.022
 21
517.51345
 31
0.0
  0
LINE
  5
1DA
330
1E
100
AcDbEntity
  8
0
100
AcDbLine
 10
136.786
 20
517.51345
 30
0.0
 11
138.226
 21
517.51345
 31
0.0
  0
LINE
  5
1DB
330
1E
100
AcDbEntity
  8
0
100
AcDbLine
 10
138.226
 20
517.51345
 30
0.0
 11
139.4979999999999
 21
517.51345
 31
0.0
  0
LINE
  5
1DC
330
1E
100
AcDbEntity
  8
0
100
AcDbLine
 10
139.4979999999999
 20
517.51345
 30
0.0
 11
140.4579999999999
 21
517.51345
 31
0.0
  0
LINE
  5
1DD
330
1E
100
AcDbEntity
  8
0
100
AcDbLine
 10
140.5739999999999
 20
517.51345
 30
0.0
 11
142.8179999999999
 21
517.51345
 31
0.0
  0
LINE
  5
1DE
330
1E
100
AcDbEntity
  8
0
100
AcDbLine
 10
140.4579999999999
 20
517.51345
 30
0.0
 11
141.0339999999999
 21
517.51345
 31
0.0
  0
LINE
  5
1DF
330
1E
100
AcDbEntity
  8
0
100
AcDbLine
 10
124.2499999999999
 20
517.97545
 30
0.0
 11
124.5139999999999
 21
517.51345
 31
0.0
  0
LINE
  5
1E0
330
1E
100
AcDbEntity
  8
0
100
AcDbLine
 10
124.2499999999999
 20
517.97545
 30
0.0
 11
124.2499999999999
 21
529.05245
 31
0.0
  0
LINE
  5
1E1
330
1E
100
AcDbEntity
  8
0
100
AcDbLine
 10
132.4779999999999
 20
529.51345
 30
0.0
 11
135.25
 21
529.51345
 31
0.0
  0
LINE
  5
1E2
330
1E
100
AcDbEntity
  8
0
100
AcDbLine
 10
129.926
 20
529.51345
 30
0.0
 11
132.4779999999999
 21
529.51345
 31
0.0
  0
LINE
  5
1E3
330
1E
100
AcDbEntity
  8
0
100
AcDbLine
 10
127.682
 20
529.51345
 30
0.0
 11
129.926
 21
529.51345
 31
0.0
  0
LINE
  5
1E4
330
1E
100
AcDbEntity
  8
0
100
AcDbLine
 10
125.966
 20
529.51345
 30
0.0
 11
127.682
 21
529.51345
 31
0.0
  0
LINE
  5
1E5
330
1E
100
AcDbEntity
  8
0
100
AcDbLine
 10
124.91
 20
529.51345
 30
0.0
 11
125.966
 21
529.51345
 31
0.0
  0
LINE
  5
1E6
330
1E
100
AcDbEntity
  8
0
100
AcDbLine
 10
124.5139999999999
 20
529.51345
 30
0.0
 11
124.91
 21
529.51345
 31
0.0
  0
LINE
  5
1E7
330
1E
100
AcDbEntity
  8
0
100
AcDbLine
 10
124.2499999999999
 20
529.05245
 30
0.0
 11
124.2499999999999
 21
517.97545
 31
0.0
  0
LINE
  5
1E8
330
1E
100
AcDbEntity
  8
0
100
AcDbLine
 10
124.2499999999999
 20
529.05245
 30
0.0
 11
124.5139999999999
 21
529.51345
 31
0.0
  0
LINE
  5
1E9
330
1E
100
AcDbEntity
  8
0
100
AcDbLine
 10
135.25
 20
529.51345
 30
0.0
 11
138.022
 21
529.51345
 31
0.0
  0
LINE
  5
1EA
330
1E
100
AcDbEntity
  8
0
100
AcDbLine
 10
138.022
 20
529.51345
 30
0.0
 11
140.5739999999999
 21
529.51345
 31
0.0
  0
LINE
  5
1EB
330
1E
100
AcDbEntity
  8
0
100
AcDbLine
 10
140.5739999999999
 20
529.51345
 30
0.0
 11
142.8179999999999
 21
529.51345
 31
0.0
  0
LINE
  5
1EC
330
1E
100
AcDbEntity
  8
0
100
AcDbLine
 10
141.0339999999999
 20
517.51345
 30
0.0
 11
141.25
 21
517.51345
 31
0.0
  0
LINE
  5
1ED
330
1E
100
AcDbEntity
  8
0
100
AcDbLine
 10
142.8179999999999
 20
517.51345
 30
0.0
 11
144.5339999999999
 21
517.51345
 31
0.0
  0
LINE
  5
1EE
330
1E
100
AcDbEntity
  8
0
100
AcDbLine
 10
144.5339999999999
 20
517.51345
 30
0.0
 11
145.5899999999999
 21
517.51345
 31
0.0
  0
LINE
  5
1EF
330
1E
100
AcDbEntity
  8
0
100
AcDbLine
 10
142.8179999999999
 20
529.51345
 30
0.0
 11
144.5339999999999
 21
529.51345
 31
0.0
  0
LINE
  5
1F0
330
1E
100
AcDbEntity
  8
0
100
AcDbLine
 10
145.5899999999999
 20
517.51345
 30
0.0
 11
145.9859999999999
 21
517.51345
 31
0.0
  0
LINE
  5
1F1
330
1E
100
AcDbEntity
  8
0
100
AcDbLine
 10
145.9859999999999
 20
517.51345
 30
0.0
 11
146.25
 21
517.97545
 31
0.0
  0
LINE
  5
1F2
330
1E
100
AcDbEntity
  8
0
100
AcDbLine
 10
146.25
 20
529.05245
 30
0.0
 11
146.25
 21
517.97545
 31
0.0
  0
LINE
  5
1F3
330
1E
100
AcDbEntity
  8
0
100
AcDbLine
 10
146.25
 20
517.97545
 30
0.0
 11
146.25
 21
529.05245
 31
0.0
  0
LINE
  5
1F4
330
1E
100
AcDbEntity
  8
0
100
AcDbLine
 10
144.5339999999999
 20
529.51345
 30
0.0
 11
145.5899999999999
 21
529.51345
 31
0.0
  0
LINE
  5
1F5
330
1E
100
AcDbEntity
  8
0
100
AcDbLine
 10
145.5899999999999
 20
529.51345
 30
0.0
 11
145.9859999999999
 21
529.51345
 31
0.0
  0
LINE
  5
1F6
330
1E
100
AcDbEntity
  8
0
100
AcDbLine
 10
141.25
 20
517.51345
 30
0.0
 11
141.25
 21
512.51345
 31
0.0
  0
LINE
  5
1F7
330
1E
100
AcDbEntity
  8
0
100
AcDbLine
 10
141.25
 20
517.51345
 30
0.0
 11
142.8179999999999
 21
517.51345
 31
0.0
  0
LINE
  5
1F8
330
1E
100
AcDbEntity
  8
0
100
AcDbLine
 10
121.75
 20
512.51345
 30
0.0
 11
135.25
 21
512.51345
 31
0.0
  0
LINE
  5
1F9
330
1E
100
AcDbEntity
  8
0
100
AcDbLine
 10
121.75
 20
512.51345
 30
0.0
 11
121.75
 21
510.81345
 31
0.0
  0
LINE
  5
1FA
330
1E
100
AcDbEntity
  8
0
100
AcDbLine
 10
200.7499999999999
 20
498.51345
 30
0.0
 11
200.7499999999999
 21
495.0134499999999
 31
0.0
  0
LINE
  5
1FB
330
1E
100
AcDbEntity
  8
0
100
AcDbLine
 10
200.7499999999999
 20
498.51345
 30
0.0
 11
200.7499999999999
 21
502.01345
 31
0.0
  0
LINE
  5
1FC
330
1E
100
AcDbEntity
  8
0
100
AcDbLine
 10
239.05
 20
495.0134499999999
 30
0.0
 11
239.65
 21
494.5134499999999
 31
0.0
  0
LINE
  5
1FD
330
1E
100
AcDbEntity
  8
0
100
AcDbLine
 10
239.05
 20
495.0134499999999
 30
0.0
 11
269.75
 21
495.0134499999999
 31
0.0
  0
LINE
  5
1FE
330
1E
100
AcDbEntity
  8
0
100
AcDbLine
 10
269.75
 20
495.0134499999999
 30
0.0
 11
270.25
 21
494.5134499999999
 31
0.0
  0
LINE
  5
1FF
330
1E
100
AcDbEntity
  8
0
100
AcDbLine
 10
269.75
 20
495.0134499999999
 30
0.0
 11
269.75
 21
498.51345
 31
0.0
  0
LINE
  5
200
330
1E
100
AcDbEntity
  8
0
100
AcDbLine
 10
269.75
 20
498.51345
 30
0.0
 11
269.75
 21
502.01345
 31
0.0
  0
LINE
  5
201
330
1E
100
AcDbEntity
  8
0
100
AcDbLine
 10
269.75
 20
498.51345
 30
0.0
 11
269.75
 21
495.0134499999999
 31
0.0
  0
LINE
  5
202
330
1E
100
AcDbEntity
  8
0
100
AcDbLine
 10
270.25
 20
498.51345
 30
0.0
 11
270.25
 21
502.51345
 31
0.0
  0
LINE
  5
203
330
1E
100
AcDbEntity
  8
0
100
AcDbLine
 10
270.25
 20
498.51345
 30
0.0
 11
270.25
 21
494.5134499999999
 31
0.0
  0
LINE
  5
204
330
1E
100
AcDbEntity
  8
0
100
AcDbLine
 10
200.7499999999999
 20
495.0134499999999
 30
0.0
 11
200.7499999999999
 21
498.51345
 31
0.0
  0
LINE
  5
205
330
1E
100
AcDbEntity
  8
0
100
AcDbLine
 10
200.7499999999999
 20
495.0134499999999
 30
0.0
 11
231.4499999999999
 21
495.0134499999999
 31
0.0
  0
LINE
  5
206
330
1E
100
AcDbEntity
  8
0
100
AcDbLine
 10
200.2499999999999
 20
498.51345
 30
0.0
 11
200.2499999999999
 21
494.5134499999999
 31
0.0
  0
LINE
  5
207
330
1E
100
AcDbEntity
  8
0
100
AcDbLine
 10
200.2499999999999
 20
498.51345
 30
0.0
 11
200.2499999999999
 21
502.51345
 31
0.0
  0
LINE
  5
208
330
1E
100
AcDbEntity
  8
0
100
AcDbLine
 10
317.75
 20
498.51345
 30
0.0
 11
318.35
 21
503.0134499999999
 31
0.0
  0
LINE
  5
209
330
1E
100
AcDbEntity
  8
0
100
AcDbLine
 10
317.75
 20
498.51345
 30
0.0
 11
318.35
 21
494.01345
 31
0.0
  0
LINE
  5
20A
330
1E
100
AcDbEntity
  8
0
100
AcDbLine
 10
149.2499999999999
 20
498.61345
 30
0.0
 11
149.2499999999999
 21
489.21345
 31
0.0
  0
LINE
  5
20B
330
1E
100
AcDbEntity
  8
0
100
AcDbLine
 10
149.2499999999999
 20
498.61345
 30
0.0
 11
149.2499999999999
 21
505.9134499999999
 31
0.0
  0
LINE
  5
20C
330
1E
100
AcDbEntity
  8
0
100
AcDbLine
 10
200.7499999999999
 20
502.01345
 30
0.0
 11
231.4499999999999
 21
502.01345
 31
0.0
  0
LINE
  5
20D
330
1E
100
AcDbEntity
  8
0
100
AcDbLine
 10
200.7499999999999
 20
502.01345
 30
0.0
 11
200.7499999999999
 21
498.51345
 31
0.0
  0
LINE
  5
20E
330
1E
100
AcDbEntity
  8
0
100
AcDbLine
 10
200.2499999999999
 20
502.51345
 30
0.0
 11
200.2499999999999
 21
498.51345
 31
0.0
  0
LINE
  5
20F
330
1E
100
AcDbEntity
  8
0
100
AcDbLine
 10
200.2499999999999
 20
502.51345
 30
0.0
 11
230.8499999999999
 21
502.51345
 31
0.0
  0
LINE
  5
210
330
1E
100
AcDbEntity
  8
0
100
AcDbLine
 10
200.2499999999999
 20
502.51345
 30
0.0
 11
200.7499999999999
 21
502.01345
 31
0.0
  0
LINE
  5
211
330
1E
100
AcDbEntity
  8
0
100
AcDbLine
 10
230.8499999999999
 20
502.51345
 30
0.0
 11
231.05
 21
502.71345
 31
0.0
  0
LINE
  5
212
330
1E
100
AcDbEntity
  8
0
100
AcDbLine
 10
230.8499999999999
 20
502.51345
 30
0.0
 11
231.4499999999999
 21
502.01345
 31
0.0
  0
LINE
  5
213
330
1E
100
AcDbEntity
  8
0
100
AcDbLine
 10
239.05
 20
502.01345
 30
0.0
 11
269.75
 21
502.01345
 31
0.0
  0
LINE
  5
214
330
1E
100
AcDbEntity
  8
0
100
AcDbLine
 10
239.05
 20
502.01345
 30
0.0
 11
239.65
 21
502.51345
 31
0.0
  0
LINE
  5
215
330
1E
100
AcDbEntity
  8
0
100
AcDbLine
 10
239.65
 20
502.51345
 30
0.0
 11
270.25
 21
502.51345
 31
0.0
  0
LINE
  5
216
330
1E
100
AcDbEntity
  8
0
100
AcDbLine
 10
238.75
 20
502.31345
 30
0.0
 11
239.25
 21
502.91345
 31
0.0
  0
LINE
  5
217
330
1E
100
AcDbEntity
  8
0
100
AcDbLine
 10
238.75
 20
502.31345
 30
0.0
 11
238.75
 21
533.01345
 31
0.0
  0
LINE
  5
218
330
1E
100
AcDbEntity
  8
0
100
AcDbLine
 10
231.7499999999999
 20
502.31345
 30
0.0
 11
231.7499999999999
 21
533.01345
 31
0.0
  0
LINE
  5
219
330
1E
100
AcDbEntity
  8
0
100
AcDbLine
 10
239.4499999999999
 20
502.71345
 30
0.0
 11
239.65
 21
502.51345
 31
0.0
  0
LINE
  5
21A
330
1E
100
AcDbEntity
  8
0
100
AcDbLine
 10
239.25
 20
502.91345
 30
0.0
 11
239.4499999999999
 21
502.71345
 31
0.0
  0
LINE
  5
21B
330
1E
100
AcDbEntity
  8
0
100
AcDbLine
 10
239.25
 20
502.91345
 30
0.0
 11
239.25
 21
533.51345
 31
0.0
  0
LINE
  5
21C
330
1E
100
AcDbEntity
  8
0
100
AcDbLine
 10
231.05
 20
502.71345
 30
0.0
 11
231.25
 21
502.91345
 31
0.0
  0
LINE
  5
21D
330
1E
100
AcDbEntity
  8
0
100
AcDbLine
 10
231.25
 20
502.91345
 30
0.0
 11
231.25
 21
533.51345
 31
0.0
  0
LINE
  5
21E
330
1E
100
AcDbEntity
  8
0
100
AcDbLine
 10
231.25
 20
502.91345
 30
0.0
 11
231.7499999999999
 21
502.31345
 31
0.0
  0
LINE
  5
21F
330
1E
100
AcDbEntity
  8
0
100
AcDbLine
 10
218.3499999999999
 20
503.0134499999999
 30
0.0
 11
220.05
 21
507.21345
 31
0.0
  0
LINE
  5
220
330
1E
100
AcDbEntity
  8
0
100
AcDbLine
 10
218.283333333333
 20
502.51345
 30
0.0
 11
218.3499999999999
 21
503.0134499999999
 31
0.0
  0
LINE
  5
221
330
1E
100
AcDbEntity
  8
0
100
AcDbLine
 10
217.858695652174
 20
502.51345
 30
0.0
 11
217.9499999999999
 21
503.11345
 31
0.0
  0
LINE
  5
222
330
1E
100
AcDbEntity
  8
0
100
AcDbLine
 10
217.9499999999999
 20
503.11345
 30
0.0
 11
219.6499999999999
 21
507.41345
 31
0.0
  0
LINE
  5
223
330
1E
100
AcDbEntity
  8
0
100
AcDbLine
 10
252.15
 20
503.0134499999999
 30
0.0
 11
252.2166666666669
 21
502.51345
 31
0.0
  0
LINE
  5
224
330
1E
100
AcDbEntity
  8
0
100
AcDbLine
 10
269.75
 20
502.01345
 30
0.0
 11
269.75
 21
498.51345
 31
0.0
  0
LINE
  5
225
330
1E
100
AcDbEntity
  8
0
100
AcDbLine
 10
269.75
 20
502.01345
 30
0.0
 11
270.25
 21
502.51345
 31
0.0
  0
LINE
  5
226
330
1E
100
AcDbEntity
  8
0
100
AcDbLine
 10
270.25
 20
502.51345
 30
0.0
 11
270.25
 21
498.51345
 31
0.0
  0
LINE
  5
227
330
1E
100
AcDbEntity
  8
0
100
AcDbLine
 10
252.55
 20
503.11345
 30
0.0
 11
252.641304347826
 21
502.51345
 31
0.0
  0
LINE
  5
228
330
1E
100
AcDbEntity
  8
0
100
AcDbLine
 10
148.75
 20
499.0134499999999
 30
0.0
 11
148.75
 21
489.4134499999999
 31
0.0
  0
LINE
  5
229
330
1E
100
AcDbEntity
  8
0
100
AcDbLine
 10
148.75
 20
499.0134499999999
 30
0.0
 11
148.75
 21
506.31345
 31
0.0
  0
LINE
  5
22A
330
1E
100
AcDbEntity
  8
0
100
AcDbLine
 10
318.35
 20
503.0134499999999
 30
0.0
 11
320.05
 21
507.21345
 31
0.0
  0
LINE
  5
22B
330
1E
100
AcDbEntity
  8
0
100
AcDbLine
 10
317.9499999999999
 20
503.11345
 30
0.0
 11
319.6499999999999
 21
507.41345
 31
0.0
  0
LINE
  5
22C
330
1E
100
AcDbEntity
  8
0
100
AcDbLine
 10
317.2499999999999
 20
498.51345
 30
0.0
 11
317.9499999999999
 21
503.11345
 31
0.0
  0
LINE
  5
22D
330
1E
100
AcDbEntity
  8
0
100
AcDbLine
 10
317.2499999999999
 20
498.51345
 30
0.0
 11
317.9499999999999
 21
493.91345
 31
0.0
  0
LINE
  5
22E
330
1E
100
AcDbEntity
  8
0
100
AcDbLine
 10
352.1499999999999
 20
503.0134499999999
 30
0.0
 11
352.7499999999999
 21
498.51345
 31
0.0
  0
LINE
  5
22F
330
1E
100
AcDbEntity
  8
0
100
AcDbLine
 10
149.2499999999999
 20
505.9134499999999
 30
0.0
 11
149.2499999999999
 21
498.61345
 31
0.0
  0
LINE
  5
230
330
1E
100
AcDbEntity
  8
0
100
AcDbLine
 10
149.2499999999999
 20
505.9134499999999
 30
0.0
 11
149.2499999999999
 21
510.4134499999999
 31
0.0
  0
LINE
  5
231
330
1E
100
AcDbEntity
  8
0
100
AcDbLine
 10
220.05
 20
507.21345
 30
0.0
 11
222.8499999999999
 21
510.91345
 31
0.0
  0
LINE
  5
232
330
1E
100
AcDbEntity
  8
0
100
AcDbLine
 10
219.6499999999999
 20
507.41345
 30
0.0
 11
222.55
 21
511.21345
 31
0.0
  0
LINE
  5
233
330
1E
100
AcDbEntity
  8
0
100
AcDbLine
 10
250.4499999999999
 20
507.21345
 30
0.0
 11
252.15
 21
503.0134499999999
 31
0.0
  0
LINE
  5
234
330
1E
100
AcDbEntity
  8
0
100
AcDbLine
 10
250.85
 20
507.41345
 30
0.0
 11
252.55
 21
503.11345
 31
0.0
  0
LINE
  5
235
330
1E
100
AcDbEntity
  8
0
100
AcDbLine
 10
148.75
 20
506.31345
 30
0.0
 11
148.75
 21
499.0134499999999
 31
0.0
  0
LINE
  5
236
330
1E
100
AcDbEntity
  8
0
100
AcDbLine
 10
148.75
 20
506.31345
 30
0.0
 11
148.75
 21
510.81345
 31
0.0
  0
LINE
  5
237
330
1E
100
AcDbEntity
  8
0
100
AcDbLine
 10
320.05
 20
507.21345
 30
0.0
 11
321.75
 21
509.459878571428
 31
0.0
  0
LINE
  5
238
330
1E
100
AcDbEntity
  8
0
100
AcDbLine
 10
319.6499999999999
 20
507.41345
 30
0.0
 11
321.75
 21
510.165174137931
 31
0.0
  0
LINE
  5
239
330
1E
100
AcDbEntity
  8
0
100
AcDbLine
 10
348.75
 20
509.459878571428
 30
0.0
 11
350.45
 21
507.21345
 31
0.0
  0
LINE
  5
23A
330
1E
100
AcDbEntity
  8
0
100
AcDbLine
 10
350.45
 20
507.21345
 30
0.0
 11
352.1499999999999
 21
503.0134499999999
 31
0.0
  0
LINE
  5
23B
330
1E
100
AcDbEntity
  8
0
100
AcDbLine
 10
148.75
 20
510.81345
 30
0.0
 11
148.75
 21
506.31345
 31
0.0
  0
LINE
  5
23C
330
1E
100
AcDbEntity
  8
0
100
AcDbLine
 10
148.75
 20
510.81345
 30
0.0
 11
148.75
 21
512.51345
 31
0.0
  0
LINE
  5
23D
330
1E
100
AcDbEntity
  8
0
100
AcDbLine
 10
149.2499999999999
 20
510.4134499999999
 30
0.0
 11
149.2499999999999
 21
505.9134499999999
 31
0.0
  0
LINE
  5
23E
330
1E
100
AcDbEntity
  8
0
100
AcDbLine
 10
149.2499999999999
 20
510.4134499999999
 30
0.0
 11
149.2499999999999
 21
512.01345
 31
0.0
  0
LINE
  5
23F
330
1E
100
AcDbEntity
  8
0
100
AcDbLine
 10
149.2499999999999
 20
512.01345
 30
0.0
 11
149.2499999999999
 21
510.4134499999999
 31
0.0
  0
LINE
  5
240
330
1E
100
AcDbEntity
  8
0
100
AcDbLine
 10
148.75
 20
512.51345
 30
0.0
 11
148.75
 21
510.81345
 31
0.0
  0
LINE
  5
241
330
1E
100
AcDbEntity
  8
0
100
AcDbLine
 10
148.75
 20
512.51345
 30
0.0
 11
149.2499999999999
 21
512.01345
 31
0.0
  0
LINE
  5
242
330
1E
100
AcDbEntity
  8
0
100
AcDbLine
 10
185.25
 20
529.01345
 30
0.0
 11
231.25
 21
529.01345
 31
0.0
  0
LINE
  5
243
330
1E
100
AcDbEntity
  8
0
100
AcDbLine
 10
222.8499999999999
 20
510.91345
 30
0.0
 11
226.55
 21
513.71345
 31
0.0
  0
LINE
  5
244
330
1E
100
AcDbEntity
  8
0
100
AcDbLine
 10
222.55
 20
511.21345
 30
0.0
 11
226.35
 21
514.1134499999999
 31
0.0
  0
LINE
  5
245
330
1E
100
AcDbEntity
  8
0
100
AcDbLine
 10
247.65
 20
510.91345
 30
0.0
 11
250.4499999999999
 21
507.21345
 31
0.0
  0
LINE
  5
246
330
1E
100
AcDbEntity
  8
0
100
AcDbLine
 10
230.75
 20
515.41345
 30
0.0
 11
231.25
 21
515.480116666667
 31
0.0
  0
LINE
  5
247
330
1E
100
AcDbEntity
  8
0
100
AcDbLine
 10
226.55
 20
513.71345
 30
0.0
 11
230.75
 21
515.41345
 31
0.0
  0
LINE
  5
248
330
1E
100
AcDbEntity
  8
0
100
AcDbLine
 10
226.35
 20
514.1134499999999
 30
0.0
 11
230.65
 21
515.81345
 31
0.0
  0
LINE
  5
249
330
1E
100
AcDbEntity
  8
0
100
AcDbLine
 10
230.65
 20
515.81345
 30
0.0
 11
231.25
 21
515.904754347826
 31
0.0
  0
LINE
  5
24A
330
1E
100
AcDbEntity
  8
0
100
AcDbLine
 10
239.25
 20
515.480116666667
 30
0.0
 11
239.7499999999999
 21
515.41345
 31
0.0
  0
LINE
  5
24B
330
1E
100
AcDbEntity
  8
0
100
AcDbLine
 10
239.7499999999999
 20
515.41345
 30
0.0
 11
243.9499999999999
 21
513.71345
 31
0.0
  0
LINE
  5
24C
330
1E
100
AcDbEntity
  8
0
100
AcDbLine
 10
243.9499999999999
 20
513.71345
 30
0.0
 11
247.65
 21
510.91345
 31
0.0
  0
LINE
  5
24D
330
1E
100
AcDbEntity
  8
0
100
AcDbLine
 10
239.25
 20
515.904754347826
 30
0.0
 11
239.8499999999999
 21
515.81345
 31
0.0
  0
LINE
  5
24E
330
1E
100
AcDbEntity
  8
0
100
AcDbLine
 10
239.8499999999999
 20
515.81345
 30
0.0
 11
244.15
 21
514.1134499999999
 31
0.0
  0
LINE
  5
24F
330
1E
100
AcDbEntity
  8
0
100
AcDbLine
 10
329.55
 20
520.51345
 30
0.0
 11
332.25
 21
520.51345
 31
0.0
  0
LINE
  5
250
330
1E
100
AcDbEntity
  8
0
100
AcDbLine
 10
327.1499999999999
 20
520.51345
 30
0.0
 11
329.55
 21
520.51345
 31
0.0
  0
LINE
  5
251
330
1E
100
AcDbEntity
  8
0
100
AcDbLine
 10
329.55
 20
521.0014499999999
 30
0.0
 11
332.25
 21
521.0314499999999
 31
0.0
  0
LINE
  5
252
330
1E
100
AcDbEntity
  8
0
100
AcDbLine
 10
327.1499999999999
 20
521.01345
 30
0.0
 11
329.207142857145
 21
521.01345
 31
0.0
  0
LINE
  5
253
330
1E
100
AcDbEntity
  8
0
100
AcDbLine
 10
327.1499999999999
 20
521.01345
 30
0.0
 11
327.1499999999999
 21
476.0134499999999
 31
0.0
  0
LINE
  5
254
330
1E
100
AcDbEntity
  8
0
100
AcDbLine
 10
335.25
 20
520.51345
 30
0.0
 11
338.25
 21
520.51345
 31
0.0
  0
LINE
  5
255
330
1E
100
AcDbEntity
  8
0
100
AcDbLine
 10
332.25
 20
520.51345
 30
0.0
 11
335.25
 21
520.51345
 31
0.0
  0
LINE
  5
256
330
1E
100
AcDbEntity
  8
0
100
AcDbLine
 10
338.25
 20
520.51345
 30
0.0
 11
340.9499999999999
 21
520.51345
 31
0.0
  0
LINE
  5
257
330
1E
100
AcDbEntity
  8
0
100
AcDbLine
 10
340.9499999999999
 20
520.51345
 30
0.0
 11
343.35
 21
520.51345
 31
0.0
  0
LINE
  5
258
330
1E
100
AcDbEntity
  8
0
100
AcDbLine
 10
340.9499999999999
 20
521.0014499999999
 30
0.0
 11
343.35
 21
521.08545
 31
0.0
  0
LINE
  5
259
330
1E
100
AcDbEntity
  8
0
100
AcDbLine
 10
341.2928571428549
 20
521.01345
 30
0.0
 11
343.35
 21
521.01345
 31
0.0
  0
LINE
  5
25A
330
1E
100
AcDbEntity
  8
0
100
AcDbLine
 10
338.25
 20
521.01345
 30
0.0
 11
339.870000000005
 21
521.01345
 31
0.0
  0
LINE
  5
25B
330
1E
100
AcDbEntity
  8
0
100
AcDbLine
 10
335.25
 20
521.01345
 30
0.0
 11
338.25
 21
521.01345
 31
0.0
  0
LINE
  5
25C
330
1E
100
AcDbEntity
  8
0
100
AcDbLine
 10
344.75
 20
521.01345
 30
0.0
 11
346.95
 21
521.01345
 31
0.0
  0
LINE
  5
25D
330
1E
100
AcDbEntity
  8
0
100
AcDbLine
 10
344.75
 20
521.01345
 30
0.0
 11
344.75
 21
476.0134499999999
 31
0.0
  0
LINE
  5
25E
330
1E
100
AcDbEntity
  8
0
100
AcDbLine
 10
346.95
 20
521.01345
 30
0.0
 11
348.2499999999999
 21
521.01345
 31
0.0
  0
LINE
  5
25F
330
1E
100
AcDbEntity
  8
0
100
AcDbLine
 10
343.35
 20
521.01345
 30
0.0
 11
343.35
 21
476.0134499999999
 31
0.0
  0
LINE
  5
260
330
1E
100
AcDbEntity
  8
0
100
AcDbLine
 10
343.35
 20
521.01345
 30
0.0
 11
344.75
 21
521.01345
 31
0.0
  0
LINE
  5
261
330
1E
100
AcDbEntity
  8
0
100
AcDbLine
 10
330.629999999995
 20
521.01345
 30
0.0
 11
332.25
 21
521.01345
 31
0.0
  0
LINE
  5
262
330
1E
100
AcDbEntity
  8
0
100
AcDbLine
 10
332.25
 20
521.01345
 30
0.0
 11
335.25
 21
521.01345
 31
0.0
  0
LINE
  5
263
330
1E
100
AcDbEntity
  8
0
100
AcDbLine
 10
325.75
 20
521.01345
 30
0.0
 11
327.1499999999999
 21
521.01345
 31
0.0
  0
LINE
  5
264
330
1E
100
AcDbEntity
  8
0
100
AcDbLine
 10
325.75
 20
521.01345
 30
0.0
 11
325.75
 21
476.0134499999999
 31
0.0
  0
LINE
  5
265
330
1E
100
AcDbEntity
  8
0
100
AcDbLine
 10
323.55
 20
521.01345
 30
0.0
 11
325.75
 21
521.01345
 31
0.0
  0
LINE
  5
266
330
1E
100
AcDbEntity
  8
0
100
AcDbLine
 10
322.25
 20
521.01345
 30
0.0
 11
323.55
 21
521.01345
 31
0.0
  0
LINE
  5
267
330
1E
100
AcDbEntity
  8
0
100
AcDbLine
 10
324.1499999999999
 20
521.07745
 30
0.0
 11
325.2499999999999
 21
521.1084499999999
 31
0.0
  0
LINE
  5
268
330
1E
100
AcDbEntity
  8
0
100
AcDbLine
 10
324.1499999999999
 20
521.07745
 30
0.0
 11
327.281835205992
 21
521.08083576779
 31
0.0
  0
LINE
  5
269
330
1E
100
AcDbEntity
  8
0
100
AcDbLine
 10
323.75
 20
521.0894500000001
 30
0.0
 11
324.1499999999999
 21
521.05145
 31
0.0
  0
LINE
  5
26A
330
1E
100
AcDbEntity
  8
0
100
AcDbLine
 10
323.75
 20
521.0894500000001
 30
0.0
 11
324.1499999999999
 21
521.07745
 31
0.0
  0
LINE
  5
26B
330
1E
100
AcDbEntity
  8
0
100
AcDbLine
 10
324.1499999999999
 20
521.05145
 30
0.0
 11
325.2499999999999
 21
521.0204499999999
 31
0.0
  0
LINE
  5
26C
330
1E
100
AcDbEntity
  8
0
100
AcDbLine
 10
325.2499999999999
 20
521.0204499999999
 30
0.0
 11
327.1499999999999
 21
521.04445
 31
0.0
  0
LINE
  5
26D
330
1E
100
AcDbEntity
  8
0
100
AcDbLine
 10
325.2499999999999
 20
521.0204499999999
 30
0.0
 11
328.3884248210039
 21
521.0421051312649
 31
0.0
  0
LINE
  5
26E
330
1E
100
AcDbEntity
  8
0
100
AcDbLine
 10
324.575806451615
 20
521.0894500000001
 30
0.0
 11
326.819565217386
 21
521.0894500000001
 31
0.0
  0
LINE
  5
26F
330
1E
100
AcDbEntity
  8
0
100
AcDbLine
 10
327.1499999999999
 20
521.08545
 30
0.0
 11
329.55
 21
521.0014499999999
 31
0.0
  0
LINE
  5
270
330
1E
100
AcDbEntity
  8
0
100
AcDbLine
 10
325.2499999999999
 20
521.1084499999999
 30
0.0
 11
327.1499999999999
 21
521.08545
 31
0.0
  0
LINE
  5
271
330
1E
100
AcDbEntity
  8
0
100
AcDbLine
 10
327.1499999999999
 20
521.04445
 30
0.0
 11
328.427922077923
 21
521.0407227272731
 31
0.0
  0
LINE
  5
272
330
1E
100
AcDbEntity
  8
0
100
AcDbLine
 10
327.1499999999999
 20
521.04445
 30
0.0
 11
328.160958904111
 21
521.050066438356
 31
0.0
  0
LINE
  5
273
330
1E
100
AcDbEntity
  8
0
100
AcDbLine
 10
338.25
 20
521.0314499999999
 30
0.0
 11
340.9499999999999
 21
521.0014499999999
 31
0.0
  0
LINE
  5
274
330
1E
100
AcDbEntity
  8
0
100
AcDbLine
 10
345.25
 20
521.0204499999999
 30
0.0
 11
346.35
 21
521.05145
 31
0.0
  0
LINE
  5
275
330
1E
100
AcDbEntity
  8
0
100
AcDbLine
 10
335.25
 20
521.04445
 30
0.0
 11
338.25
 21
521.0314499999999
 31
0.0
  0
LINE
  5
276
330
1E
100
AcDbEntity
  8
0
100
AcDbLine
 10
335.25
 20
522.01145
 30
0.0
 11
338.45
 21
522.04145
 31
0.0
  0
LINE
  5
277
330
1E
100
AcDbEntity
  8
0
100
AcDbLine
 10
338.45
 20
522.04145
 30
0.0
 11
341.4499999999999
 21
522.05245
 31
0.0
  0
LINE
  5
278
330
1E
100
AcDbEntity
  8
0
100
AcDbLine
 10
342.111575178996
 20
521.0421051312649
 30
0.0
 11
345.25
 21
521.0204499999999
 31
0.0
  0
LINE
  5
279
330
1E
100
AcDbEntity
  8
0
100
AcDbLine
 10
343.2181647940079
 20
521.08083576779
 30
0.0
 11
346.35
 21
521.07745
 31
0.0
  0
LINE
  5
27A
330
1E
100
AcDbEntity
  8
0
100
AcDbLine
 10
342.3390410958889
 20
521.050066438356
 30
0.0
 11
343.35
 21
521.04445
 31
0.0
  0
LINE
  5
27B
330
1E
100
AcDbEntity
  8
0
100
AcDbLine
 10
343.35
 20
521.08545
 30
0.0
 11
345.25
 21
521.1084499999999
 31
0.0
  0
LINE
  5
27C
330
1E
100
AcDbEntity
  8
0
100
AcDbLine
 10
343.6804347826139
 20
521.0894500000001
 30
0.0
 11
345.9241935483849
 21
521.0894500000001
 31
0.0
  0
LINE
  5
27D
330
1E
100
AcDbEntity
  8
0
100
AcDbLine
 10
346.35
 20
521.07745
 30
0.0
 11
346.75
 21
521.0894500000001
 31
0.0
  0
LINE
  5
27E
330
1E
100
AcDbEntity
  8
0
100
AcDbLine
 10
346.35
 20
521.05145
 30
0.0
 11
346.75
 21
521.0894500000001
 31
0.0
  0
LINE
  5
27F
330
1E
100
AcDbEntity
  8
0
100
AcDbLine
 10
345.25
 20
521.1084499999999
 30
0.0
 11
346.35
 21
521.07745
 31
0.0
  0
LINE
  5
280
330
1E
100
AcDbEntity
  8
0
100
AcDbLine
 10
346.75
 20
521.0894500000001
 30
0.0
 11
347.75
 21
522.1164499999999
 31
0.0
  0
LINE
  5
281
330
1E
100
AcDbEntity
  8
0
100
AcDbLine
 10
343.35
 20
521.04445
 30
0.0
 11
345.25
 21
521.0204499999999
 31
0.0
  0
LINE
  5
282
330
1E
100
AcDbEntity
  8
0
100
AcDbLine
 10
342.0720779220769
 20
521.0407227272731
 30
0.0
 11
343.35
 21
521.04445
 31
0.0
  0
LINE
  5
283
330
1E
100
AcDbEntity
  8
0
100
AcDbLine
 10
341.4499999999999
 20
522.05245
 30
0.0
 11
344.05
 21
522.0884499999999
 31
0.0
  0
LINE
  5
284
330
1E
100
AcDbEntity
  8
0
100
AcDbLine
 10
332.25
 20
521.0314499999999
 30
0.0
 11
335.25
 21
521.04445
 31
0.0
  0
LINE
  5
285
330
1E
100
AcDbEntity
  8
0
100
AcDbLine
 10
332.05
 20
522.04145
 30
0.0
 11
335.25
 21
522.01145
 31
0.0
  0
LINE
  5
286
330
1E
100
AcDbEntity
  8
0
100
AcDbLine
 10
346.05
 20
522.06345
 30
0.0
 11
347.35
 21
522.0684499999999
 31
0.0
  0
LINE
  5
287
330
1E
100
AcDbEntity
  8
0
100
AcDbLine
 10
347.35
 20
522.0684499999999
 30
0.0
 11
347.75
 21
522.1164499999999
 31
0.0
  0
LINE
  5
288
330
1E
100
AcDbEntity
  8
0
100
AcDbLine
 10
329.05
 20
522.05245
 30
0.0
 11
332.05
 21
522.04145
 31
0.0
  0
LINE
  5
289
330
1E
100
AcDbEntity
  8
0
100
AcDbLine
 10
324.4499999999999
 20
522.06345
 30
0.0
 11
326.4499999999999
 21
522.0884499999999
 31
0.0
  0
LINE
  5
28A
330
1E
100
AcDbEntity
  8
0
100
AcDbLine
 10
344.05
 20
522.0884499999999
 30
0.0
 11
346.05
 21
522.06345
 31
0.0
  0
LINE
  5
28B
330
1E
100
AcDbEntity
  8
0
100
AcDbLine
 10
347.75
 20
522.1164499999999
 30
0.0
 11
347.75
 21
606.1794499999999
 31
0.0
  0
LINE
  5
28C
330
1E
100
AcDbEntity
  8
0
100
AcDbLine
 10
326.4499999999999
 20
522.0884499999999
 30
0.0
 11
329.05
 21
522.05245
 31
0.0
  0
LINE
  5
28D
330
1E
100
AcDbEntity
  8
0
100
AcDbLine
 10
323.15
 20
522.0684499999999
 30
0.0
 11
324.4499999999999
 21
522.06345
 31
0.0
  0
LINE
  5
28E
330
1E
100
AcDbEntity
  8
0
100
AcDbLine
 10
322.75
 20
522.1164499999999
 30
0.0
 11
323.15
 21
522.0684499999999
 31
0.0
  0
LINE
  5
28F
330
1E
100
AcDbEntity
  8
0
100
AcDbLine
 10
322.75
 20
522.1164499999999
 30
0.0
 11
322.75
 21
606.1794499999999
 31
0.0
  0
LINE
  5
290
330
1E
100
AcDbEntity
  8
0
100
AcDbLine
 10
322.75
 20
522.1164499999999
 30
0.0
 11
323.75
 21
521.0894500000001
 31
0.0
  0
LINE
  5
291
330
1E
100
AcDbEntity
  8
0
100
AcDbLine
 10
321.75
 20
521.01345
 30
0.0
 11
322.25
 21
521.01345
 31
0.0
  0
LINE
  5
292
330
1E
100
AcDbEntity
  8
0
100
AcDbLine
 10
321.75
 20
521.01345
 30
0.0
 11
321.75
 21
476.0134499999999
 31
0.0
  0
LINE
  5
293
330
1E
100
AcDbEntity
  8
0
100
AcDbLine
 10
244.15
 20
514.1134499999999
 30
0.0
 11
247.9499999999999
 21
511.21345
 31
0.0
  0
LINE
  5
294
330
1E
100
AcDbEntity
  8
0
100
AcDbLine
 10
247.9499999999999
 20
511.21345
 30
0.0
 11
250.85
 21
507.41345
 31
0.0
  0
LINE
  5
295
330
1E
100
AcDbEntity
  8
0
100
AcDbLine
 10
347.75
 20
529.01345
 30
0.0
 11
365.75
 21
529.01345
 31
0.0
  0
LINE
  5
296
330
1E
100
AcDbEntity
  8
0
100
AcDbLine
 10
239.25
 20
529.01345
 30
0.0
 11
322.75
 21
529.01345
 31
0.0
  0
LINE
  5
297
330
1E
100
AcDbEntity
  8
0
100
AcDbLine
 10
348.75
 20
521.01345
 30
0.0
 11
348.75
 21
476.0134499999999
 31
0.0
  0
LINE
  5
298
330
1E
100
AcDbEntity
  8
0
100
AcDbLine
 10
348.2499999999999
 20
521.01345
 30
0.0
 11
348.75
 21
521.01345
 31
0.0
  0
LINE
  5
299
330
1E
100
AcDbEntity
  8
0
100
AcDbLine
 10
347.75
 20
529.51345
 30
0.0
 11
365.75
 21
529.51345
 31
0.0
  0
LINE
  5
29A
330
1E
100
AcDbEntity
  8
0
100
AcDbLine
 10
239.25
 20
529.51345
 30
0.0
 11
322.75
 21
529.51345
 31
0.0
  0
LINE
  5
29B
330
1E
100
AcDbEntity
  8
0
100
AcDbLine
 10
185.25
 20
529.51345
 30
0.0
 11
231.25
 21
529.51345
 31
0.0
  0
LINE
  5
29C
330
1E
100
AcDbEntity
  8
0
100
AcDbLine
 10
348.75
 20
510.165174137931
 30
0.0
 11
350.85
 21
507.41345
 31
0.0
  0
LINE
  5
29D
330
1E
100
AcDbEntity
  8
0
100
AcDbLine
 10
365.75
 20
529.01345
 30
0.0
 11
365.75
 21
468.01345
 31
0.0
  0
LINE
  5
29E
330
1E
100
AcDbEntity
  8
0
100
AcDbLine
 10
365.75
 20
529.01345
 30
0.0
 11
366.25
 21
529.01345
 31
0.0
  0
LINE
  5
29F
330
1E
100
AcDbEntity
  8
0
100
AcDbLine
 10
365.75
 20
529.01345
 30
0.0
 11
365.75
 21
529.51345
 31
0.0
  0
LINE
  5
2A0
330
1E
100
AcDbEntity
  8
0
100
AcDbLine
 10
365.75
 20
529.51345
 30
0.0
 11
366.25
 21
529.01345
 31
0.0
  0
LINE
  5
2A1
330
1E
100
AcDbEntity
  8
0
100
AcDbLine
 10
365.75
 20
529.51345
 30
0.0
 11
365.75
 21
529.01345
 31
0.0
  0
LINE
  5
2A2
330
1E
100
AcDbEntity
  8
0
100
AcDbLine
 10
366.25
 20
529.01345
 30
0.0
 11
366.25
 21
468.01345
 31
0.0
  0
LINE
  5
2A3
330
1E
100
AcDbEntity
  8
0
100
AcDbLine
 10
350.85
 20
507.41345
 30
0.0
 11
352.55
 21
503.11345
 31
0.0
  0
LINE
  5
2A4
330
1E
100
AcDbEntity
  8
0
100
AcDbLine
 10
352.55
 20
503.11345
 30
0.0
 11
353.25
 21
498.51345
 31
0.0
  0
LINE
  5
2A5
330
1E
100
AcDbEntity
  8
0
100
AcDbLine
 10
146.25
 20
529.01345
 30
0.0
 11
185.25
 21
529.01345
 31
0.0
  0
LINE
  5
2A6
330
1E
100
AcDbEntity
  8
0
100
AcDbLine
 10
235.25
 20
533.01345
 30
0.0
 11
238.75
 21
533.01345
 31
0.0
  0
LINE
  5
2A7
330
1E
100
AcDbEntity
  8
0
100
AcDbLine
 10
238.75
 20
533.01345
 30
0.0
 11
239.25
 21
533.51345
 31
0.0
  0
LINE
  5
2A8
330
1E
100
AcDbEntity
  8
0
100
AcDbLine
 10
238.75
 20
533.01345
 30
0.0
 11
238.75
 21
502.31345
 31
0.0
  0
LINE
  5
2A9
330
1E
100
AcDbEntity
  8
0
100
AcDbLine
 10
267.45
 20
680.18245
 30
0.0
 11
269.2499999999999
 21
672.11645
 31
0.0
  0
LINE
  5
2AA
330
1E
100
AcDbEntity
  8
0
100
AcDbLine
 10
270.1499999999999
 20
672.32845
 30
0.0
 11
273.05
 21
664.3524499999999
 31
0.0
  0
LINE
  5
2AB
330
1E
100
AcDbEntity
  8
0
100
AcDbLine
 10
268.4499999999999
 20
679.8504499999999
 30
0.0
 11
270.1499999999999
 21
672.32845
 31
0.0
  0
LINE
  5
2AC
330
1E
100
AcDbEntity
  8
0
100
AcDbLine
 10
269.2499999999999
 20
672.11645
 30
0.0
 11
272.05
 21
664.4134499999999
 31
0.0
  0
LINE
  5
2AD
330
1E
100
AcDbEntity
  8
0
100
AcDbLine
 10
271.35
 20
680.03245
 30
0.0
 11
273.05
 21
673.59745
 31
0.0
  0
LINE
  5
2AE
330
1E
100
AcDbEntity
  8
0
100
AcDbLine
 10
287.55
 20
644.50445
 30
0.0
 11
294.2499999999999
 21
639.2484500000001
 31
0.0
  0
LINE
  5
2AF
330
1E
100
AcDbEntity
  8
0
100
AcDbLine
 10
286.85
 20
644.29245
 30
0.0
 11
293.6499999999999
 21
638.94545
 31
0.0
  0
LINE
  5
2B0
330
1E
100
AcDbEntity
  8
0
100
AcDbLine
 10
285.752
 20
652.715356526316
 30
0.0
 11
285.752
 21
652.13445
 31
0.0
  0
LINE
  5
2B1
330
1E
100
AcDbEntity
  8
0
100
AcDbLine
 10
285.752
 20
653.9474499999999
 30
0.0
 11
285.752
 21
652.13445
 31
0.0
  0
LINE
  5
2B2
330
1E
100
AcDbEntity
  8
0
100
AcDbLine
 10
285.752
 20
653.9474499999999
 30
0.0
 11
287.752
 21
653.9474499999999
 31
0.0
  0
LINE
  5
2B3
330
1E
100
AcDbEntity
  8
0
100
AcDbLine
 10
285.752
 20
652.13445
 30
0.0
 11
285.752
 21
652.715356526316
 31
0.0
  0
LINE
  5
2B4
330
1E
100
AcDbEntity
  8
0
100
AcDbLine
 10
285.752
 20
652.13445
 30
0.0
 11
285.752
 21
653.9474499999999
 31
0.0
  0
LINE
  5
2B5
330
1E
100
AcDbEntity
  8
0
100
AcDbLine
 10
285.752
 20
652.13445
 30
0.0
 11
287.752
 21
652.13445
 31
0.0
  0
LINE
  5
2B6
330
1E
100
AcDbEntity
  8
0
100
AcDbLine
 10
284.1499999999999
 20
652.20845
 30
0.0
 11
289.7499999999999
 21
646.49845
 31
0.0
  0
LINE
  5
2B7
330
1E
100
AcDbEntity
  8
0
100
AcDbLine
 10
281.7499999999999
 20
650.57745
 30
0.0
 11
287.55
 21
644.50445
 31
0.0
  0
LINE
  5
2B8
330
1E
100
AcDbEntity
  8
0
100
AcDbLine
 10
280.9499999999999
 20
650.45545
 30
0.0
 11
286.85
 21
644.29245
 31
0.0
  0
LINE
  5
2B9
330
1E
100
AcDbEntity
  8
0
100
AcDbLine
 10
272.75
 20
687.1436551282051
 30
0.0
 11
272.75
 21
686.4064499999999
 31
0.0
  0
LINE
  5
2BA
330
1E
100
AcDbEntity
  8
0
100
AcDbLine
 10
272.75
 20
688.21945
 30
0.0
 11
272.75
 21
686.4064499999999
 31
0.0
  0
LINE
  5
2BB
330
1E
100
AcDbEntity
  8
0
100
AcDbLine
 10
272.75
 20
688.21945
 30
0.0
 11
274.75
 21
688.21945
 31
0.0
  0
LINE
  5
2BC
330
1E
100
AcDbEntity
  8
0
100
AcDbLine
 10
272.75
 20
686.4064499999999
 30
0.0
 11
272.75
 21
687.1436551282051
 31
0.0
  0
LINE
  5
2BD
330
1E
100
AcDbEntity
  8
0
100
AcDbLine
 10
272.75
 20
686.4064499999999
 30
0.0
 11
272.75
 21
688.21945
 31
0.0
  0
LINE
  5
2BE
330
1E
100
AcDbEntity
  8
0
100
AcDbLine
 10
272.75
 20
686.4064499999999
 30
0.0
 11
274.75
 21
686.4064499999999
 31
0.0
  0
LINE
  5
2BF
330
1E
100
AcDbEntity
  8
0
100
AcDbLine
 10
273.05
 20
673.59745
 30
0.0
 11
275.7499999999999
 21
665.44045
 31
0.0
  0
LINE
  5
2C0
330
1E
100
AcDbEntity
  8
0
100
AcDbLine
 10
274.639
 20
674.2094499999999
 30
0.0
 11
274.639
 21
676.02245
 31
0.0
  0
LINE
  5
2C1
330
1E
100
AcDbEntity
  8
0
100
AcDbLine
 10
274.639
 20
674.2094499999999
 30
0.0
 11
276.639
 21
674.2094499999999
 31
0.0
  0
LINE
  5
2C2
330
1E
100
AcDbEntity
  8
0
100
AcDbLine
 10
274.639
 20
676.02245
 30
0.0
 11
274.639
 21
674.2094499999999
 31
0.0
  0
LINE
  5
2C3
330
1E
100
AcDbEntity
  8
0
100
AcDbLine
 10
274.639
 20
676.02245
 30
0.0
 11
276.639
 21
676.02245
 31
0.0
  0
LINE
  5
2C4
330
1E
100
AcDbEntity
  8
0
100
AcDbLine
 10
274.75
 20
688.21945
 30
0.0
 11
274.75
 21
688.7457064102569
 31
0.0
  0
LINE
  5
2C5
330
1E
100
AcDbEntity
  8
0
100
AcDbLine
 10
274.75
 20
688.21945
 30
0.0
 11
274.75
 21
686.4064499999999
 31
0.0
  0
LINE
  5
2C6
330
1E
100
AcDbEntity
  8
0
100
AcDbLine
 10
274.75
 20
686.4064499999999
 30
0.0
 11
274.75
 21
688.21945
 31
0.0
  0
LINE
  5
2C7
330
1E
100
AcDbEntity
  8
0
100
AcDbLine
 10
274.75
 20
688.7457064102569
 30
0.0
 11
274.75
 21
688.21945
 31
0.0
  0
LINE
  5
2C8
330
1E
100
AcDbEntity
  8
0
100
AcDbLine
 10
276.639
 20
676.02245
 30
0.0
 11
276.639
 21
674.2094499999999
 31
0.0
  0
LINE
  5
2C9
330
1E
100
AcDbEntity
  8
0
100
AcDbLine
 10
276.639
 20
674.2094499999999
 30
0.0
 11
276.639
 21
676.02245
 31
0.0
  0
LINE
  5
2CA
330
1E
100
AcDbEntity
  8
0
100
AcDbLine
 10
279.1949999999999
 20
662.21445
 30
0.0
 11
279.1949999999999
 21
664.02745
 31
0.0
  0
LINE
  5
2CB
330
1E
100
AcDbEntity
  8
0
100
AcDbLine
 10
279.1949999999999
 20
662.21445
 30
0.0
 11
281.1949999999999
 21
662.21445
 31
0.0
  0
LINE
  5
2CC
330
1E
100
AcDbEntity
  8
0
100
AcDbLine
 10
281.1949999999999
 20
664.02745
 30
0.0
 11
281.1949999999999
 21
662.21445
 31
0.0
  0
LINE
  5
2CD
330
1E
100
AcDbEntity
  8
0
100
AcDbLine
 10
281.1949999999999
 20
662.21445
 30
0.0
 11
281.1949999999999
 21
664.02745
 31
0.0
  0
LINE
  5
2CE
330
1E
100
AcDbEntity
  8
0
100
AcDbLine
 10
279.1949999999999
 20
664.02745
 30
0.0
 11
279.1949999999999
 21
662.21445
 31
0.0
  0
LINE
  5
2CF
330
1E
100
AcDbEntity
  8
0
100
AcDbLine
 10
279.1949999999999
 20
664.02745
 30
0.0
 11
281.1949999999999
 21
664.02745
 31
0.0
  0
LINE
  5
2D0
330
1E
100
AcDbEntity
  8
0
100
AcDbLine
 10
284.75
 20
686.19545
 30
0.0
 11
284.75
 21
688.00845
 31
0.0
  0
LINE
  5
2D1
330
1E
100
AcDbEntity
  8
0
100
AcDbLine
 10
284.75
 20
686.19545
 30
0.0
 11
286.75
 21
686.19545
 31
0.0
  0
LINE
  5
2D2
330
1E
100
AcDbEntity
  8
0
100
AcDbLine
 10
286.8609999999999
 20
674.20045
 30
0.0
 11
286.8609999999999
 21
676.01345
 31
0.0
  0
LINE
  5
2D3
330
1E
100
AcDbEntity
  8
0
100
AcDbLine
 10
286.8609999999999
 20
674.20045
 30
0.0
 11
288.8609999999999
 21
674.20045
 31
0.0
  0
LINE
  5
2D4
330
1E
100
AcDbEntity
  8
0
100
AcDbLine
 10
286.8609999999999
 20
676.01345
 30
0.0
 11
286.8609999999999
 21
674.20045
 31
0.0
  0
LINE
  5
2D5
330
1E
100
AcDbEntity
  8
0
100
AcDbLine
 10
286.8609999999999
 20
676.01345
 30
0.0
 11
288.8609999999999
 21
676.01345
 31
0.0
  0
LINE
  5
2D6
330
1E
100
AcDbEntity
  8
0
100
AcDbLine
 10
286.75
 20
688.00845
 30
0.0
 11
286.75
 21
686.19545
 31
0.0
  0
LINE
  5
2D7
330
1E
100
AcDbEntity
  8
0
100
AcDbLine
 10
286.75
 20
686.19545
 30
0.0
 11
286.75
 21
688.00845
 31
0.0
  0
LINE
  5
2D8
330
1E
100
AcDbEntity
  8
0
100
AcDbLine
 10
284.75
 20
688.00845
 30
0.0
 11
284.75
 21
686.19545
 31
0.0
  0
LINE
  5
2D9
330
1E
100
AcDbEntity
  8
0
100
AcDbLine
 10
284.75
 20
688.00845
 30
0.0
 11
286.75
 21
688.00845
 31
0.0
  0
LINE
  5
2DA
330
1E
100
AcDbEntity
  8
0
100
AcDbLine
 10
279.35
 20
658.64345
 30
0.0
 11
284.1499999999999
 21
652.20845
 31
0.0
  0
LINE
  5
2DB
330
1E
100
AcDbEntity
  8
0
100
AcDbLine
 10
275.7499999999999
 20
665.44045
 30
0.0
 11
279.35
 21
658.64345
 31
0.0
  0
LINE
  5
2DC
330
1E
100
AcDbEntity
  8
0
100
AcDbLine
 10
276.75
 20
657.2834499999999
 30
0.0
 11
281.7499999999999
 21
650.57745
 31
0.0
  0
LINE
  5
2DD
330
1E
100
AcDbEntity
  8
0
100
AcDbLine
 10
273.05
 20
664.3524499999999
 30
0.0
 11
276.75
 21
657.2834499999999
 31
0.0
  0
LINE
  5
2DE
330
1E
100
AcDbEntity
  8
0
100
AcDbLine
 10
275.95
 20
657.25345
 30
0.0
 11
280.9499999999999
 21
650.45545
 31
0.0
  0
LINE
  5
2DF
330
1E
100
AcDbEntity
  8
0
100
AcDbLine
 10
272.05
 20
664.4134499999999
 30
0.0
 11
275.95
 21
657.25345
 31
0.0
  0
LINE
  5
2E0
330
1E
100
AcDbEntity
  8
0
100
AcDbLine
 10
271.35
 20
695.4394499999999
 30
0.0
 11
273.05
 21
701.87445
 31
0.0
  0
LINE
  5
2E1
330
1E
100
AcDbEntity
  8
0
100
AcDbLine
 10
270.75
 20
687.73545
 30
0.0
 11
271.35
 21
695.4394499999999
 31
0.0
  0
LINE
  5
2E2
330
1E
100
AcDbEntity
  8
0
100
AcDbLine
 10
270.75
 20
687.73545
 30
0.0
 11
271.35
 21
680.03245
 31
0.0
  0
LINE
  5
2E3
330
1E
100
AcDbEntity
  8
0
100
AcDbLine
 10
268.4499999999999
 20
695.62045
 30
0.0
 11
270.1499999999999
 21
703.14245
 31
0.0
  0
LINE
  5
2E4
330
1E
100
AcDbEntity
  8
0
100
AcDbLine
 10
267.75
 20
687.73545
 30
0.0
 11
268.4499999999999
 21
695.62045
 31
0.0
  0
LINE
  5
2E5
330
1E
100
AcDbEntity
  8
0
100
AcDbLine
 10
267.75
 20
687.73545
 30
0.0
 11
268.4499999999999
 21
679.8504499999999
 31
0.0
  0
LINE
  5
2E6
330
1E
100
AcDbEntity
  8
0
100
AcDbLine
 10
267.45
 20
696.13345
 30
0.0
 11
269.2499999999999
 21
704.1994499999999
 31
0.0
  0
LINE
  5
2E7
330
1E
100
AcDbEntity
  8
0
100
AcDbLine
 10
266.7499999999999
 20
688.15845
 30
0.0
 11
267.45
 21
696.13345
 31
0.0
  0
LINE
  5
2E8
330
1E
100
AcDbEntity
  8
0
100
AcDbLine
 10
266.7499999999999
 20
688.15845
 30
0.0
 11
267.45
 21
680.18245
 31
0.0
  0
LINE
  5
2E9
330
1E
100
AcDbEntity
  8
0
100
AcDbLine
 10
266.7499999999999
 20
688.15845
 30
0.0
 11
266.7499999999999
 21
697.0334499999999
 31
0.0
  0
LINE
  5
2EA
330
1E
100
AcDbEntity
  8
0
100
AcDbLine
 10
274.639
 20
700.41645
 30
0.0
 11
274.639
 21
698.6034499999999
 31
0.0
  0
LINE
  5
2EB
330
1E
100
AcDbEntity
  8
0
100
AcDbLine
 10
274.639
 20
700.41645
 30
0.0
 11
276.639
 21
700.41645
 31
0.0
  0
LINE
  5
2EC
330
1E
100
AcDbEntity
  8
0
100
AcDbLine
 10
286.8609999999999
 20
700.00345
 30
0.0
 11
286.8609999999999
 21
698.19045
 31
0.0
  0
LINE
  5
2ED
330
1E
100
AcDbEntity
  8
0
100
AcDbLine
 10
286.8609999999999
 20
700.00345
 30
0.0
 11
288.8609999999999
 21
700.00345
 31
0.0
  0
LINE
  5
2EE
330
1E
100
AcDbEntity
  8
0
100
AcDbLine
 10
286.8609999999999
 20
698.19045
 30
0.0
 11
286.8609999999999
 21
700.00345
 31
0.0
  0
LINE
  5
2EF
330
1E
100
AcDbEntity
  8
0
100
AcDbLine
 10
286.8609999999999
 20
698.19045
 30
0.0
 11
288.8609999999999
 21
698.19045
 31
0.0
  0
LINE
  5
2F0
330
1E
100
AcDbEntity
  8
0
100
AcDbLine
 10
276.639
 20
698.6034499999999
 30
0.0
 11
276.639
 21
700.41645
 31
0.0
  0
LINE
  5
2F1
330
1E
100
AcDbEntity
  8
0
100
AcDbLine
 10
276.639
 20
701.0982061748629
 30
0.0
 11
276.639
 21
700.41645
 31
0.0
  0
LINE
  5
2F2
330
1E
100
AcDbEntity
  8
0
100
AcDbLine
 10
276.639
 20
700.41645
 30
0.0
 11
276.639
 21
698.6034499999999
 31
0.0
  0
LINE
  5
2F3
330
1E
100
AcDbEntity
  8
0
100
AcDbLine
 10
276.639
 20
700.41645
 30
0.0
 11
276.639
 21
701.0982061748629
 31
0.0
  0
LINE
  5
2F4
330
1E
100
AcDbEntity
  8
0
100
AcDbLine
 10
274.639
 20
698.6034499999999
 30
0.0
 11
274.639
 21
700.41645
 31
0.0
  0
LINE
  5
2F5
330
1E
100
AcDbEntity
  8
0
100
AcDbLine
 10
274.639
 20
698.6034499999999
 30
0.0
 11
276.639
 21
698.6034499999999
 31
0.0
  0
LINE
  5
2F6
330
1E
100
AcDbEntity
  8
0
100
AcDbLine
 10
281.1949999999999
 20
710.5984499999999
 30
0.0
 11
281.1949999999999
 21
712.4114499999999
 31
0.0
  0
LINE
  5
2F7
330
1E
100
AcDbEntity
  8
0
100
AcDbLine
 10
279.1949999999999
 20
710.5984499999999
 30
0.0
 11
279.1949999999999
 21
712.4114499999999
 31
0.0
  0
LINE
  5
2F8
330
1E
100
AcDbEntity
  8
0
100
AcDbLine
 10
279.1949999999999
 20
710.5984499999999
 30
0.0
 11
281.1949999999999
 21
710.5984499999999
 31
0.0
  0
LINE
  5
2F9
330
1E
100
AcDbEntity
  8
0
100
AcDbLine
 10
275.7499999999999
 20
710.03045
 30
0.0
 11
279.35
 21
716.8284499999999
 31
0.0
  0
LINE
  5
2FA
330
1E
100
AcDbEntity
  8
0
100
AcDbLine
 10
273.05
 20
701.87445
 30
0.0
 11
275.7499999999999
 21
710.03045
 31
0.0
  0
LINE
  5
2FB
330
1E
100
AcDbEntity
  8
0
100
AcDbLine
 10
273.05
 20
711.11845
 30
0.0
 11
276.75
 21
718.18745
 31
0.0
  0
LINE
  5
2FC
330
1E
100
AcDbEntity
  8
0
100
AcDbLine
 10
270.1499999999999
 20
703.14245
 30
0.0
 11
273.05
 21
711.11845
 31
0.0
  0
LINE
  5
2FD
330
1E
100
AcDbEntity
  8
0
100
AcDbLine
 10
279.1949999999999
 20
712.4114499999999
 30
0.0
 11
279.1949999999999
 21
710.5984499999999
 31
0.0
  0
LINE
  5
2FE
330
1E
100
AcDbEntity
  8
0
100
AcDbLine
 10
279.1949999999999
 20
712.4114499999999
 30
0.0
 11
281.1949999999999
 21
712.4114499999999
 31
0.0
  0
LINE
  5
2FF
330
1E
100
AcDbEntity
  8
0
100
AcDbLine
 10
281.1949999999999
 20
712.4114499999999
 30
0.0
 11
281.1949999999999
 21
710.5984499999999
 31
0.0
  0
LINE
  5
300
330
1E
100
AcDbEntity
  8
0
100
AcDbLine
 10
272.05
 20
711.90345
 30
0.0
 11
275.95
 21
719.0634499999999
 31
0.0
  0
LINE
  5
301
330
1E
100
AcDbEntity
  8
0
100
AcDbLine
 10
269.2499999999999
 20
704.1994499999999
 30
0.0
 11
272.05
 21
711.90345
 31
0.0
  0
LINE
  5
302
330
1E
100
AcDbEntity
  8
0
100
AcDbLine
 10
285.752
 20
722.6842966315789
 30
0.0
 11
285.752
 21
722.4914499999999
 31
0.0
  0
LINE
  5
303
330
1E
100
AcDbEntity
  8
0
100
AcDbLine
 10
285.752
 20
722.4914499999999
 30
0.0
 11
285.752
 21
722.6842966315789
 31
0.0
  0
LINE
  5
304
330
1E
100
AcDbEntity
  8
0
100
AcDbLine
 10
285.752
 20
722.4914499999999
 30
0.0
 11
285.752
 21
720.67845
 31
0.0
  0
LINE
  5
305
330
1E
100
AcDbEntity
  8
0
100
AcDbLine
 10
285.752
 20
722.4914499999999
 30
0.0
 11
287.752
 21
722.4914499999999
 31
0.0
  0
LINE
  5
306
330
1E
100
AcDbEntity
  8
0
100
AcDbLine
 10
285.752
 20
720.67845
 30
0.0
 11
285.752
 21
722.4914499999999
 31
0.0
  0
LINE
  5
307
330
1E
100
AcDbEntity
  8
0
100
AcDbLine
 10
285.752
 20
720.67845
 30
0.0
 11
287.752
 21
720.67845
 31
0.0
  0
LINE
  5
308
330
1E
100
AcDbEntity
  8
0
100
AcDbLine
 10
284.1499999999999
 20
723.26245
 30
0.0
 11
289.7499999999999
 21
728.97245
 31
0.0
  0
LINE
  5
309
330
1E
100
AcDbEntity
  8
0
100
AcDbLine
 10
279.35
 20
716.8284499999999
 30
0.0
 11
284.1499999999999
 21
723.26245
 31
0.0
  0
LINE
  5
30A
330
1E
100
AcDbEntity
  8
0
100
AcDbLine
 10
281.7499999999999
 20
724.89445
 30
0.0
 11
287.55
 21
730.96645
 31
0.0
  0
LINE
  5
30B
330
1E
100
AcDbEntity
  8
0
100
AcDbLine
 10
276.75
 20
718.18745
 30
0.0
 11
281.7499999999999
 21
724.89445
 31
0.0
  0
LINE
  5
30C
330
1E
100
AcDbEntity
  8
0
100
AcDbLine
 10
280.9499999999999
 20
725.86045
 30
0.0
 11
286.85
 21
732.02345
 31
0.0
  0
LINE
  5
30D
330
1E
100
AcDbEntity
  8
0
100
AcDbLine
 10
275.95
 20
719.0634499999999
 30
0.0
 11
280.9499999999999
 21
725.86045
 31
0.0
  0
LINE
  5
30E
330
1E
100
AcDbEntity
  8
0
100
AcDbLine
 10
275.95
 20
727.9384499999999
 30
0.0
 11
280.9499999999999
 21
734.73545
 31
0.0
  0
LINE
  5
30F
330
1E
100
AcDbEntity
  8
0
100
AcDbLine
 10
272.05
 20
720.77845
 30
0.0
 11
275.95
 21
727.9384499999999
 31
0.0
  0
LINE
  5
310
330
1E
100
AcDbEntity
  8
0
100
AcDbLine
 10
269.2499999999999
 20
713.0744499999999
 30
0.0
 11
272.05
 21
720.77845
 31
0.0
  0
LINE
  5
311
330
1E
100
AcDbEntity
  8
0
100
AcDbLine
 10
267.45
 20
705.00845
 30
0.0
 11
269.2499999999999
 21
713.0744499999999
 31
0.0
  0
LINE
  5
312
330
1E
100
AcDbEntity
  8
0
100
AcDbLine
 10
266.7499999999999
 20
697.0334499999999
 30
0.0
 11
267.45
 21
705.00845
 31
0.0
  0
LINE
  5
313
330
1E
100
AcDbEntity
  8
0
100
AcDbLine
 10
266.7499999999999
 20
697.0334499999999
 30
0.0
 11
266.7499999999999
 21
688.15845
 31
0.0
  0
LINE
  5
314
330
1E
100
AcDbEntity
  8
0
100
AcDbLine
 10
287.752
 20
653.9474499999999
 30
0.0
 11
287.752
 21
654.5938804635759
 31
0.0
  0
LINE
  5
315
330
1E
100
AcDbEntity
  8
0
100
AcDbLine
 10
287.752
 20
653.9474499999999
 30
0.0
 11
287.752
 21
652.13445
 31
0.0
  0
LINE
  5
316
330
1E
100
AcDbEntity
  8
0
100
AcDbLine
 10
287.752
 20
652.13445
 30
0.0
 11
287.752
 21
653.9474499999999
 31
0.0
  0
LINE
  5
317
330
1E
100
AcDbEntity
  8
0
100
AcDbLine
 10
288.8609999999999
 20
676.01345
 30
0.0
 11
288.8609999999999
 21
676.2861839890709
 31
0.0
  0
LINE
  5
318
330
1E
100
AcDbEntity
  8
0
100
AcDbLine
 10
288.8609999999999
 20
676.01345
 30
0.0
 11
288.8609999999999
 21
674.20045
 31
0.0
  0
LINE
  5
319
330
1E
100
AcDbEntity
  8
0
100
AcDbLine
 10
288.8609999999999
 20
674.20045
 30
0.0
 11
288.8609999999999
 21
676.01345
 31
0.0
  0
LINE
  5
31A
330
1E
100
AcDbEntity
  8
0
100
AcDbLine
 10
288.8609999999999
 20
676.2861839890709
 30
0.0
 11
288.8609999999999
 21
676.01345
 31
0.0
  0
LINE
  5
31B
330
1E
100
AcDbEntity
  8
0
100
AcDbLine
 10
287.752
 20
654.5938804635759
 30
0.0
 11
287.752
 21
653.9474499999999
 31
0.0
  0
LINE
  5
31C
330
1E
100
AcDbEntity
  8
0
100
AcDbLine
 10
287.752
 20
720.67845
 30
0.0
 11
287.752
 21
722.4914499999999
 31
0.0
  0
LINE
  5
31D
330
1E
100
AcDbEntity
  8
0
100
AcDbLine
 10
287.752
 20
722.4914499999999
 30
0.0
 11
287.752
 21
720.67845
 31
0.0
  0
LINE
  5
31E
330
1E
100
AcDbEntity
  8
0
100
AcDbLine
 10
288.8609999999999
 20
698.19045
 30
0.0
 11
288.8609999999999
 21
700.00345
 31
0.0
  0
LINE
  5
31F
330
1E
100
AcDbEntity
  8
0
100
AcDbLine
 10
292.9739999999999
 20
662.2044499999999
 30
0.0
 11
292.9739999999999
 21
664.01745
 31
0.0
  0
LINE
  5
320
330
1E
100
AcDbEntity
  8
0
100
AcDbLine
 10
292.9739999999999
 20
662.2044499999999
 30
0.0
 11
294.9739999999999
 21
662.2044499999999
 31
0.0
  0
LINE
  5
321
330
1E
100
AcDbEntity
  8
0
100
AcDbLine
 10
292.9739999999999
 20
664.01745
 30
0.0
 11
292.9739999999999
 21
662.2044499999999
 31
0.0
  0
LINE
  5
322
330
1E
100
AcDbEntity
  8
0
100
AcDbLine
 10
292.9739999999999
 20
664.01745
 30
0.0
 11
294.9739999999999
 21
664.01745
 31
0.0
  0
LINE
  5
323
330
1E
100
AcDbEntity
  8
0
100
AcDbLine
 10
292.9739999999999
 20
711.9984500000001
 30
0.0
 11
292.9739999999999
 21
710.18645
 31
0.0
  0
LINE
  5
324
330
1E
100
AcDbEntity
  8
0
100
AcDbLine
 10
292.9739999999999
 20
711.9984500000001
 30
0.0
 11
294.9739999999999
 21
711.9984500000001
 31
0.0
  0
LINE
  5
325
330
1E
100
AcDbEntity
  8
0
100
AcDbLine
 10
292.9739999999999
 20
710.18645
 30
0.0
 11
292.9739999999999
 21
711.9984500000001
 31
0.0
  0
LINE
  5
326
330
1E
100
AcDbEntity
  8
0
100
AcDbLine
 10
292.9739999999999
 20
710.18645
 30
0.0
 11
294.9739999999999
 21
710.18645
 31
0.0
  0
LINE
  5
327
330
1E
100
AcDbEntity
  8
0
100
AcDbLine
 10
288.8609999999999
 20
700.00345
 30
0.0
 11
288.8609999999999
 21
698.19045
 31
0.0
  0
LINE
  5
328
330
1E
100
AcDbEntity
  8
0
100
AcDbLine
 10
289.7499999999999
 20
646.49845
 30
0.0
 11
296.05
 21
641.42345
 31
0.0
  0
LINE
  5
329
330
1E
100
AcDbEntity
  8
0
100
AcDbLine
 10
293.6499999999999
 20
638.94545
 30
0.0
 11
301.1499999999999
 21
634.4144499999999
 31
0.0
  0
LINE
  5
32A
330
1E
100
AcDbEntity
  8
0
100
AcDbLine
 10
289.7499999999999
 20
728.97245
 30
0.0
 11
296.05
 21
734.04745
 31
0.0
  0
LINE
  5
32B
330
1E
100
AcDbEntity
  8
0
100
AcDbLine
 10
287.55
 20
730.96645
 30
0.0
 11
294.2499999999999
 21
736.2234499999999
 31
0.0
  0
LINE
  5
32C
330
1E
100
AcDbEntity
  8
0
100
AcDbLine
 10
280.9499999999999
 20
734.73545
 30
0.0
 11
286.85
 21
740.89845
 31
0.0
  0
LINE
  5
32D
330
1E
100
AcDbEntity
  8
0
100
AcDbLine
 10
286.85
 20
732.02345
 30
0.0
 11
293.6499999999999
 21
737.37045
 31
0.0
  0
LINE
  5
32E
330
1E
100
AcDbEntity
  8
0
100
AcDbLine
 10
293.6499999999999
 20
737.37045
 30
0.0
 11
301.1499999999999
 21
741.90245
 31
0.0
  0
LINE
  5
32F
330
1E
100
AcDbEntity
  8
0
100
AcDbLine
 10
286.85
 20
740.89845
 30
0.0
 11
293.6499999999999
 21
746.2454499999999
 31
0.0
  0
LINE
  5
330
330
1E
100
AcDbEntity
  8
0
100
AcDbLine
 10
294.531
 20
643.76745
 30
0.0
 11
294.531
 21
645.58045
 31
0.0
  0
LINE
  5
331
330
1E
100
AcDbEntity
  8
0
100
AcDbLine
 10
294.531
 20
643.76745
 30
0.0
 11
296.531
 21
643.76745
 31
0.0
  0
LINE
  5
332
330
1E
100
AcDbEntity
  8
0
100
AcDbLine
 10
294.9739999999999
 20
664.01745
 30
0.0
 11
294.9739999999999
 21
662.2044499999999
 31
0.0
  0
LINE
  5
333
330
1E
100
AcDbEntity
  8
0
100
AcDbLine
 10
294.9739999999999
 20
662.2044499999999
 30
0.0
 11
294.9739999999999
 21
664.01745
 31
0.0
  0
LINE
  5
334
330
1E
100
AcDbEntity
  8
0
100
AcDbLine
 10
294.531
 20
645.58045
 30
0.0
 11
294.531
 21
643.76745
 31
0.0
  0
LINE
  5
335
330
1E
100
AcDbEntity
  8
0
100
AcDbLine
 10
294.531
 20
645.58045
 30
0.0
 11
296.531
 21
645.58045
 31
0.0
  0
LINE
  5
336
330
1E
100
AcDbEntity
  8
0
100
AcDbLine
 10
294.9739999999999
 20
710.18645
 30
0.0
 11
294.9739999999999
 21
711.9984500000001
 31
0.0
  0
LINE
  5
337
330
1E
100
AcDbEntity
  8
0
100
AcDbLine
 10
294.531
 20
730.8584499999999
 30
0.0
 11
294.531
 21
729.04545
 31
0.0
  0
LINE
  5
338
330
1E
100
AcDbEntity
  8
0
100
AcDbLine
 10
294.531
 20
730.8584499999999
 30
0.0
 11
296.531
 21
730.8584499999999
 31
0.0
  0
LINE
  5
339
330
1E
100
AcDbEntity
  8
0
100
AcDbLine
 10
294.531
 20
729.04545
 30
0.0
 11
294.531
 21
730.8584499999999
 31
0.0
  0
LINE
  5
33A
330
1E
100
AcDbEntity
  8
0
100
AcDbLine
 10
294.531
 20
729.04545
 30
0.0
 11
296.531
 21
729.04545
 31
0.0
  0
LINE
  5
33B
330
1E
100
AcDbEntity
  8
0
100
AcDbLine
 10
294.9739999999999
 20
711.9984500000001
 30
0.0
 11
294.9739999999999
 21
710.18645
 31
0.0
  0
LINE
  5
33C
330
1E
100
AcDbEntity
  8
0
100
AcDbLine
 10
296.05
 20
641.42345
 30
0.0
 11
303.1499999999999
 21
637.07345
 31
0.0
  0
LINE
  5
33D
330
1E
100
AcDbEntity
  8
0
100
AcDbLine
 10
294.2499999999999
 20
639.2484500000001
 30
0.0
 11
301.6499999999999
 21
634.7164499999999
 31
0.0
  0
LINE
  5
33E
330
1E
100
AcDbEntity
  8
0
100
AcDbLine
 10
296.531
 20
645.58045
 30
0.0
 11
296.531
 21
643.76745
 31
0.0
  0
LINE
  5
33F
330
1E
100
AcDbEntity
  8
0
100
AcDbLine
 10
296.531
 20
643.76745
 30
0.0
 11
296.531
 21
645.58045
 31
0.0
  0
LINE
  5
340
330
1E
100
AcDbEntity
  8
0
100
AcDbLine
 10
296.531
 20
729.04545
 30
0.0
 11
296.531
 21
730.8584499999999
 31
0.0
  0
LINE
  5
341
330
1E
100
AcDbEntity
  8
0
100
AcDbLine
 10
296.531
 20
730.8584499999999
 30
0.0
 11
296.531
 21
729.04545
 31
0.0
  0
LINE
  5
342
330
1E
100
AcDbEntity
  8
0
100
AcDbLine
 10
296.75
 20
685.98445
 30
0.0
 11
296.75
 21
687.79645
 31
0.0
  0
LINE
  5
343
330
1E
100
AcDbEntity
  8
0
100
AcDbLine
 10
296.75
 20
685.98445
 30
0.0
 11
298.75
 21
685.98445
 31
0.0
  0
LINE
  5
344
330
1E
100
AcDbEntity
  8
0
100
AcDbLine
 10
298.75
 20
687.79645
 30
0.0
 11
298.75
 21
685.98445
 31
0.0
  0
LINE
  5
345
330
1E
100
AcDbEntity
  8
0
100
AcDbLine
 10
300.308
 20
653.93945
 30
0.0
 11
300.308
 21
655.7514499999999
 31
0.0
  0
LINE
  5
346
330
1E
100
AcDbEntity
  8
0
100
AcDbLine
 10
300.308
 20
653.93945
 30
0.0
 11
302.308
 21
653.93945
 31
0.0
  0
LINE
  5
347
330
1E
100
AcDbEntity
  8
0
100
AcDbLine
 10
299.75
 20
674.8964499999999
 30
0.0
 11
299.75
 21
676.70845
 31
0.0
  0
LINE
  5
348
330
1E
100
AcDbEntity
  8
0
100
AcDbLine
 10
299.75
 20
674.8964499999999
 30
0.0
 11
301.75
 21
674.8964499999999
 31
0.0
  0
LINE
  5
349
330
1E
100
AcDbEntity
  8
0
100
AcDbLine
 10
299.75
 20
676.70845
 30
0.0
 11
299.75
 21
674.8964499999999
 31
0.0
  0
LINE
  5
34A
330
1E
100
AcDbEntity
  8
0
100
AcDbLine
 10
299.75
 20
676.70845
 30
0.0
 11
301.75
 21
676.70845
 31
0.0
  0
LINE
  5
34B
330
1E
100
AcDbEntity
  8
0
100
AcDbLine
 10
300.308
 20
655.7514499999999
 30
0.0
 11
300.308
 21
653.93945
 31
0.0
  0
LINE
  5
34C
330
1E
100
AcDbEntity
  8
0
100
AcDbLine
 10
300.308
 20
655.7514499999999
 30
0.0
 11
302.308
 21
655.7514499999999
 31
0.0
  0
LINE
  5
34D
330
1E
100
AcDbEntity
  8
0
100
AcDbLine
 10
298.75
 20
685.98445
 30
0.0
 11
298.75
 21
687.79645
 31
0.0
  0
LINE
  5
34E
330
1E
100
AcDbEntity
  8
0
100
AcDbLine
 10
299.75
 20
698.8844499999999
 30
0.0
 11
299.75
 21
697.07145
 31
0.0
  0
LINE
  5
34F
330
1E
100
AcDbEntity
  8
0
100
AcDbLine
 10
299.75
 20
698.8844499999999
 30
0.0
 11
301.75
 21
698.8844499999999
 31
0.0
  0
LINE
  5
350
330
1E
100
AcDbEntity
  8
0
100
AcDbLine
 10
300.308
 20
720.2644499999999
 30
0.0
 11
300.308
 21
718.45145
 31
0.0
  0
LINE
  5
351
330
1E
100
AcDbEntity
  8
0
100
AcDbLine
 10
300.308
 20
720.2644499999999
 30
0.0
 11
302.308
 21
720.2644499999999
 31
0.0
  0
LINE
  5
352
330
1E
100
AcDbEntity
  8
0
100
AcDbLine
 10
300.308
 20
719.0707794029849
 30
0.0
 11
300.308
 21
718.45145
 31
0.0
  0
LINE
  5
353
330
1E
100
AcDbEntity
  8
0
100
AcDbLine
 10
300.308
 20
718.45145
 30
0.0
 11
300.308
 21
720.2644499999999
 31
0.0
  0
LINE
  5
354
330
1E
100
AcDbEntity
  8
0
100
AcDbLine
 10
300.308
 20
718.45145
 30
0.0
 11
300.308
 21
719.0707794029849
 31
0.0
  0
LINE
  5
355
330
1E
100
AcDbEntity
  8
0
100
AcDbLine
 10
300.308
 20
718.45145
 30
0.0
 11
302.308
 21
718.45145
 31
0.0
  0
LINE
  5
356
330
1E
100
AcDbEntity
  8
0
100
AcDbLine
 10
299.75
 20
697.07145
 30
0.0
 11
299.75
 21
698.8844499999999
 31
0.0
  0
LINE
  5
357
330
1E
100
AcDbEntity
  8
0
100
AcDbLine
 10
299.75
 20
697.07145
 30
0.0
 11
301.75
 21
697.07145
 31
0.0
  0
LINE
  5
358
330
1E
100
AcDbEntity
  8
0
100
AcDbLine
 10
296.75
 20
687.79645
 30
0.0
 11
296.75
 21
685.98445
 31
0.0
  0
LINE
  5
359
330
1E
100
AcDbEntity
  8
0
100
AcDbLine
 10
296.75
 20
687.79645
 30
0.0
 11
298.75
 21
687.79645
 31
0.0
  0
LINE
  5
35A
330
1E
100
AcDbEntity
  8
0
100
AcDbLine
 10
301.1499999999999
 20
634.4144499999999
 30
0.0
 11
309.05
 21
630.87945
 31
0.0
  0
LINE
  5
35B
330
1E
100
AcDbEntity
  8
0
100
AcDbLine
 10
296.05
 20
734.04745
 30
0.0
 11
303.1499999999999
 21
738.39845
 31
0.0
  0
LINE
  5
35C
330
1E
100
AcDbEntity
  8
0
100
AcDbLine
 10
294.2499999999999
 20
736.2234499999999
 30
0.0
 11
301.6499999999999
 21
740.75445
 31
0.0
  0
LINE
  5
35D
330
1E
100
AcDbEntity
  8
0
100
AcDbLine
 10
301.75
 20
676.70845
 30
0.0
 11
301.75
 21
674.8964499999999
 31
0.0
  0
LINE
  5
35E
330
1E
100
AcDbEntity
  8
0
100
AcDbLine
 10
301.75
 20
674.8964499999999
 30
0.0
 11
301.75
 21
676.70845
 31
0.0
  0
LINE
  5
35F
330
1E
100
AcDbEntity
  8
0
100
AcDbLine
 10
302.308
 20
655.7514499999999
 30
0.0
 11
302.308
 21
653.93945
 31
0.0
  0
LINE
  5
360
330
1E
100
AcDbEntity
  8
0
100
AcDbLine
 10
302.308
 20
653.93945
 30
0.0
 11
302.308
 21
655.7514499999999
 31
0.0
  0
LINE
  5
361
330
1E
100
AcDbEntity
  8
0
100
AcDbLine
 10
301.75
 20
697.07145
 30
0.0
 11
301.75
 21
698.8844499999999
 31
0.0
  0
LINE
  5
362
330
1E
100
AcDbEntity
  8
0
100
AcDbLine
 10
302.308
 20
718.45145
 30
0.0
 11
302.308
 21
720.2644499999999
 31
0.0
  0
LINE
  5
363
330
1E
100
AcDbEntity
  8
0
100
AcDbLine
 10
302.308
 20
720.2644499999999
 30
0.0
 11
302.308
 21
718.45145
 31
0.0
  0
LINE
  5
364
330
1E
100
AcDbEntity
  8
0
100
AcDbLine
 10
301.75
 20
698.8844499999999
 30
0.0
 11
301.75
 21
697.07145
 31
0.0
  0
LINE
  5
365
330
1E
100
AcDbEntity
  8
0
100
AcDbLine
 10
303.134
 20
735.9154499999999
 30
0.0
 11
304.8659999999999
 21
736.82145
 31
0.0
  0
LINE
  5
366
330
1E
100
AcDbEntity
  8
0
100
AcDbLine
 10
303.134
 20
735.9154499999999
 30
0.0
 11
304.134
 21
734.3454499999999
 31
0.0
  0
LINE
  5
367
330
1E
100
AcDbEntity
  8
0
100
AcDbLine
 10
303.134
 20
638.71045
 30
0.0
 11
304.8659999999999
 21
637.8044499999999
 31
0.0
  0
LINE
  5
368
330
1E
100
AcDbEntity
  8
0
100
AcDbLine
 10
303.134
 20
638.71045
 30
0.0
 11
304.134
 21
640.28045
 31
0.0
  0
LINE
  5
369
330
1E
100
AcDbEntity
  8
0
100
AcDbLine
 10
303.1499999999999
 20
637.07345
 30
0.0
 11
310.65
 21
633.81045
 31
0.0
  0
LINE
  5
36A
330
1E
100
AcDbEntity
  8
0
100
AcDbLine
 10
301.6499999999999
 20
634.7164499999999
 30
0.0
 11
309.45
 21
631.3634499999999
 31
0.0
  0
LINE
  5
36B
330
1E
100
AcDbEntity
  8
0
100
AcDbLine
 10
304.134
 20
734.3454499999999
 30
0.0
 11
305.8659999999999
 21
735.2524499999999
 31
0.0
  0
LINE
  5
36C
330
1E
100
AcDbEntity
  8
0
100
AcDbLine
 10
306.9739999999999
 20
663.7074499999999
 30
0.0
 11
306.9739999999999
 21
665.51945
 31
0.0
  0
LINE
  5
36D
330
1E
100
AcDbEntity
  8
0
100
AcDbLine
 10
306.9739999999999
 20
663.7074499999999
 30
0.0
 11
308.9739999999999
 21
663.7074499999999
 31
0.0
  0
LINE
  5
36E
330
1E
100
AcDbEntity
  8
0
100
AcDbLine
 10
306.9739999999999
 20
665.51945
 30
0.0
 11
306.9739999999999
 21
663.7074499999999
 31
0.0
  0
LINE
  5
36F
330
1E
100
AcDbEntity
  8
0
100
AcDbLine
 10
306.9739999999999
 20
665.51945
 30
0.0
 11
308.9739999999999
 21
665.51945
 31
0.0
  0
LINE
  5
370
330
1E
100
AcDbEntity
  8
0
100
AcDbLine
 10
304.8659999999999
 20
736.8785642857139
 30
0.0
 11
304.8659999999999
 21
736.82145
 31
0.0
  0
LINE
  5
371
330
1E
100
AcDbEntity
  8
0
100
AcDbLine
 10
306.9739999999999
 20
710.0734499999999
 30
0.0
 11
306.9739999999999
 21
708.26145
 31
0.0
  0
LINE
  5
372
330
1E
100
AcDbEntity
  8
0
100
AcDbLine
 10
306.9739999999999
 20
710.0734499999999
 30
0.0
 11
308.9739999999999
 21
710.0734499999999
 31
0.0
  0
LINE
  5
373
330
1E
100
AcDbEntity
  8
0
100
AcDbLine
 10
306.9739999999999
 20
708.26145
 30
0.0
 11
306.9739999999999
 21
710.0734499999999
 31
0.0
  0
LINE
  5
374
330
1E
100
AcDbEntity
  8
0
100
AcDbLine
 10
306.9739999999999
 20
708.26145
 30
0.0
 11
308.9739999999999
 21
708.26145
 31
0.0
  0
LINE
  5
375
330
1E
100
AcDbEntity
  8
0
100
AcDbLine
 10
304.8659999999999
 20
736.82145
 30
0.0
 11
304.8659999999999
 21
736.8785642857139
 31
0.0
  0
LINE
  5
376
330
1E
100
AcDbEntity
  8
0
100
AcDbLine
 10
304.8659999999999
 20
736.82145
 30
0.0
 11
305.8659999999999
 21
735.2524499999999
 31
0.0
  0
LINE
  5
377
330
1E
100
AcDbEntity
  8
0
100
AcDbLine
 10
308.7499999999999
 20
685.77245
 30
0.0
 11
308.7499999999999
 21
687.58545
 31
0.0
  0
LINE
  5
378
330
1E
100
AcDbEntity
  8
0
100
AcDbLine
 10
308.7499999999999
 20
685.77245
 30
0.0
 11
310.7499999999999
 21
685.77245
 31
0.0
  0
LINE
  5
379
330
1E
100
AcDbEntity
  8
0
100
AcDbLine
 10
308.9739999999999
 20
665.51945
 30
0.0
 11
308.9739999999999
 21
663.7074499999999
 31
0.0
  0
LINE
  5
37A
330
1E
100
AcDbEntity
  8
0
100
AcDbLine
 10
308.9739999999999
 20
663.7074499999999
 30
0.0
 11
308.9739999999999
 21
665.51945
 31
0.0
  0
LINE
  5
37B
330
1E
100
AcDbEntity
  8
0
100
AcDbLine
 10
308.9739999999999
 20
708.26145
 30
0.0
 11
308.9739999999999
 21
710.0734499999999
 31
0.0
  0
LINE
  5
37C
330
1E
100
AcDbEntity
  8
0
100
AcDbLine
 10
308.9739999999999
 20
710.0734499999999
 30
0.0
 11
308.9739999999999
 21
708.26145
 31
0.0
  0
LINE
  5
37D
330
1E
100
AcDbEntity
  8
0
100
AcDbLine
 10
308.7499999999999
 20
687.58545
 30
0.0
 11
308.7499999999999
 21
685.77245
 31
0.0
  0
LINE
  5
37E
330
1E
100
AcDbEntity
  8
0
100
AcDbLine
 10
308.7499999999999
 20
687.58545
 30
0.0
 11
310.7499999999999
 21
687.58545
 31
0.0
  0
LINE
  5
37F
330
1E
100
AcDbEntity
  8
0
100
AcDbLine
 10
304.8659999999999
 20
637.8044499999999
 30
0.0
 11
305.8659999999999
 21
639.37345
 31
0.0
  0
LINE
  5
380
330
1E
100
AcDbEntity
  8
0
100
AcDbLine
 10
304.134
 20
640.28045
 30
0.0
 11
305.8659999999999
 21
639.37345
 31
0.0
  0
LINE
  5
381
330
1E
100
AcDbEntity
  8
0
100
AcDbLine
 10
309.05
 20
630.87945
 30
0.0
 11
317.5499999999999
 21
628.34145
 31
0.0
  0
LINE
  5
382
330
1E
100
AcDbEntity
  8
0
100
AcDbLine
 10
303.1499999999999
 20
738.39845
 30
0.0
 11
310.65
 21
741.66045
 31
0.0
  0
LINE
  5
383
330
1E
100
AcDbEntity
  8
0
100
AcDbLine
 10
301.6499999999999
 20
740.75445
 30
0.0
 11
309.45
 21
744.1084499999999
 31
0.0
  0
LINE
  5
384
330
1E
100
AcDbEntity
  8
0
100
AcDbLine
 10
301.1499999999999
 20
741.90245
 30
0.0
 11
309.05
 21
745.43645
 31
0.0
  0
LINE
  5
385
330
1E
100
AcDbEntity
  8
0
100
AcDbLine
 10
309.05
 20
745.43645
 30
0.0
 11
317.5499999999999
 21
747.97445
 31
0.0
  0
LINE
  5
386
330
1E
100
AcDbEntity
  8
0
100
AcDbLine
 10
293.6499999999999
 20
746.2454499999999
 30
0.0
 11
301.1499999999999
 21
750.77745
 31
0.0
  0
LINE
  5
387
330
1E
100
AcDbEntity
  8
0
100
AcDbLine
 10
301.1499999999999
 20
750.77745
 30
0.0
 11
309.05
 21
754.31145
 31
0.0
  0
LINE
  5
388
330
1E
100
AcDbEntity
  8
0
100
AcDbLine
 10
310.134
 20
724.71545
 30
0.0
 11
311.8659999999999
 21
725.6214499999999
 31
0.0
  0
LINE
  5
389
330
1E
100
AcDbEntity
  8
0
100
AcDbLine
 10
309.134
 20
726.2854499999999
 30
0.0
 11
310.8659999999999
 21
727.19145
 31
0.0
  0
LINE
  5
38A
330
1E
100
AcDbEntity
  8
0
100
AcDbLine
 10
309.134
 20
726.2854499999999
 30
0.0
 11
310.134
 21
724.71545
 31
0.0
  0
LINE
  5
38B
330
1E
100
AcDbEntity
  8
0
100
AcDbLine
 10
310.134
 20
649.4884499999999
 30
0.0
 11
311.8659999999999
 21
648.58145
 31
0.0
  0
LINE
  5
38C
330
1E
100
AcDbEntity
  8
0
100
AcDbLine
 10
309.134
 20
647.91845
 30
0.0
 11
310.8659999999999
 21
647.0124499999999
 31
0.0
  0
LINE
  5
38D
330
1E
100
AcDbEntity
  8
0
100
AcDbLine
 10
309.134
 20
647.91845
 30
0.0
 11
310.134
 21
649.4884499999999
 31
0.0
  0
LINE
  5
38E
330
1E
100
AcDbEntity
  8
0
100
AcDbLine
 10
310.65
 20
633.81045
 30
0.0
 11
319.6499999999999
 21
631.3634499999999
 31
0.0
  0
LINE
  5
38F
330
1E
100
AcDbEntity
  8
0
100
AcDbLine
 10
309.45
 20
631.3634499999999
 30
0.0
 11
318.25
 21
628.73545
 31
0.0
  0
LINE
  5
390
330
1E
100
AcDbEntity
  8
0
100
AcDbLine
 10
310.8659999999999
 20
727.19145
 30
0.0
 11
311.8659999999999
 21
725.6214499999999
 31
0.0
  0
LINE
  5
391
330
1E
100
AcDbEntity
  8
0
100
AcDbLine
 10
310.7499999999999
 20
687.58545
 30
0.0
 11
310.7499999999999
 21
685.77245
 31
0.0
  0
LINE
  5
392
330
1E
100
AcDbEntity
  8
0
100
AcDbLine
 10
310.7499999999999
 20
685.77245
 30
0.0
 11
310.7499999999999
 21
687.58545
 31
0.0
  0
LINE
  5
393
330
1E
100
AcDbEntity
  8
0
100
AcDbLine
 10
316.733
 20
635.6654499999999
 30
0.0
 11
318.4649999999999
 21
634.75845
 31
0.0
  0
LINE
  5
394
330
1E
100
AcDbEntity
  8
0
100
AcDbLine
 10
315.7329999999999
 20
634.09545
 30
0.0
 11
317.4649999999999
 21
633.1894499999999
 31
0.0
  0
LINE
  5
395
330
1E
100
AcDbEntity
  8
0
100
AcDbLine
 10
315.7329999999999
 20
634.09545
 30
0.0
 11
316.733
 21
635.6654499999999
 31
0.0
  0
LINE
  5
396
330
1E
100
AcDbEntity
  8
0
100
AcDbLine
 10
317.4649999999999
 20
633.1894499999999
 30
0.0
 11
318.4649999999999
 21
634.75845
 31
0.0
  0
LINE
  5
397
330
1E
100
AcDbEntity
  8
0
100
AcDbLine
 10
316.866
 20
656.21945
 30
0.0
 11
317.8659999999999
 21
657.78845
 31
0.0
  0
LINE
  5
398
330
1E
100
AcDbEntity
  8
0
100
AcDbLine
 10
313.084
 20
673.97945
 30
0.0
 11
313.084
 21
675.79145
 31
0.0
  0
LINE
  5
399
330
1E
100
AcDbEntity
  8
0
100
AcDbLine
 10
313.084
 20
673.97945
 30
0.0
 11
315.084
 21
673.97945
 31
0.0
  0
LINE
  5
39A
330
1E
100
AcDbEntity
  8
0
100
AcDbLine
 10
315.084
 20
675.79145
 30
0.0
 11
315.084
 21
673.97945
 31
0.0
  0
LINE
  5
39B
330
1E
100
AcDbEntity
  8
0
100
AcDbLine
 10
315.084
 20
673.97945
 30
0.0
 11
315.084
 21
675.79145
 31
0.0
  0
LINE
  5
39C
330
1E
100
AcDbEntity
  8
0
100
AcDbLine
 10
313.084
 20
675.79145
 30
0.0
 11
313.084
 21
673.97945
 31
0.0
  0
LINE
  5
39D
330
1E
100
AcDbEntity
  8
0
100
AcDbLine
 10
313.084
 20
675.79145
 30
0.0
 11
315.084
 21
675.79145
 31
0.0
  0
LINE
  5
39E
330
1E
100
AcDbEntity
  8
0
100
AcDbLine
 10
315.084
 20
697.56645
 30
0.0
 11
315.084
 21
699.3794499999999
 31
0.0
  0
LINE
  5
39F
330
1E
100
AcDbEntity
  8
0
100
AcDbLine
 10
313.084
 20
699.3794499999999
 30
0.0
 11
313.084
 21
697.56645
 31
0.0
  0
LINE
  5
3A0
330
1E
100
AcDbEntity
  8
0
100
AcDbLine
 10
313.084
 20
699.3794499999999
 30
0.0
 11
315.084
 21
699.3794499999999
 31
0.0
  0
LINE
  5
3A1
330
1E
100
AcDbEntity
  8
0
100
AcDbLine
 10
315.084
 20
699.3794499999999
 30
0.0
 11
315.084
 21
697.56645
 31
0.0
  0
LINE
  5
3A2
330
1E
100
AcDbEntity
  8
0
100
AcDbLine
 10
313.084
 20
697.56645
 30
0.0
 11
313.084
 21
699.3794499999999
 31
0.0
  0
LINE
  5
3A3
330
1E
100
AcDbEntity
  8
0
100
AcDbLine
 10
313.084
 20
697.56645
 30
0.0
 11
315.084
 21
697.56645
 31
0.0
  0
LINE
  5
3A4
330
1E
100
AcDbEntity
  8
0
100
AcDbLine
 10
316.134
 20
715.08545
 30
0.0
 11
317.8659999999999
 21
715.99145
 31
0.0
  0
LINE
  5
3A5
330
1E
100
AcDbEntity
  8
0
100
AcDbLine
 10
315.7329999999999
 20
740.5304499999999
 30
0.0
 11
317.4649999999999
 21
741.43645
 31
0.0
  0
LINE
  5
3A6
330
1E
100
AcDbEntity
  8
0
100
AcDbLine
 10
315.7329999999999
 20
740.5304499999999
 30
0.0
 11
316.733
 21
738.96045
 31
0.0
  0
LINE
  5
3A7
330
1E
100
AcDbEntity
  8
0
100
AcDbLine
 10
315.134
 20
716.65545
 30
0.0
 11
316.866
 21
717.56145
 31
0.0
  0
LINE
  5
3A8
330
1E
100
AcDbEntity
  8
0
100
AcDbLine
 10
315.134
 20
716.65545
 30
0.0
 11
316.134
 21
715.08545
 31
0.0
  0
LINE
  5
3A9
330
1E
100
AcDbEntity
  8
0
100
AcDbLine
 10
317.4649999999999
 20
741.43645
 30
0.0
 11
318.4649999999999
 21
739.8674499999999
 31
0.0
  0
LINE
  5
3AA
330
1E
100
AcDbEntity
  8
0
100
AcDbLine
 10
316.733
 20
738.96045
 30
0.0
 11
318.4649999999999
 21
739.8674499999999
 31
0.0
  0
LINE
  5
3AB
330
1E
100
AcDbEntity
  8
0
100
AcDbLine
 10
316.866
 20
717.56145
 30
0.0
 11
317.8659999999999
 21
715.99145
 31
0.0
  0
LINE
  5
3AC
330
1E
100
AcDbEntity
  8
0
100
AcDbLine
 10
316.134
 20
658.69545
 30
0.0
 11
317.8659999999999
 21
657.78845
 31
0.0
  0
LINE
  5
3AD
330
1E
100
AcDbEntity
  8
0
100
AcDbLine
 10
315.134
 20
657.12545
 30
0.0
 11
316.866
 21
656.21945
 31
0.0
  0
LINE
  5
3AE
330
1E
100
AcDbEntity
  8
0
100
AcDbLine
 10
315.134
 20
657.12545
 30
0.0
 11
316.134
 21
658.69545
 31
0.0
  0
LINE
  5
3AF
330
1E
100
AcDbEntity
  8
0
100
AcDbLine
 10
310.8659999999999
 20
647.0124499999999
 30
0.0
 11
311.8659999999999
 21
648.58145
 31
0.0
  0
LINE
  5
3B0
330
1E
100
AcDbEntity
  8
0
100
AcDbLine
 10
317.5499999999999
 20
628.34145
 30
0.0
 11
326.4499999999999
 21
626.71045
 31
0.0
  0
LINE
  5
3B1
330
1E
100
AcDbEntity
  8
0
100
AcDbLine
 10
310.65
 20
741.66045
 30
0.0
 11
319.6499999999999
 21
744.1084499999999
 31
0.0
  0
LINE
  5
3B2
330
1E
100
AcDbEntity
  8
0
100
AcDbLine
 10
309.45
 20
744.1084499999999
 30
0.0
 11
318.25
 21
746.73645
 31
0.0
  0
LINE
  5
3B3
330
1E
100
AcDbEntity
  8
0
100
AcDbLine
 10
319.6499999999999
 20
631.3634499999999
 30
0.0
 11
326.75
 21
629.8224499999999
 31
0.0
  0
LINE
  5
3B4
330
1E
100
AcDbEntity
  8
0
100
AcDbLine
 10
318.25
 20
628.73545
 30
0.0
 11
326.55
 21
627.19445
 31
0.0
  0
LINE
  5
3B5
330
1E
100
AcDbEntity
  8
0
100
AcDbLine
 10
323.15
 20
604.70045
 30
0.0
 11
324.4499999999999
 21
603.3054499999999
 31
0.0
  0
LINE
  5
3B6
330
1E
100
AcDbEntity
  8
0
100
AcDbLine
 10
322.75
 20
606.1794499999999
 30
0.0
 11
323.15
 21
607.70145
 31
0.0
  0
LINE
  5
3B7
330
1E
100
AcDbEntity
  8
0
100
AcDbLine
 10
322.75
 20
606.1794499999999
 30
0.0
 11
323.15
 21
604.70045
 31
0.0
  0
LINE
  5
3B8
330
1E
100
AcDbEntity
  8
0
100
AcDbLine
 10
322.75
 20
606.1794499999999
 30
0.0
 11
322.75
 21
522.1164499999999
 31
0.0
  0
LINE
  5
3B9
330
1E
100
AcDbEntity
  8
0
100
AcDbLine
 10
324.4499999999999
 20
603.3054499999999
 30
0.0
 11
326.4499999999999
 21
602.08045
 31
0.0
  0
LINE
  5
3BA
330
1E
100
AcDbEntity
  8
0
100
AcDbLine
 10
323.15
 20
607.70145
 30
0.0
 11
324.4499999999999
 21
609.09545
 31
0.0
  0
LINE
  5
3BB
330
1E
100
AcDbEntity
  8
0
100
AcDbLine
 10
324.4499999999999
 20
609.09545
 30
0.0
 11
326.25
 21
610.19885
 31
0.0
  0
LINE
  5
3BC
330
1E
100
AcDbEntity
  8
0
100
AcDbLine
 10
326.4499999999999
 20
602.08045
 30
0.0
 11
329.05
 21
601.15045
 31
0.0
  0
LINE
  5
3BD
330
1E
100
AcDbEntity
  8
0
100
AcDbLine
 10
326.25
 20
606.1794499999999
 30
0.0
 11
326.55
 21
605.12345
 31
0.0
  0
LINE
  5
3BE
330
1E
100
AcDbEntity
  8
0
100
AcDbLine
 10
326.25
 20
606.1794499999999
 30
0.0
 11
326.25
 21
626.747101685393
 31
0.0
  0
LINE
  5
3BF
330
1E
100
AcDbEntity
  8
0
100
AcDbLine
 10
322.6519999999999
 20
645.14745
 30
0.0
 11
324.384
 21
644.2414499999999
 31
0.0
  0
LINE
  5
3C0
330
1E
100
AcDbEntity
  8
0
100
AcDbLine
 10
321.652
 20
643.5784499999999
 30
0.0
 11
323.384
 21
642.67145
 31
0.0
  0
LINE
  5
3C1
330
1E
100
AcDbEntity
  8
0
100
AcDbLine
 10
321.652
 20
643.5784499999999
 30
0.0
 11
322.6519999999999
 21
645.14745
 31
0.0
  0
LINE
  5
3C2
330
1E
100
AcDbEntity
  8
0
100
AcDbLine
 10
323.384
 20
642.67145
 30
0.0
 11
324.384
 21
644.2414499999999
 31
0.0
  0
LINE
  5
3C3
330
1E
100
AcDbEntity
  8
0
100
AcDbLine
 10
322.866
 20
665.42645
 30
0.0
 11
323.8659999999999
 21
666.99545
 31
0.0
  0
LINE
  5
3C4
330
1E
100
AcDbEntity
  8
0
100
AcDbLine
 10
320.75
 20
686.4064499999999
 30
0.0
 11
320.75
 21
685.56145
 31
0.0
  0
LINE
  5
3C5
330
1E
100
AcDbEntity
  8
0
100
AcDbLine
 10
320.75
 20
688.21945
 30
0.0
 11
320.75
 21
687.37445
 31
0.0
  0
LINE
  5
3C6
330
1E
100
AcDbEntity
  8
0
100
AcDbLine
 10
322.134
 20
705.45645
 30
0.0
 11
323.8659999999999
 21
706.3624499999999
 31
0.0
  0
LINE
  5
3C7
330
1E
100
AcDbEntity
  8
0
100
AcDbLine
 10
321.652
 20
730.62545
 30
0.0
 11
323.384
 21
731.5314499999999
 31
0.0
  0
LINE
  5
3C8
330
1E
100
AcDbEntity
  8
0
100
AcDbLine
 10
321.652
 20
730.62545
 30
0.0
 11
322.6519999999999
 21
729.0554499999999
 31
0.0
  0
LINE
  5
3C9
330
1E
100
AcDbEntity
  8
0
100
AcDbLine
 10
321.134
 20
707.0254499999999
 30
0.0
 11
322.866
 21
707.93245
 31
0.0
  0
LINE
  5
3CA
330
1E
100
AcDbEntity
  8
0
100
AcDbLine
 10
321.134
 20
707.0254499999999
 30
0.0
 11
322.134
 21
705.45645
 31
0.0
  0
LINE
  5
3CB
330
1E
100
AcDbEntity
  8
0
100
AcDbLine
 10
320.75
 20
687.37445
 30
0.0
 11
320.75
 21
685.56145
 31
0.0
  0
LINE
  5
3CC
330
1E
100
AcDbEntity
  8
0
100
AcDbLine
 10
320.75
 20
687.37445
 30
0.0
 11
320.75
 21
688.21945
 31
0.0
  0
LINE
  5
3CD
330
1E
100
AcDbEntity
  8
0
100
AcDbLine
 10
320.75
 20
687.37445
 30
0.0
 11
322.75
 21
687.37445
 31
0.0
  0
LINE
  5
3CE
330
1E
100
AcDbEntity
  8
0
100
AcDbLine
 10
320.75
 20
685.56145
 30
0.0
 11
320.75
 21
686.4064499999999
 31
0.0
  0
LINE
  5
3CF
330
1E
100
AcDbEntity
  8
0
100
AcDbLine
 10
320.75
 20
685.56145
 30
0.0
 11
320.75
 21
687.37445
 31
0.0
  0
LINE
  5
3D0
330
1E
100
AcDbEntity
  8
0
100
AcDbLine
 10
320.75
 20
685.56145
 30
0.0
 11
322.75
 21
685.56145
 31
0.0
  0
LINE
  5
3D1
330
1E
100
AcDbEntity
  8
0
100
AcDbLine
 10
322.75
 20
687.37445
 30
0.0
 11
322.75
 21
688.21945
 31
0.0
  0
LINE
  5
3D2
330
1E
100
AcDbEntity
  8
0
100
AcDbLine
 10
322.75
 20
687.37445
 30
0.0
 11
322.75
 21
685.56145
 31
0.0
  0
LINE
  5
3D3
330
1E
100
AcDbEntity
  8
0
100
AcDbLine
 10
322.75
 20
685.56145
 30
0.0
 11
322.75
 21
687.37445
 31
0.0
  0
LINE
  5
3D4
330
1E
100
AcDbEntity
  8
0
100
AcDbLine
 10
322.6519999999999
 20
729.0554499999999
 30
0.0
 11
324.384
 21
729.96145
 31
0.0
  0
LINE
  5
3D5
330
1E
100
AcDbEntity
  8
0
100
AcDbLine
 10
323.384
 20
731.5314499999999
 30
0.0
 11
324.384
 21
729.96145
 31
0.0
  0
LINE
  5
3D6
330
1E
100
AcDbEntity
  8
0
100
AcDbLine
 10
322.866
 20
707.93245
 30
0.0
 11
323.8659999999999
 21
706.3624499999999
 31
0.0
  0
LINE
  5
3D7
330
1E
100
AcDbEntity
  8
0
100
AcDbLine
 10
322.75
 20
688.21945
 30
0.0
 11
322.75
 21
687.37445
 31
0.0
  0
LINE
  5
3D8
330
1E
100
AcDbEntity
  8
0
100
AcDbLine
 10
322.134
 20
667.90245
 30
0.0
 11
323.8659999999999
 21
666.99545
 31
0.0
  0
LINE
  5
3D9
330
1E
100
AcDbEntity
  8
0
100
AcDbLine
 10
321.134
 20
666.3324499999999
 30
0.0
 11
322.866
 21
665.42645
 31
0.0
  0
LINE
  5
3DA
330
1E
100
AcDbEntity
  8
0
100
AcDbLine
 10
321.134
 20
666.3324499999999
 30
0.0
 11
322.134
 21
667.90245
 31
0.0
  0
LINE
  5
3DB
330
1E
100
AcDbEntity
  8
0
100
AcDbLine
 10
326.25
 20
626.747101685393
 30
0.0
 11
326.25
 21
606.1794499999999
 31
0.0
  0
LINE
  5
3DC
330
1E
100
AcDbEntity
  8
0
100
AcDbLine
 10
326.4499999999999
 20
626.71045
 30
0.0
 11
335.25
 21
626.07645
 31
0.0
  0
LINE
  5
3DD
330
1E
100
AcDbEntity
  8
0
100
AcDbLine
 10
319.6499999999999
 20
744.1084499999999
 30
0.0
 11
326.75
 21
745.64845
 31
0.0
  0
LINE
  5
3DE
330
1E
100
AcDbEntity
  8
0
100
AcDbLine
 10
318.25
 20
746.73645
 30
0.0
 11
326.55
 21
748.27745
 31
0.0
  0
LINE
  5
3DF
330
1E
100
AcDbEntity
  8
0
100
AcDbLine
 10
317.5499999999999
 20
747.97445
 30
0.0
 11
326.4499999999999
 21
749.60545
 31
0.0
  0
LINE
  5
3E0
330
1E
100
AcDbEntity
  8
0
100
AcDbLine
 10
326.4499999999999
 20
749.60545
 30
0.0
 11
335.25
 21
750.2404499999999
 31
0.0
  0
LINE
  5
3E1
330
1E
100
AcDbEntity
  8
0
100
AcDbLine
 10
309.05
 20
754.31145
 30
0.0
 11
317.5499999999999
 21
756.84945
 31
0.0
  0
LINE
  5
3E2
330
1E
100
AcDbEntity
  8
0
100
AcDbLine
 10
317.5499999999999
 20
756.84945
 30
0.0
 11
326.4499999999999
 21
758.48045
 31
0.0
  0
LINE
  5
3E3
330
1E
100
AcDbEntity
  8
0
100
AcDbLine
 10
326.55
 20
605.12345
 30
0.0
 11
327.4499999999999
 21
604.1084499999999
 31
0.0
  0
LINE
  5
3E4
330
1E
100
AcDbEntity
  8
0
100
AcDbLine
 10
326.75
 20
629.8224499999999
 30
0.0
 11
335.25
 21
629.27845
 31
0.0
  0
LINE
  5
3E5
330
1E
100
AcDbEntity
  8
0
100
AcDbLine
 10
326.55
 20
627.19445
 30
0.0
 11
335.25
 21
626.5594499999999
 31
0.0
  0
LINE
  5
3E6
330
1E
100
AcDbEntity
  8
0
100
AcDbLine
 10
329.05
 20
601.15045
 30
0.0
 11
332.05
 21
600.55845
 31
0.0
  0
LINE
  5
3E7
330
1E
100
AcDbEntity
  8
0
100
AcDbLine
 10
335.25
 20
600.34745
 30
0.0
 11
338.45
 21
600.55845
 31
0.0
  0
LINE
  5
3E8
330
1E
100
AcDbEntity
  8
0
100
AcDbLine
 10
338.45
 20
600.55845
 30
0.0
 11
341.4499999999999
 21
601.15045
 31
0.0
  0
LINE
  5
3E9
330
1E
100
AcDbEntity
  8
0
100
AcDbLine
 10
341.4499999999999
 20
601.15045
 30
0.0
 11
344.05
 21
602.08045
 31
0.0
  0
LINE
  5
3EA
330
1E
100
AcDbEntity
  8
0
100
AcDbLine
 10
344.05
 20
602.08045
 30
0.0
 11
346.05
 21
603.3054499999999
 31
0.0
  0
LINE
  5
3EB
330
1E
100
AcDbEntity
  8
0
100
AcDbLine
 10
335.25
 20
601.9954499999999
 30
0.0
 11
337.55
 21
602.1644499999999
 31
0.0
  0
LINE
  5
3EC
330
1E
100
AcDbEntity
  8
0
100
AcDbLine
 10
337.55
 20
602.1644499999999
 30
0.0
 11
339.7499999999999
 21
602.5454499999999
 31
0.0
  0
LINE
  5
3ED
330
1E
100
AcDbEntity
  8
0
100
AcDbLine
 10
332.05
 20
600.55845
 30
0.0
 11
335.25
 21
600.34745
 31
0.0
  0
LINE
  5
3EE
330
1E
100
AcDbEntity
  8
0
100
AcDbLine
 10
339.7499999999999
 20
602.5454499999999
 30
0.0
 11
341.6499999999999
 21
603.22145
 31
0.0
  0
LINE
  5
3EF
330
1E
100
AcDbEntity
  8
0
100
AcDbLine
 10
341.6499999999999
 20
603.22145
 30
0.0
 11
343.05
 21
604.1084499999999
 31
0.0
  0
LINE
  5
3F0
330
1E
100
AcDbEntity
  8
0
100
AcDbLine
 10
332.9499999999999
 20
602.1644499999999
 30
0.0
 11
335.25
 21
601.9954499999999
 31
0.0
  0
LINE
  5
3F1
330
1E
100
AcDbEntity
  8
0
100
AcDbLine
 10
330.75
 20
602.5454499999999
 30
0.0
 11
332.9499999999999
 21
602.1644499999999
 31
0.0
  0
LINE
  5
3F2
330
1E
100
AcDbEntity
  8
0
100
AcDbLine
 10
343.05
 20
604.1084499999999
 30
0.0
 11
343.9499999999999
 21
605.12345
 31
0.0
  0
LINE
  5
3F3
330
1E
100
AcDbEntity
  8
0
100
AcDbLine
 10
344.2499999999999
 20
610.19885
 30
0.0
 11
346.05
 21
609.09545
 31
0.0
  0
LINE
  5
3F4
330
1E
100
AcDbEntity
  8
0
100
AcDbLine
 10
343.9499999999999
 20
605.12345
 30
0.0
 11
344.2499999999999
 21
606.1794499999999
 31
0.0
  0
LINE
  5
3F5
330
1E
100
AcDbEntity
  8
0
100
AcDbLine
 10
346.05
 20
603.3054499999999
 30
0.0
 11
347.35
 21
604.70045
 31
0.0
  0
LINE
  5
3F6
330
1E
100
AcDbEntity
  8
0
100
AcDbLine
 10
347.35
 20
604.70045
 30
0.0
 11
347.75
 21
606.1794499999999
 31
0.0
  0
LINE
  5
3F7
330
1E
100
AcDbEntity
  8
0
100
AcDbLine
 10
347.75
 20
606.1794499999999
 30
0.0
 11
347.75
 21
522.1164499999999
 31
0.0
  0
LINE
  5
3F8
330
1E
100
AcDbEntity
  8
0
100
AcDbLine
 10
347.35
 20
607.70145
 30
0.0
 11
347.75
 21
606.1794499999999
 31
0.0
  0
LINE
  5
3F9
330
1E
100
AcDbEntity
  8
0
100
AcDbLine
 10
346.05
 20
609.09545
 30
0.0
 11
347.35
 21
607.70145
 31
0.0
  0
LINE
  5
3FA
330
1E
100
AcDbEntity
  8
0
100
AcDbLine
 10
344.2499999999999
 20
606.1794499999999
 30
0.0
 11
344.2499999999999
 21
626.747101685393
 31
0.0
  0
LINE
  5
3FB
330
1E
100
AcDbEntity
  8
0
100
AcDbLine
 10
328.85
 20
603.22145
 30
0.0
 11
330.75
 21
602.5454499999999
 31
0.0
  0
LINE
  5
3FC
330
1E
100
AcDbEntity
  8
0
100
AcDbLine
 10
327.4499999999999
 20
604.1084499999999
 30
0.0
 11
328.85
 21
603.22145
 31
0.0
  0
LINE
  5
3FD
330
1E
100
AcDbEntity
  8
0
100
AcDbLine
 10
327.134
 20
676.3854499999999
 30
0.0
 11
327.134
 21
675.54045
 31
0.0
  0
LINE
  5
3FE
330
1E
100
AcDbEntity
  8
0
100
AcDbLine
 10
327.229
 20
653.93645
 30
0.0
 11
328.961
 21
653.02945
 31
0.0
  0
LINE
  5
3FF
330
1E
100
AcDbEntity
  8
0
100
AcDbLine
 10
327.229
 20
653.93645
 30
0.0
 11
328.229
 21
655.5054499999999
 31
0.0
  0
LINE
  5
400
330
1E
100
AcDbEntity
  8
0
100
AcDbLine
 10
328.229
 20
655.5054499999999
 30
0.0
 11
329.961
 21
654.59945
 31
0.0
  0
LINE
  5
401
330
1E
100
AcDbEntity
  8
0
100
AcDbLine
 10
328.961
 20
653.02945
 30
0.0
 11
329.961
 21
654.59945
 31
0.0
  0
LINE
  5
402
330
1E
100
AcDbEntity
  8
0
100
AcDbLine
 10
329.474
 20
631.6734499999999
 30
0.0
 11
331.2059999999999
 21
630.76745
 31
0.0
  0
LINE
  5
403
330
1E
100
AcDbEntity
  8
0
100
AcDbLine
 10
329.474
 20
631.6734499999999
 30
0.0
 11
330.4739999999999
 21
633.24345
 31
0.0
  0
LINE
  5
404
330
1E
100
AcDbEntity
  8
0
100
AcDbLine
 10
329.8659999999999
 20
676.2034499999999
 30
0.0
 11
329.8659999999999
 21
677.0494499999999
 31
0.0
  0
LINE
  5
405
330
1E
100
AcDbEntity
  8
0
100
AcDbLine
 10
328.866
 20
674.63445
 30
0.0
 11
329.8659999999999
 21
676.2034499999999
 31
0.0
  0
LINE
  5
406
330
1E
100
AcDbEntity
  8
0
100
AcDbLine
 10
329.8659999999999
 20
677.0494499999999
 30
0.0
 11
329.8659999999999
 21
676.2034499999999
 31
0.0
  0
LINE
  5
407
330
1E
100
AcDbEntity
  8
0
100
AcDbLine
 10
328.134
 20
677.1104499999999
 30
0.0
 11
328.134
 21
677.95545
 31
0.0
  0
LINE
  5
408
330
1E
100
AcDbEntity
  8
0
100
AcDbLine
 10
328.134
 20
677.1104499999999
 30
0.0
 11
329.8659999999999
 21
676.2034499999999
 31
0.0
  0
LINE
  5
409
330
1E
100
AcDbEntity
  8
0
100
AcDbLine
 10
328.134
 20
677.95545
 30
0.0
 11
328.134
 21
677.1104499999999
 31
0.0
  0
LINE
  5
40A
330
1E
100
AcDbEntity
  8
0
100
AcDbLine
 10
327.134
 20
675.54045
 30
0.0
 11
328.866
 21
674.63445
 31
0.0
  0
LINE
  5
40B
330
1E
100
AcDbEntity
  8
0
100
AcDbLine
 10
327.134
 20
675.54045
 30
0.0
 11
327.134
 21
676.3854499999999
 31
0.0
  0
LINE
  5
40C
330
1E
100
AcDbEntity
  8
0
100
AcDbLine
 10
327.134
 20
675.54045
 30
0.0
 11
328.134
 21
677.1104499999999
 31
0.0
  0
LINE
  5
40D
330
1E
100
AcDbEntity
  8
0
100
AcDbLine
 10
330.25
 20
686.89045
 30
0.0
 11
330.43
 21
688.0504499999999
 31
0.0
  0
LINE
  5
40E
330
1E
100
AcDbEntity
  8
0
100
AcDbLine
 10
330.25
 20
686.89045
 30
0.0
 11
330.25
 21
686.4674499999999
 31
0.0
  0
LINE
  5
40F
330
1E
100
AcDbEntity
  8
0
100
AcDbLine
 10
330.25
 20
686.89045
 30
0.0
 11
330.2828189655169
 21
686.67895
 31
0.0
  0
LINE
  5
410
330
1E
100
AcDbEntity
  8
0
100
AcDbLine
 10
330.4739999999999
 20
633.24345
 30
0.0
 11
332.2059999999999
 21
632.3374499999999
 31
0.0
  0
LINE
  5
411
330
1E
100
AcDbEntity
  8
0
100
AcDbLine
 10
330.43
 20
685.3074499999999
 30
0.0
 11
330.91
 21
684.22045
 31
0.0
  0
LINE
  5
412
330
1E
100
AcDbEntity
  8
0
100
AcDbLine
 10
330.91
 20
684.22045
 30
0.0
 11
331.7099999999999
 21
683.2594499999999
 31
0.0
  0
LINE
  5
413
330
1E
100
AcDbEntity
  8
0
100
AcDbLine
 10
330.25
 20
686.4674499999999
 30
0.0
 11
330.43
 21
687.62745
 31
0.0
  0
LINE
  5
414
330
1E
100
AcDbEntity
  8
0
100
AcDbLine
 10
330.25
 20
686.4674499999999
 30
0.0
 11
330.25
 21
686.89045
 31
0.0
  0
LINE
  5
415
330
1E
100
AcDbEntity
  8
0
100
AcDbLine
 10
330.25
 20
686.4674499999999
 30
0.0
 11
330.43
 21
685.3074499999999
 31
0.0
  0
LINE
  5
416
330
1E
100
AcDbEntity
  8
0
100
AcDbLine
 10
330.43
 20
688.0504499999999
 30
0.0
 11
330.91
 21
689.13845
 31
0.0
  0
LINE
  5
417
330
1E
100
AcDbEntity
  8
0
100
AcDbLine
 10
330.91
 20
689.13845
 30
0.0
 11
331.7099999999999
 21
690.0984499999999
 31
0.0
  0
LINE
  5
418
330
1E
100
AcDbEntity
  8
0
100
AcDbLine
 10
330.43
 20
687.62745
 30
0.0
 11
330.91
 21
688.71545
 31
0.0
  0
LINE
  5
419
330
1E
100
AcDbEntity
  8
0
100
AcDbLine
 10
331.2059999999999
 20
630.76745
 30
0.0
 11
332.2059999999999
 21
632.3374499999999
 31
0.0
  0
LINE
  5
41A
330
1E
100
AcDbEntity
  8
0
100
AcDbLine
 10
331.7099999999999
 20
683.2594499999999
 30
0.0
 11
332.77
 21
682.5344499999999
 31
0.0
  0
LINE
  5
41B
330
1E
100
AcDbEntity
  8
0
100
AcDbLine
 10
332.77
 20
682.5344499999999
 30
0.0
 11
333.97
 21
682.09945
 31
0.0
  0
LINE
  5
41C
330
1E
100
AcDbEntity
  8
0
100
AcDbLine
 10
330.91
 20
688.71545
 30
0.0
 11
331.7099999999999
 21
689.67645
 31
0.0
  0
LINE
  5
41D
330
1E
100
AcDbEntity
  8
0
100
AcDbLine
 10
331.7099999999999
 20
690.0984499999999
 30
0.0
 11
332.77
 21
690.8234499999999
 31
0.0
  0
LINE
  5
41E
330
1E
100
AcDbEntity
  8
0
100
AcDbLine
 10
332.77
 20
690.8234499999999
 30
0.0
 11
333.97
 21
691.25845
 31
0.0
  0
LINE
  5
41F
330
1E
100
AcDbEntity
  8
0
100
AcDbLine
 10
331.7099999999999
 20
689.67645
 30
0.0
 11
332.77
 21
690.4014499999999
 31
0.0
  0
LINE
  5
420
330
1E
100
AcDbEntity
  8
0
100
AcDbLine
 10
334.5699999999999
 20
663.83745
 30
0.0
 11
336.3019999999999
 21
662.93145
 31
0.0
  0
LINE
  5
421
330
1E
100
AcDbEntity
  8
0
100
AcDbLine
 10
334.5699999999999
 20
663.83745
 30
0.0
 11
335.57
 21
665.40745
 31
0.0
  0
LINE
  5
422
330
1E
100
AcDbEntity
  8
0
100
AcDbLine
 10
335.57
 20
665.40745
 30
0.0
 11
337.3019999999999
 21
664.5004499999999
 31
0.0
  0
LINE
  5
423
330
1E
100
AcDbEntity
  8
0
100
AcDbLine
 10
337.902
 20
641.47045
 30
0.0
 11
338.9019999999999
 21
643.0404499999999
 31
0.0
  0
LINE
  5
424
330
1E
100
AcDbEntity
  8
0
100
AcDbLine
 10
340.634
 20
677.0494499999999
 30
0.0
 11
340.634
 21
676.2034499999999
 31
0.0
  0
LINE
  5
425
330
1E
100
AcDbEntity
  8
0
100
AcDbLine
 10
340.634
 20
676.2034499999999
 30
0.0
 11
342.3659999999999
 21
677.1104499999999
 31
0.0
  0
LINE
  5
426
330
1E
100
AcDbEntity
  8
0
100
AcDbLine
 10
340.634
 20
676.2034499999999
 30
0.0
 11
341.634
 21
674.63445
 31
0.0
  0
LINE
  5
427
330
1E
100
AcDbEntity
  8
0
100
AcDbLine
 10
340.634
 20
676.2034499999999
 30
0.0
 11
340.634
 21
677.0494499999999
 31
0.0
  0
LINE
  5
428
330
1E
100
AcDbEntity
  8
0
100
AcDbLine
 10
336.3019999999999
 20
662.93145
 30
0.0
 11
337.3019999999999
 21
664.5004499999999
 31
0.0
  0
LINE
  5
429
330
1E
100
AcDbEntity
  8
0
100
AcDbLine
 10
342.3659999999999
 20
677.95545
 30
0.0
 11
342.3659999999999
 21
677.1104499999999
 31
0.0
  0
LINE
  5
42A
330
1E
100
AcDbEntity
  8
0
100
AcDbLine
 10
342.3659999999999
 20
677.1104499999999
 30
0.0
 11
343.3659999999999
 21
675.54045
 31
0.0
  0
LINE
  5
42B
330
1E
100
AcDbEntity
  8
0
100
AcDbLine
 10
342.3659999999999
 20
677.1104499999999
 30
0.0
 11
342.3659999999999
 21
677.95545
 31
0.0
  0
LINE
  5
42C
330
1E
100
AcDbEntity
  8
0
100
AcDbLine
 10
341.634
 20
674.63445
 30
0.0
 11
343.3659999999999
 21
675.54045
 31
0.0
  0
LINE
  5
42D
330
1E
100
AcDbEntity
  8
0
100
AcDbLine
 10
341.533
 20
654.0114499999999
 30
0.0
 11
343.2649999999999
 21
653.10545
 31
0.0
  0
LINE
  5
42E
330
1E
100
AcDbEntity
  8
0
100
AcDbLine
 10
341.533
 20
654.0114499999999
 30
0.0
 11
342.533
 21
655.58145
 31
0.0
  0
LINE
  5
42F
330
1E
100
AcDbEntity
  8
0
100
AcDbLine
 10
337.17
 20
643.94645
 30
0.0
 11
338.9019999999999
 21
643.0404499999999
 31
0.0
  0
LINE
  5
430
330
1E
100
AcDbEntity
  8
0
100
AcDbLine
 10
336.17
 20
642.3774499999999
 30
0.0
 11
337.902
 21
641.47045
 31
0.0
  0
LINE
  5
431
330
1E
100
AcDbEntity
  8
0
100
AcDbLine
 10
336.17
 20
642.3774499999999
 30
0.0
 11
337.17
 21
643.94645
 31
0.0
  0
LINE
  5
432
330
1E
100
AcDbEntity
  8
0
100
AcDbLine
 10
342.384
 20
632.434563411765
 30
0.0
 11
342.384
 21
631.7794499999999
 31
0.0
  0
LINE
  5
433
330
1E
100
AcDbEntity
  8
0
100
AcDbLine
 10
343.3659999999999
 20
675.54045
 30
0.0
 11
343.3659999999999
 21
676.3854499999999
 31
0.0
  0
LINE
  5
434
330
1E
100
AcDbEntity
  8
0
100
AcDbLine
 10
343.3659999999999
 20
676.3854499999999
 30
0.0
 11
343.3659999999999
 21
675.54045
 31
0.0
  0
LINE
  5
435
330
1E
100
AcDbEntity
  8
0
100
AcDbLine
 10
343.2649999999999
 20
653.10545
 30
0.0
 11
344.2649999999999
 21
654.6744499999999
 31
0.0
  0
LINE
  5
436
330
1E
100
AcDbEntity
  8
0
100
AcDbLine
 10
342.533
 20
655.58145
 30
0.0
 11
344.2649999999999
 21
654.6744499999999
 31
0.0
  0
LINE
  5
437
330
1E
100
AcDbEntity
  8
0
100
AcDbLine
 10
343.384
 20
633.34945
 30
0.0
 11
345.1159999999999
 21
632.4434499999999
 31
0.0
  0
LINE
  5
438
330
1E
100
AcDbEntity
  8
0
100
AcDbLine
 10
342.384
 20
631.7794499999999
 30
0.0
 11
344.1159999999999
 21
630.87345
 31
0.0
  0
LINE
  5
439
330
1E
100
AcDbEntity
  8
0
100
AcDbLine
 10
342.384
 20
631.7794499999999
 30
0.0
 11
342.384
 21
632.434563411765
 31
0.0
  0
LINE
  5
43A
330
1E
100
AcDbEntity
  8
0
100
AcDbLine
 10
342.384
 20
631.7794499999999
 30
0.0
 11
343.384
 21
633.34945
 31
0.0
  0
LINE
  5
43B
330
1E
100
AcDbEntity
  8
0
100
AcDbLine
 10
336.5299999999999
 20
682.09945
 30
0.0
 11
337.73
 21
682.5344499999999
 31
0.0
  0
LINE
  5
43C
330
1E
100
AcDbEntity
  8
0
100
AcDbLine
 10
335.25
 20
681.93645
 30
0.0
 11
336.5299999999999
 21
682.09945
 31
0.0
  0
LINE
  5
43D
330
1E
100
AcDbEntity
  8
0
100
AcDbLine
 10
337.73
 20
690.8234499999999
 30
0.0
 11
338.79
 21
690.0984499999999
 31
0.0
  0
LINE
  5
43E
330
1E
100
AcDbEntity
  8
0
100
AcDbLine
 10
337.73
 20
690.4014499999999
 30
0.0
 11
338.79
 21
689.67645
 31
0.0
  0
LINE
  5
43F
330
1E
100
AcDbEntity
  8
0
100
AcDbLine
 10
336.5299999999999
 20
690.83645
 30
0.0
 11
337.73
 21
690.4014499999999
 31
0.0
  0
LINE
  5
440
330
1E
100
AcDbEntity
  8
0
100
AcDbLine
 10
339.5899999999999
 20
689.13845
 30
0.0
 11
340.07
 21
688.0504499999999
 31
0.0
  0
LINE
  5
441
330
1E
100
AcDbEntity
  8
0
100
AcDbLine
 10
339.5899999999999
 20
688.71545
 30
0.0
 11
340.07
 21
687.62745
 31
0.0
  0
LINE
  5
442
330
1E
100
AcDbEntity
  8
0
100
AcDbLine
 10
338.79
 20
690.0984499999999
 30
0.0
 11
339.5899999999999
 21
689.13845
 31
0.0
  0
LINE
  5
443
330
1E
100
AcDbEntity
  8
0
100
AcDbLine
 10
338.79
 20
689.67645
 30
0.0
 11
339.5899999999999
 21
688.71545
 31
0.0
  0
LINE
  5
444
330
1E
100
AcDbEntity
  8
0
100
AcDbLine
 10
340.07
 20
688.0504499999999
 30
0.0
 11
340.2499999999999
 21
686.89045
 31
0.0
  0
LINE
  5
445
330
1E
100
AcDbEntity
  8
0
100
AcDbLine
 10
340.07
 20
687.62745
 30
0.0
 11
340.2499999999999
 21
686.4674499999999
 31
0.0
  0
LINE
  5
446
330
1E
100
AcDbEntity
  8
0
100
AcDbLine
 10
340.2499999999999
 20
686.89045
 30
0.0
 11
340.2499999999999
 21
686.4674499999999
 31
0.0
  0
LINE
  5
447
330
1E
100
AcDbEntity
  8
0
100
AcDbLine
 10
340.2499999999999
 20
686.4674499999999
 30
0.0
 11
340.2499999999999
 21
686.89045
 31
0.0
  0
LINE
  5
448
330
1E
100
AcDbEntity
  8
0
100
AcDbLine
 10
340.217181034483
 20
686.67895
 30
0.0
 11
340.2499999999999
 21
686.89045
 31
0.0
  0
LINE
  5
449
330
1E
100
AcDbEntity
  8
0
100
AcDbLine
 10
340.07
 20
685.3074499999999
 30
0.0
 11
340.2499999999999
 21
686.4674499999999
 31
0.0
  0
LINE
  5
44A
330
1E
100
AcDbEntity
  8
0
100
AcDbLine
 10
339.5899999999999
 20
684.22045
 30
0.0
 11
340.07
 21
685.3074499999999
 31
0.0
  0
LINE
  5
44B
330
1E
100
AcDbEntity
  8
0
100
AcDbLine
 10
338.79
 20
683.2594499999999
 30
0.0
 11
339.5899999999999
 21
684.22045
 31
0.0
  0
LINE
  5
44C
330
1E
100
AcDbEntity
  8
0
100
AcDbLine
 10
337.73
 20
682.5344499999999
 30
0.0
 11
338.79
 21
683.2594499999999
 31
0.0
  0
LINE
  5
44D
330
1E
100
AcDbEntity
  8
0
100
AcDbLine
 10
333.97
 20
682.09945
 30
0.0
 11
335.25
 21
681.93645
 31
0.0
  0
LINE
  5
44E
330
1E
100
AcDbEntity
  8
0
100
AcDbLine
 10
332.77
 20
690.4014499999999
 30
0.0
 11
333.97
 21
690.83645
 31
0.0
  0
LINE
  5
44F
330
1E
100
AcDbEntity
  8
0
100
AcDbLine
 10
327.134
 20
698.24045
 30
0.0
 11
327.134
 21
697.3954499999999
 31
0.0
  0
LINE
  5
450
330
1E
100
AcDbEntity
  8
0
100
AcDbLine
 10
329.8659999999999
 20
696.73145
 30
0.0
 11
329.8659999999999
 21
697.57645
 31
0.0
  0
LINE
  5
451
330
1E
100
AcDbEntity
  8
0
100
AcDbLine
 10
329.8659999999999
 20
697.57645
 30
0.0
 11
329.8659999999999
 21
696.73145
 31
0.0
  0
LINE
  5
452
330
1E
100
AcDbEntity
  8
0
100
AcDbLine
 10
328.134
 20
695.82545
 30
0.0
 11
329.8659999999999
 21
696.73145
 31
0.0
  0
LINE
  5
453
330
1E
100
AcDbEntity
  8
0
100
AcDbLine
 10
327.134
 20
697.3954499999999
 30
0.0
 11
328.866
 21
698.30145
 31
0.0
  0
LINE
  5
454
330
1E
100
AcDbEntity
  8
0
100
AcDbLine
 10
327.134
 20
697.3954499999999
 30
0.0
 11
328.134
 21
695.82545
 31
0.0
  0
LINE
  5
455
330
1E
100
AcDbEntity
  8
0
100
AcDbLine
 10
327.134
 20
697.3954499999999
 30
0.0
 11
327.134
 21
698.24045
 31
0.0
  0
LINE
  5
456
330
1E
100
AcDbEntity
  8
0
100
AcDbLine
 10
328.229
 20
718.27445
 30
0.0
 11
329.961
 21
719.18145
 31
0.0
  0
LINE
  5
457
330
1E
100
AcDbEntity
  8
0
100
AcDbLine
 10
327.229
 20
719.84445
 30
0.0
 11
328.961
 21
720.7504499999999
 31
0.0
  0
LINE
  5
458
330
1E
100
AcDbEntity
  8
0
100
AcDbLine
 10
327.229
 20
719.84445
 30
0.0
 11
328.229
 21
718.27445
 31
0.0
  0
LINE
  5
459
330
1E
100
AcDbEntity
  8
0
100
AcDbLine
 10
328.961
 20
720.7504499999999
 30
0.0
 11
329.961
 21
719.18145
 31
0.0
  0
LINE
  5
45A
330
1E
100
AcDbEntity
  8
0
100
AcDbLine
 10
330.4739999999999
 20
741.3824499999999
 30
0.0
 11
332.2059999999999
 21
742.28845
 31
0.0
  0
LINE
  5
45B
330
1E
100
AcDbEntity
  8
0
100
AcDbLine
 10
331.2059999999999
 20
743.8584499999999
 30
0.0
 11
332.2059999999999
 21
742.28845
 31
0.0
  0
LINE
  5
45C
330
1E
100
AcDbEntity
  8
0
100
AcDbLine
 10
329.474
 20
742.95245
 30
0.0
 11
331.2059999999999
 21
743.8584499999999
 31
0.0
  0
LINE
  5
45D
330
1E
100
AcDbEntity
  8
0
100
AcDbLine
 10
329.474
 20
742.95245
 30
0.0
 11
330.4739999999999
 21
741.3824499999999
 31
0.0
  0
LINE
  5
45E
330
1E
100
AcDbEntity
  8
0
100
AcDbLine
 10
328.866
 20
699.1464499999999
 30
0.0
 11
328.866
 21
698.30145
 31
0.0
  0
LINE
  5
45F
330
1E
100
AcDbEntity
  8
0
100
AcDbLine
 10
328.866
 20
698.30145
 30
0.0
 11
328.866
 21
699.1464499999999
 31
0.0
  0
LINE
  5
460
330
1E
100
AcDbEntity
  8
0
100
AcDbLine
 10
328.866
 20
698.30145
 30
0.0
 11
329.8659999999999
 21
696.73145
 31
0.0
  0
LINE
  5
461
330
1E
100
AcDbEntity
  8
0
100
AcDbLine
 10
334.5699999999999
 20
709.52045
 30
0.0
 11
336.3019999999999
 21
710.42745
 31
0.0
  0
LINE
  5
462
330
1E
100
AcDbEntity
  8
0
100
AcDbLine
 10
334.5699999999999
 20
709.52045
 30
0.0
 11
335.57
 21
707.95145
 31
0.0
  0
LINE
  5
463
330
1E
100
AcDbEntity
  8
0
100
AcDbLine
 10
336.3019999999999
 20
710.42745
 30
0.0
 11
337.3019999999999
 21
708.85745
 31
0.0
  0
LINE
  5
464
330
1E
100
AcDbEntity
  8
0
100
AcDbLine
 10
335.57
 20
707.95145
 30
0.0
 11
337.3019999999999
 21
708.85745
 31
0.0
  0
LINE
  5
465
330
1E
100
AcDbEntity
  8
0
100
AcDbLine
 10
337.17
 20
730.2564499999999
 30
0.0
 11
338.9019999999999
 21
731.16245
 31
0.0
  0
LINE
  5
466
330
1E
100
AcDbEntity
  8
0
100
AcDbLine
 10
337.902
 20
732.7324499999999
 30
0.0
 11
338.9019999999999
 21
731.16245
 31
0.0
  0
LINE
  5
467
330
1E
100
AcDbEntity
  8
0
100
AcDbLine
 10
336.17
 20
731.82645
 30
0.0
 11
337.902
 21
732.7324499999999
 31
0.0
  0
LINE
  5
468
330
1E
100
AcDbEntity
  8
0
100
AcDbLine
 10
336.17
 20
731.82645
 30
0.0
 11
337.17
 21
730.2564499999999
 31
0.0
  0
LINE
  5
469
330
1E
100
AcDbEntity
  8
0
100
AcDbLine
 10
341.533
 20
719.7694499999999
 30
0.0
 11
343.2649999999999
 21
720.6754499999999
 31
0.0
  0
LINE
  5
46A
330
1E
100
AcDbEntity
  8
0
100
AcDbLine
 10
341.533
 20
719.7694499999999
 30
0.0
 11
342.533
 21
718.19945
 31
0.0
  0
LINE
  5
46B
330
1E
100
AcDbEntity
  8
0
100
AcDbLine
 10
341.634
 20
699.1464499999999
 30
0.0
 11
341.634
 21
698.30145
 31
0.0
  0
LINE
  5
46C
330
1E
100
AcDbEntity
  8
0
100
AcDbLine
 10
340.634
 20
697.57645
 30
0.0
 11
340.634
 21
696.73145
 31
0.0
  0
LINE
  5
46D
330
1E
100
AcDbEntity
  8
0
100
AcDbLine
 10
340.634
 20
696.73145
 30
0.0
 11
342.3659999999999
 21
695.82545
 31
0.0
  0
LINE
  5
46E
330
1E
100
AcDbEntity
  8
0
100
AcDbLine
 10
340.634
 20
696.73145
 30
0.0
 11
341.634
 21
698.30145
 31
0.0
  0
LINE
  5
46F
330
1E
100
AcDbEntity
  8
0
100
AcDbLine
 10
340.634
 20
696.73145
 30
0.0
 11
340.634
 21
697.57645
 31
0.0
  0
LINE
  5
470
330
1E
100
AcDbEntity
  8
0
100
AcDbLine
 10
343.3659999999999
 20
697.3954499999999
 30
0.0
 11
343.3659999999999
 21
698.24045
 31
0.0
  0
LINE
  5
471
330
1E
100
AcDbEntity
  8
0
100
AcDbLine
 10
342.3659999999999
 20
695.82545
 30
0.0
 11
343.3659999999999
 21
697.3954499999999
 31
0.0
  0
LINE
  5
472
330
1E
100
AcDbEntity
  8
0
100
AcDbLine
 10
342.384
 20
742.9007008235299
 30
0.0
 11
342.384
 21
742.84645
 31
0.0
  0
LINE
  5
473
330
1E
100
AcDbEntity
  8
0
100
AcDbLine
 10
343.2649999999999
 20
720.6754499999999
 30
0.0
 11
344.2649999999999
 21
719.10645
 31
0.0
  0
LINE
  5
474
330
1E
100
AcDbEntity
  8
0
100
AcDbLine
 10
342.533
 20
718.19945
 30
0.0
 11
344.2649999999999
 21
719.10645
 31
0.0
  0
LINE
  5
475
330
1E
100
AcDbEntity
  8
0
100
AcDbLine
 10
343.384
 20
741.2764499999999
 30
0.0
 11
345.1159999999999
 21
742.18245
 31
0.0
  0
LINE
  5
476
330
1E
100
AcDbEntity
  8
0
100
AcDbLine
 10
342.384
 20
742.84645
 30
0.0
 11
344.1159999999999
 21
743.7524499999999
 31
0.0
  0
LINE
  5
477
330
1E
100
AcDbEntity
  8
0
100
AcDbLine
 10
342.384
 20
742.84645
 30
0.0
 11
343.384
 21
741.2764499999999
 31
0.0
  0
LINE
  5
478
330
1E
100
AcDbEntity
  8
0
100
AcDbLine
 10
342.384
 20
742.84645
 30
0.0
 11
342.384
 21
742.9007008235299
 31
0.0
  0
LINE
  5
479
330
1E
100
AcDbEntity
  8
0
100
AcDbLine
 10
343.3659999999999
 20
698.24045
 30
0.0
 11
343.3659999999999
 21
697.3954499999999
 31
0.0
  0
LINE
  5
47A
330
1E
100
AcDbEntity
  8
0
100
AcDbLine
 10
341.634
 20
698.30145
 30
0.0
 11
341.634
 21
699.1464499999999
 31
0.0
  0
LINE
  5
47B
330
1E
100
AcDbEntity
  8
0
100
AcDbLine
 10
341.634
 20
698.30145
 30
0.0
 11
343.3659999999999
 21
697.3954499999999
 31
0.0
  0
LINE
  5
47C
330
1E
100
AcDbEntity
  8
0
100
AcDbLine
 10
336.5299999999999
 20
691.25845
 30
0.0
 11
337.73
 21
690.8234499999999
 31
0.0
  0
LINE
  5
47D
330
1E
100
AcDbEntity
  8
0
100
AcDbLine
 10
335.25
 20
691.42145
 30
0.0
 11
336.5299999999999
 21
691.25845
 31
0.0
  0
LINE
  5
47E
330
1E
100
AcDbEntity
  8
0
100
AcDbLine
 10
335.25
 20
690.99945
 30
0.0
 11
336.5299999999999
 21
690.83645
 31
0.0
  0
LINE
  5
47F
330
1E
100
AcDbEntity
  8
0
100
AcDbLine
 10
333.97
 20
691.25845
 30
0.0
 11
335.25
 21
691.42145
 31
0.0
  0
LINE
  5
480
330
1E
100
AcDbEntity
  8
0
100
AcDbLine
 10
333.97
 20
690.83645
 30
0.0
 11
335.25
 21
690.99945
 31
0.0
  0
LINE
  5
481
330
1E
100
AcDbEntity
  8
0
100
AcDbLine
 10
343.75
 20
745.64845
 30
0.0
 11
350.85
 21
744.1084499999999
 31
0.0
  0
LINE
  5
482
330
1E
100
AcDbEntity
  8
0
100
AcDbLine
 10
335.25
 20
746.19245
 30
0.0
 11
343.75
 21
745.64845
 31
0.0
  0
LINE
  5
483
330
1E
100
AcDbEntity
  8
0
100
AcDbLine
 10
343.9499999999999
 20
748.27745
 30
0.0
 11
352.2499999999999
 21
746.73645
 31
0.0
  0
LINE
  5
484
330
1E
100
AcDbEntity
  8
0
100
AcDbLine
 10
343.75
 20
629.8224499999999
 30
0.0
 11
350.85
 21
631.3634499999999
 31
0.0
  0
LINE
  5
485
330
1E
100
AcDbEntity
  8
0
100
AcDbLine
 10
335.25
 20
629.27845
 30
0.0
 11
343.75
 21
629.8224499999999
 31
0.0
  0
LINE
  5
486
330
1E
100
AcDbEntity
  8
0
100
AcDbLine
 10
343.9499999999999
 20
627.19445
 30
0.0
 11
352.2499999999999
 21
628.73545
 31
0.0
  0
LINE
  5
487
330
1E
100
AcDbEntity
  8
0
100
AcDbLine
 10
335.25
 20
626.5594499999999
 30
0.0
 11
343.9499999999999
 21
627.19445
 31
0.0
  0
LINE
  5
488
330
1E
100
AcDbEntity
  8
0
100
AcDbLine
 10
344.2499999999999
 20
626.747101685393
 30
0.0
 11
344.2499999999999
 21
606.1794499999999
 31
0.0
  0
LINE
  5
489
330
1E
100
AcDbEntity
  8
0
100
AcDbLine
 10
344.1159999999999
 20
630.87345
 30
0.0
 11
345.1159999999999
 21
632.4434499999999
 31
0.0
  0
LINE
  5
48A
330
1E
100
AcDbEntity
  8
0
100
AcDbLine
 10
346.634
 20
666.99545
 30
0.0
 11
348.3659999999999
 21
667.90245
 31
0.0
  0
LINE
  5
48B
330
1E
100
AcDbEntity
  8
0
100
AcDbLine
 10
346.634
 20
666.99545
 30
0.0
 11
347.634
 21
665.42645
 31
0.0
  0
LINE
  5
48C
330
1E
100
AcDbEntity
  8
0
100
AcDbLine
 10
347.634
 20
665.42645
 30
0.0
 11
349.3659999999999
 21
666.3324499999999
 31
0.0
  0
LINE
  5
48D
330
1E
100
AcDbEntity
  8
0
100
AcDbLine
 10
344.1159999999999
 20
743.7524499999999
 30
0.0
 11
345.1159999999999
 21
742.18245
 31
0.0
  0
LINE
  5
48E
330
1E
100
AcDbEntity
  8
0
100
AcDbLine
 10
346.634
 20
706.3624499999999
 30
0.0
 11
348.3659999999999
 21
705.45645
 31
0.0
  0
LINE
  5
48F
330
1E
100
AcDbEntity
  8
0
100
AcDbLine
 10
346.634
 20
706.3624499999999
 30
0.0
 11
347.634
 21
707.93245
 31
0.0
  0
LINE
  5
490
330
1E
100
AcDbEntity
  8
0
100
AcDbLine
 10
347.736
 20
730.527417692308
 30
0.0
 11
347.736
 21
730.2024499999999
 31
0.0
  0
LINE
  5
491
330
1E
100
AcDbEntity
  8
0
100
AcDbLine
 10
347.736
 20
730.2024499999999
 30
0.0
 11
349.4669999999999
 21
731.1084499999999
 31
0.0
  0
LINE
  5
492
330
1E
100
AcDbEntity
  8
0
100
AcDbLine
 10
347.736
 20
730.2024499999999
 30
0.0
 11
348.7359999999999
 21
728.6324499999999
 31
0.0
  0
LINE
  5
493
330
1E
100
AcDbEntity
  8
0
100
AcDbLine
 10
347.736
 20
730.2024499999999
 30
0.0
 11
347.736
 21
730.527417692308
 31
0.0
  0
LINE
  5
494
330
1E
100
AcDbEntity
  8
0
100
AcDbLine
 10
347.634
 20
707.93245
 30
0.0
 11
349.3659999999999
 21
707.0254499999999
 31
0.0
  0
LINE
  5
495
330
1E
100
AcDbEntity
  8
0
100
AcDbLine
 10
347.736
 20
644.2689838461539
 30
0.0
 11
347.736
 21
644.00145
 31
0.0
  0
LINE
  5
496
330
1E
100
AcDbEntity
  8
0
100
AcDbLine
 10
349.4669999999999
 20
643.09545
 30
0.0
 11
350.4669999999999
 21
644.6644499999999
 31
0.0
  0
LINE
  5
497
330
1E
100
AcDbEntity
  8
0
100
AcDbLine
 10
348.7359999999999
 20
645.57145
 30
0.0
 11
348.7359999999999
 21
645.627475116279
 31
0.0
  0
LINE
  5
498
330
1E
100
AcDbEntity
  8
0
100
AcDbLine
 10
348.7359999999999
 20
645.57145
 30
0.0
 11
350.4669999999999
 21
644.6644499999999
 31
0.0
  0
LINE
  5
499
330
1E
100
AcDbEntity
  8
0
100
AcDbLine
 10
347.75
 20
686.4064499999999
 30
0.0
 11
347.75
 21
685.56145
 31
0.0
  0
LINE
  5
49A
330
1E
100
AcDbEntity
  8
0
100
AcDbLine
 10
347.75
 20
685.56145
 30
0.0
 11
347.75
 21
687.37445
 31
0.0
  0
LINE
  5
49B
330
1E
100
AcDbEntity
  8
0
100
AcDbLine
 10
347.75
 20
685.56145
 30
0.0
 11
349.75
 21
685.56145
 31
0.0
  0
LINE
  5
49C
330
1E
100
AcDbEntity
  8
0
100
AcDbLine
 10
347.75
 20
685.56145
 30
0.0
 11
347.75
 21
686.4064499999999
 31
0.0
  0
LINE
  5
49D
330
1E
100
AcDbEntity
  8
0
100
AcDbLine
 10
347.75
 20
688.21945
 30
0.0
 11
347.75
 21
687.37445
 31
0.0
  0
LINE
  5
49E
330
1E
100
AcDbEntity
  8
0
100
AcDbLine
 10
347.75
 20
687.37445
 30
0.0
 11
349.75
 21
687.37445
 31
0.0
  0
LINE
  5
49F
330
1E
100
AcDbEntity
  8
0
100
AcDbLine
 10
347.75
 20
687.37445
 30
0.0
 11
347.75
 21
688.21945
 31
0.0
  0
LINE
  5
4A0
330
1E
100
AcDbEntity
  8
0
100
AcDbLine
 10
347.75
 20
687.37445
 30
0.0
 11
347.75
 21
685.56145
 31
0.0
  0
LINE
  5
4A1
330
1E
100
AcDbEntity
  8
0
100
AcDbLine
 10
348.3659999999999
 20
667.90245
 30
0.0
 11
349.3659999999999
 21
666.3324499999999
 31
0.0
  0
LINE
  5
4A2
330
1E
100
AcDbEntity
  8
0
100
AcDbLine
 10
349.75
 20
685.56145
 30
0.0
 11
349.75
 21
687.37445
 31
0.0
  0
LINE
  5
4A3
330
1E
100
AcDbEntity
  8
0
100
AcDbLine
 10
349.4669999999999
 20
731.1084499999999
 30
0.0
 11
350.4669999999999
 21
729.5384499999999
 31
0.0
  0
LINE
  5
4A4
330
1E
100
AcDbEntity
  8
0
100
AcDbLine
 10
348.7359999999999
 20
728.6324499999999
 30
0.0
 11
350.4669999999999
 21
729.5384499999999
 31
0.0
  0
LINE
  5
4A5
330
1E
100
AcDbEntity
  8
0
100
AcDbLine
 10
349.75
 20
688.21945
 30
0.0
 11
349.75
 21
687.37445
 31
0.0
  0
LINE
  5
4A6
330
1E
100
AcDbEntity
  8
0
100
AcDbLine
 10
349.75
 20
687.37445
 30
0.0
 11
349.75
 21
685.56145
 31
0.0
  0
LINE
  5
4A7
330
1E
100
AcDbEntity
  8
0
100
AcDbLine
 10
349.75
 20
687.37445
 30
0.0
 11
349.75
 21
688.21945
 31
0.0
  0
LINE
  5
4A8
330
1E
100
AcDbEntity
  8
0
100
AcDbLine
 10
348.3659999999999
 20
705.45645
 30
0.0
 11
349.3659999999999
 21
707.0254499999999
 31
0.0
  0
LINE
  5
4A9
330
1E
100
AcDbEntity
  8
0
100
AcDbLine
 10
348.7359999999999
 20
645.627475116279
 30
0.0
 11
348.7359999999999
 21
645.57145
 31
0.0
  0
LINE
  5
4AA
330
1E
100
AcDbEntity
  8
0
100
AcDbLine
 10
347.736
 20
644.00145
 30
0.0
 11
349.4669999999999
 21
643.09545
 31
0.0
  0
LINE
  5
4AB
330
1E
100
AcDbEntity
  8
0
100
AcDbLine
 10
347.736
 20
644.00145
 30
0.0
 11
347.736
 21
644.2689838461539
 31
0.0
  0
LINE
  5
4AC
330
1E
100
AcDbEntity
  8
0
100
AcDbLine
 10
347.736
 20
644.00145
 30
0.0
 11
348.7359999999999
 21
645.57145
 31
0.0
  0
LINE
  5
4AD
330
1E
100
AcDbEntity
  8
0
100
AcDbLine
 10
350.85
 20
744.1084499999999
 30
0.0
 11
359.85
 21
741.66045
 31
0.0
  0
LINE
  5
4AE
330
1E
100
AcDbEntity
  8
0
100
AcDbLine
 10
352.634
 20
657.78845
 30
0.0
 11
354.366
 21
658.69545
 31
0.0
  0
LINE
  5
4AF
330
1E
100
AcDbEntity
  8
0
100
AcDbLine
 10
352.634
 20
657.78845
 30
0.0
 11
353.634
 21
656.21945
 31
0.0
  0
LINE
  5
4B0
330
1E
100
AcDbEntity
  8
0
100
AcDbLine
 10
354.366
 20
658.69545
 30
0.0
 11
355.3659999999999
 21
657.12545
 31
0.0
  0
LINE
  5
4B1
330
1E
100
AcDbEntity
  8
0
100
AcDbLine
 10
353.634
 20
656.21945
 30
0.0
 11
355.3659999999999
 21
657.12545
 31
0.0
  0
LINE
  5
4B2
330
1E
100
AcDbEntity
  8
0
100
AcDbLine
 10
352.634
 20
715.99145
 30
0.0
 11
354.366
 21
715.08545
 31
0.0
  0
LINE
  5
4B3
330
1E
100
AcDbEntity
  8
0
100
AcDbLine
 10
352.634
 20
715.99145
 30
0.0
 11
353.634
 21
717.56145
 31
0.0
  0
LINE
  5
4B4
330
1E
100
AcDbEntity
  8
0
100
AcDbLine
 10
354.366
 20
715.08545
 30
0.0
 11
355.3659999999999
 21
716.65545
 31
0.0
  0
LINE
  5
4B5
330
1E
100
AcDbEntity
  8
0
100
AcDbLine
 10
354.768
 20
740.13845
 30
0.0
 11
356.4999999999999
 21
741.04545
 31
0.0
  0
LINE
  5
4B6
330
1E
100
AcDbEntity
  8
0
100
AcDbLine
 10
354.768
 20
740.13845
 30
0.0
 11
355.768
 21
738.5694499999999
 31
0.0
  0
LINE
  5
4B7
330
1E
100
AcDbEntity
  8
0
100
AcDbLine
 10
353.634
 20
717.56145
 30
0.0
 11
355.3659999999999
 21
716.65545
 31
0.0
  0
LINE
  5
4B8
330
1E
100
AcDbEntity
  8
0
100
AcDbLine
 10
356.4999999999999
 20
633.58045
 30
0.0
 11
357.5
 21
635.1504499999999
 31
0.0
  0
LINE
  5
4B9
330
1E
100
AcDbEntity
  8
0
100
AcDbLine
 10
357.416
 20
673.97945
 30
0.0
 11
357.416
 21
675.79145
 31
0.0
  0
LINE
  5
4BA
330
1E
100
AcDbEntity
  8
0
100
AcDbLine
 10
355.4159999999999
 20
673.97945
 30
0.0
 11
355.4159999999999
 21
675.79145
 31
0.0
  0
LINE
  5
4BB
330
1E
100
AcDbEntity
  8
0
100
AcDbLine
 10
355.4159999999999
 20
673.97945
 30
0.0
 11
357.416
 21
673.97945
 31
0.0
  0
LINE
  5
4BC
330
1E
100
AcDbEntity
  8
0
100
AcDbLine
 10
355.4159999999999
 20
675.79145
 30
0.0
 11
357.416
 21
675.79145
 31
0.0
  0
LINE
  5
4BD
330
1E
100
AcDbEntity
  8
0
100
AcDbLine
 10
355.4159999999999
 20
675.79145
 30
0.0
 11
355.4159999999999
 21
673.97945
 31
0.0
  0
LINE
  5
4BE
330
1E
100
AcDbEntity
  8
0
100
AcDbLine
 10
357.416
 20
675.79145
 30
0.0
 11
357.416
 21
673.97945
 31
0.0
  0
LINE
  5
4BF
330
1E
100
AcDbEntity
  8
0
100
AcDbLine
 10
356.4999999999999
 20
741.04545
 30
0.0
 11
357.5
 21
739.47545
 31
0.0
  0
LINE
  5
4C0
330
1E
100
AcDbEntity
  8
0
100
AcDbLine
 10
355.768
 20
738.5694499999999
 30
0.0
 11
357.5
 21
739.47545
 31
0.0
  0
LINE
  5
4C1
330
1E
100
AcDbEntity
  8
0
100
AcDbLine
 10
357.416
 20
699.3794499999999
 30
0.0
 11
357.416
 21
697.56645
 31
0.0
  0
LINE
  5
4C2
330
1E
100
AcDbEntity
  8
0
100
AcDbLine
 10
355.4159999999999
 20
699.3794499999999
 30
0.0
 11
355.4159999999999
 21
697.56645
 31
0.0
  0
LINE
  5
4C3
330
1E
100
AcDbEntity
  8
0
100
AcDbLine
 10
355.4159999999999
 20
699.3794499999999
 30
0.0
 11
357.416
 21
699.3794499999999
 31
0.0
  0
LINE
  5
4C4
330
1E
100
AcDbEntity
  8
0
100
AcDbLine
 10
355.4159999999999
 20
697.56645
 30
0.0
 11
357.416
 21
697.56645
 31
0.0
  0
LINE
  5
4C5
330
1E
100
AcDbEntity
  8
0
100
AcDbLine
 10
355.4159999999999
 20
697.56645
 30
0.0
 11
355.4159999999999
 21
699.3794499999999
 31
0.0
  0
LINE
  5
4C6
330
1E
100
AcDbEntity
  8
0
100
AcDbLine
 10
358.634
 20
648.58145
 30
0.0
 11
360.366
 21
649.4884499999999
 31
0.0
  0
LINE
  5
4C7
330
1E
100
AcDbEntity
  8
0
100
AcDbLine
 10
358.634
 20
648.58145
 30
0.0
 11
359.634
 21
647.0124499999999
 31
0.0
  0
LINE
  5
4C8
330
1E
100
AcDbEntity
  8
0
100
AcDbLine
 10
359.634
 20
647.0124499999999
 30
0.0
 11
361.3659999999999
 21
647.91845
 31
0.0
  0
LINE
  5
4C9
330
1E
100
AcDbEntity
  8
0
100
AcDbLine
 10
359.75
 20
685.77245
 30
0.0
 11
359.75
 21
687.58545
 31
0.0
  0
LINE
  5
4CA
330
1E
100
AcDbEntity
  8
0
100
AcDbLine
 10
359.75
 20
685.77245
 30
0.0
 11
361.75
 21
685.77245
 31
0.0
  0
LINE
  5
4CB
330
1E
100
AcDbEntity
  8
0
100
AcDbLine
 10
359.75
 20
687.58545
 30
0.0
 11
361.75
 21
687.58545
 31
0.0
  0
LINE
  5
4CC
330
1E
100
AcDbEntity
  8
0
100
AcDbLine
 10
359.75
 20
687.58545
 30
0.0
 11
359.75
 21
685.77245
 31
0.0
  0
LINE
  5
4CD
330
1E
100
AcDbEntity
  8
0
100
AcDbLine
 10
358.634
 20
725.6214499999999
 30
0.0
 11
360.366
 21
724.71545
 31
0.0
  0
LINE
  5
4CE
330
1E
100
AcDbEntity
  8
0
100
AcDbLine
 10
358.634
 20
725.6214499999999
 30
0.0
 11
359.634
 21
727.19145
 31
0.0
  0
LINE
  5
4CF
330
1E
100
AcDbEntity
  8
0
100
AcDbLine
 10
359.634
 20
727.19145
 30
0.0
 11
361.3659999999999
 21
726.2854499999999
 31
0.0
  0
LINE
  5
4D0
330
1E
100
AcDbEntity
  8
0
100
AcDbLine
 10
357.416
 20
697.56645
 30
0.0
 11
357.416
 21
699.3794499999999
 31
0.0
  0
LINE
  5
4D1
330
1E
100
AcDbEntity
  8
0
100
AcDbLine
 10
355.768
 20
636.05645
 30
0.0
 11
357.5
 21
635.1504499999999
 31
0.0
  0
LINE
  5
4D2
330
1E
100
AcDbEntity
  8
0
100
AcDbLine
 10
354.768
 20
634.4874499999999
 30
0.0
 11
356.4999999999999
 21
633.58045
 31
0.0
  0
LINE
  5
4D3
330
1E
100
AcDbEntity
  8
0
100
AcDbLine
 10
354.768
 20
634.4874499999999
 30
0.0
 11
355.768
 21
636.05645
 31
0.0
  0
LINE
  5
4D4
330
1E
100
AcDbEntity
  8
0
100
AcDbLine
 10
359.85
 20
741.66045
 30
0.0
 11
367.35
 21
738.39845
 31
0.0
  0
LINE
  5
4D5
330
1E
100
AcDbEntity
  8
0
100
AcDbLine
 10
352.2499999999999
 20
746.73645
 30
0.0
 11
361.05
 21
744.1084499999999
 31
0.0
  0
LINE
  5
4D6
330
1E
100
AcDbEntity
  8
0
100
AcDbLine
 10
352.95
 20
747.97445
 30
0.0
 11
361.45
 21
745.43645
 31
0.0
  0
LINE
  5
4D7
330
1E
100
AcDbEntity
  8
0
100
AcDbLine
 10
360.366
 20
649.4884499999999
 30
0.0
 11
361.3659999999999
 21
647.91845
 31
0.0
  0
LINE
  5
4D8
330
1E
100
AcDbEntity
  8
0
100
AcDbLine
 10
360.366
 20
724.71545
 30
0.0
 11
361.3659999999999
 21
726.2854499999999
 31
0.0
  0
LINE
  5
4D9
330
1E
100
AcDbEntity
  8
0
100
AcDbLine
 10
361.05
 20
744.1084499999999
 30
0.0
 11
368.85
 21
740.75445
 31
0.0
  0
LINE
  5
4DA
330
1E
100
AcDbEntity
  8
0
100
AcDbLine
 10
359.85
 20
633.81045
 30
0.0
 11
367.35
 21
637.07345
 31
0.0
  0
LINE
  5
4DB
330
1E
100
AcDbEntity
  8
0
100
AcDbLine
 10
350.85
 20
631.3634499999999
 30
0.0
 11
359.85
 21
633.81045
 31
0.0
  0
LINE
  5
4DC
330
1E
100
AcDbEntity
  8
0
100
AcDbLine
 10
361.45
 20
745.43645
 30
0.0
 11
369.35
 21
741.90245
 31
0.0
  0
LINE
  5
4DD
330
1E
100
AcDbEntity
  8
0
100
AcDbLine
 10
361.05
 20
631.3634499999999
 30
0.0
 11
368.85
 21
634.7164499999999
 31
0.0
  0
LINE
  5
4DE
330
1E
100
AcDbEntity
  8
0
100
AcDbLine
 10
352.2499999999999
 20
628.73545
 30
0.0
 11
361.05
 21
631.3634499999999
 31
0.0
  0
LINE
  5
4DF
330
1E
100
AcDbEntity
  8
0
100
AcDbLine
 10
361.526
 20
663.7074499999999
 30
0.0
 11
361.526
 21
665.51945
 31
0.0
  0
LINE
  5
4E0
330
1E
100
AcDbEntity
  8
0
100
AcDbLine
 10
361.526
 20
663.7074499999999
 30
0.0
 11
363.526
 21
663.7074499999999
 31
0.0
  0
LINE
  5
4E1
330
1E
100
AcDbEntity
  8
0
100
AcDbLine
 10
361.526
 20
665.51945
 30
0.0
 11
363.526
 21
665.51945
 31
0.0
  0
LINE
  5
4E2
330
1E
100
AcDbEntity
  8
0
100
AcDbLine
 10
361.526
 20
665.51945
 30
0.0
 11
361.526
 21
663.7074499999999
 31
0.0
  0
LINE
  5
4E3
330
1E
100
AcDbEntity
  8
0
100
AcDbLine
 10
361.75
 20
685.77245
 30
0.0
 11
361.75
 21
687.58545
 31
0.0
  0
LINE
  5
4E4
330
1E
100
AcDbEntity
  8
0
100
AcDbLine
 10
363.526
 20
663.7074499999999
 30
0.0
 11
363.526
 21
665.51945
 31
0.0
  0
LINE
  5
4E5
330
1E
100
AcDbEntity
  8
0
100
AcDbLine
 10
363.526
 20
665.51945
 30
0.0
 11
363.526
 21
663.7074499999999
 31
0.0
  0
LINE
  5
4E6
330
1E
100
AcDbEntity
  8
0
100
AcDbLine
 10
361.75
 20
687.58545
 30
0.0
 11
361.75
 21
685.77245
 31
0.0
  0
LINE
  5
4E7
330
1E
100
AcDbEntity
  8
0
100
AcDbLine
 10
363.526
 20
710.0734499999999
 30
0.0
 11
363.526
 21
708.26145
 31
0.0
  0
LINE
  5
4E8
330
1E
100
AcDbEntity
  8
0
100
AcDbLine
 10
361.526
 20
710.0734499999999
 30
0.0
 11
361.526
 21
708.26145
 31
0.0
  0
LINE
  5
4E9
330
1E
100
AcDbEntity
  8
0
100
AcDbLine
 10
361.526
 20
710.0734499999999
 30
0.0
 11
363.526
 21
710.0734499999999
 31
0.0
  0
LINE
  5
4EA
330
1E
100
AcDbEntity
  8
0
100
AcDbLine
 10
361.526
 20
708.26145
 30
0.0
 11
363.526
 21
708.26145
 31
0.0
  0
LINE
  5
4EB
330
1E
100
AcDbEntity
  8
0
100
AcDbLine
 10
361.526
 20
708.26145
 30
0.0
 11
361.526
 21
710.0734499999999
 31
0.0
  0
LINE
  5
4EC
330
1E
100
AcDbEntity
  8
0
100
AcDbLine
 10
364.634
 20
639.37345
 30
0.0
 11
366.366
 21
640.28045
 31
0.0
  0
LINE
  5
4ED
330
1E
100
AcDbEntity
  8
0
100
AcDbLine
 10
364.634
 20
639.37345
 30
0.0
 11
365.634
 21
637.8044499999999
 31
0.0
  0
LINE
  5
4EE
330
1E
100
AcDbEntity
  8
0
100
AcDbLine
 10
365.634
 20
637.8044499999999
 30
0.0
 11
367.3659999999999
 21
638.71045
 31
0.0
  0
LINE
  5
4EF
330
1E
100
AcDbEntity
  8
0
100
AcDbLine
 10
363.526
 20
708.26145
 30
0.0
 11
363.526
 21
710.0734499999999
 31
0.0
  0
LINE
  5
4F0
330
1E
100
AcDbEntity
  8
0
100
AcDbLine
 10
365.634
 20
736.8785642857139
 30
0.0
 11
365.634
 21
736.82145
 31
0.0
  0
LINE
  5
4F1
330
1E
100
AcDbEntity
  8
0
100
AcDbLine
 10
364.634
 20
735.2524499999999
 30
0.0
 11
366.366
 21
734.3454499999999
 31
0.0
  0
LINE
  5
4F2
330
1E
100
AcDbEntity
  8
0
100
AcDbLine
 10
364.634
 20
735.2524499999999
 30
0.0
 11
365.634
 21
736.82145
 31
0.0
  0
LINE
  5
4F3
330
1E
100
AcDbEntity
  8
0
100
AcDbLine
 10
366.366
 20
640.28045
 30
0.0
 11
367.3659999999999
 21
638.71045
 31
0.0
  0
LINE
  5
4F4
330
1E
100
AcDbEntity
  8
0
100
AcDbLine
 10
368.1919999999999
 20
653.93945
 30
0.0
 11
368.1919999999999
 21
655.7514499999999
 31
0.0
  0
LINE
  5
4F5
330
1E
100
AcDbEntity
  8
0
100
AcDbLine
 10
368.1919999999999
 20
653.93945
 30
0.0
 11
370.1919999999999
 21
653.93945
 31
0.0
  0
LINE
  5
4F6
330
1E
100
AcDbEntity
  8
0
100
AcDbLine
 10
368.1919999999999
 20
655.7514499999999
 30
0.0
 11
370.1919999999999
 21
655.7514499999999
 31
0.0
  0
LINE
  5
4F7
330
1E
100
AcDbEntity
  8
0
100
AcDbLine
 10
368.1919999999999
 20
655.7514499999999
 30
0.0
 11
368.1919999999999
 21
653.93945
 31
0.0
  0
LINE
  5
4F8
330
1E
100
AcDbEntity
  8
0
100
AcDbLine
 10
368.1919999999999
 20
720.2644499999999
 30
0.0
 11
368.1919999999999
 21
718.45145
 31
0.0
  0
LINE
  5
4F9
330
1E
100
AcDbEntity
  8
0
100
AcDbLine
 10
368.1919999999999
 20
720.2644499999999
 30
0.0
 11
370.1919999999999
 21
720.2644499999999
 31
0.0
  0
LINE
  5
4FA
330
1E
100
AcDbEntity
  8
0
100
AcDbLine
 10
368.75
 20
674.8964499999999
 30
0.0
 11
368.75
 21
676.70845
 31
0.0
  0
LINE
  5
4FB
330
1E
100
AcDbEntity
  8
0
100
AcDbLine
 10
368.75
 20
674.8964499999999
 30
0.0
 11
370.75
 21
674.8964499999999
 31
0.0
  0
LINE
  5
4FC
330
1E
100
AcDbEntity
  8
0
100
AcDbLine
 10
368.75
 20
676.70845
 30
0.0
 11
370.75
 21
676.70845
 31
0.0
  0
LINE
  5
4FD
330
1E
100
AcDbEntity
  8
0
100
AcDbLine
 10
368.75
 20
676.70845
 30
0.0
 11
368.75
 21
674.8964499999999
 31
0.0
  0
LINE
  5
4FE
330
1E
100
AcDbEntity
  8
0
100
AcDbLine
 10
368.75
 20
698.8844499999999
 30
0.0
 11
368.75
 21
697.07145
 31
0.0
  0
LINE
  5
4FF
330
1E
100
AcDbEntity
  8
0
100
AcDbLine
 10
368.75
 20
698.8844499999999
 30
0.0
 11
370.75
 21
698.8844499999999
 31
0.0
  0
LINE
  5
500
330
1E
100
AcDbEntity
  8
0
100
AcDbLine
 10
368.75
 20
697.07145
 30
0.0
 11
370.75
 21
697.07145
 31
0.0
  0
LINE
  5
501
330
1E
100
AcDbEntity
  8
0
100
AcDbLine
 10
368.75
 20
697.07145
 30
0.0
 11
368.75
 21
698.8844499999999
 31
0.0
  0
LINE
  5
502
330
1E
100
AcDbEntity
  8
0
100
AcDbLine
 10
368.1919999999999
 20
718.45145
 30
0.0
 11
370.1919999999999
 21
718.45145
 31
0.0
  0
LINE
  5
503
330
1E
100
AcDbEntity
  8
0
100
AcDbLine
 10
368.1919999999999
 20
718.45145
 30
0.0
 11
368.1919999999999
 21
720.2644499999999
 31
0.0
  0
LINE
  5
504
330
1E
100
AcDbEntity
  8
0
100
AcDbLine
 10
366.366
 20
734.3454499999999
 30
0.0
 11
367.3659999999999
 21
735.9154499999999
 31
0.0
  0
LINE
  5
505
330
1E
100
AcDbEntity
  8
0
100
AcDbLine
 10
365.634
 20
736.82145
 30
0.0
 11
365.634
 21
736.8785642857139
 31
0.0
  0
LINE
  5
506
330
1E
100
AcDbEntity
  8
0
100
AcDbLine
 10
365.634
 20
736.82145
 30
0.0
 11
367.3659999999999
 21
735.9154499999999
 31
0.0
  0
LINE
  5
507
330
1E
100
AcDbEntity
  8
0
100
AcDbLine
 10
367.35
 20
738.39845
 30
0.0
 11
374.4499999999999
 21
734.04745
 31
0.0
  0
LINE
  5
508
330
1E
100
AcDbEntity
  8
0
100
AcDbLine
 10
370.1919999999999
 20
653.93945
 30
0.0
 11
370.1919999999999
 21
655.7514499999999
 31
0.0
  0
LINE
  5
509
330
1E
100
AcDbEntity
  8
0
100
AcDbLine
 10
370.1919999999999
 20
655.7514499999999
 30
0.0
 11
370.1919999999999
 21
653.93945
 31
0.0
  0
LINE
  5
50A
330
1E
100
AcDbEntity
  8
0
100
AcDbLine
 10
370.1919999999999
 20
720.2644499999999
 30
0.0
 11
370.1919999999999
 21
718.45145
 31
0.0
  0
LINE
  5
50B
330
1E
100
AcDbEntity
  8
0
100
AcDbLine
 10
370.75
 20
674.8964499999999
 30
0.0
 11
370.75
 21
676.70845
 31
0.0
  0
LINE
  5
50C
330
1E
100
AcDbEntity
  8
0
100
AcDbLine
 10
370.75
 20
676.70845
 30
0.0
 11
370.75
 21
674.8964499999999
 31
0.0
  0
LINE
  5
50D
330
1E
100
AcDbEntity
  8
0
100
AcDbLine
 10
371.75
 20
686.513024468085
 30
0.0
 11
371.75
 21
685.98445
 31
0.0
  0
LINE
  5
50E
330
1E
100
AcDbEntity
  8
0
100
AcDbLine
 10
373.75
 20
685.98445
 30
0.0
 11
373.75
 21
687.79645
 31
0.0
  0
LINE
  5
50F
330
1E
100
AcDbEntity
  8
0
100
AcDbLine
 10
371.75
 20
685.98445
 30
0.0
 11
371.75
 21
687.79645
 31
0.0
  0
LINE
  5
510
330
1E
100
AcDbEntity
  8
0
100
AcDbLine
 10
371.75
 20
685.98445
 30
0.0
 11
373.75
 21
685.98445
 31
0.0
  0
LINE
  5
511
330
1E
100
AcDbEntity
  8
0
100
AcDbLine
 10
371.75
 20
685.98445
 30
0.0
 11
371.75
 21
686.513024468085
 31
0.0
  0
LINE
  5
512
330
1E
100
AcDbEntity
  8
0
100
AcDbLine
 10
371.75
 20
687.79645
 30
0.0
 11
373.75
 21
687.79645
 31
0.0
  0
LINE
  5
513
330
1E
100
AcDbEntity
  8
0
100
AcDbLine
 10
371.75
 20
687.79645
 30
0.0
 11
371.75
 21
685.98445
 31
0.0
  0
LINE
  5
514
330
1E
100
AcDbEntity
  8
0
100
AcDbLine
 10
373.9689999999999
 20
643.76745
 30
0.0
 11
373.9689999999999
 21
645.58045
 31
0.0
  0
LINE
  5
515
330
1E
100
AcDbEntity
  8
0
100
AcDbLine
 10
373.9689999999999
 20
643.76745
 30
0.0
 11
375.9689999999999
 21
643.76745
 31
0.0
  0
LINE
  5
516
330
1E
100
AcDbEntity
  8
0
100
AcDbLine
 10
373.9689999999999
 20
645.58045
 30
0.0
 11
375.9689999999999
 21
645.58045
 31
0.0
  0
LINE
  5
517
330
1E
100
AcDbEntity
  8
0
100
AcDbLine
 10
373.9689999999999
 20
645.58045
 30
0.0
 11
373.9689999999999
 21
643.76745
 31
0.0
  0
LINE
  5
518
330
1E
100
AcDbEntity
  8
0
100
AcDbLine
 10
373.75
 20
687.79645
 30
0.0
 11
373.75
 21
685.98445
 31
0.0
  0
LINE
  5
519
330
1E
100
AcDbEntity
  8
0
100
AcDbLine
 10
370.75
 20
698.8844499999999
 30
0.0
 11
370.75
 21
697.07145
 31
0.0
  0
LINE
  5
51A
330
1E
100
AcDbEntity
  8
0
100
AcDbLine
 10
370.75
 20
697.07145
 30
0.0
 11
370.75
 21
698.8844499999999
 31
0.0
  0
LINE
  5
51B
330
1E
100
AcDbEntity
  8
0
100
AcDbLine
 10
370.1919999999999
 20
718.45145
 30
0.0
 11
370.1919999999999
 21
720.2644499999999
 31
0.0
  0
LINE
  5
51C
330
1E
100
AcDbEntity
  8
0
100
AcDbLine
 10
373.9689999999999
 20
730.8584499999999
 30
0.0
 11
373.9689999999999
 21
729.04545
 31
0.0
  0
LINE
  5
51D
330
1E
100
AcDbEntity
  8
0
100
AcDbLine
 10
373.9689999999999
 20
730.8584499999999
 30
0.0
 11
375.9689999999999
 21
730.8584499999999
 31
0.0
  0
LINE
  5
51E
330
1E
100
AcDbEntity
  8
0
100
AcDbLine
 10
373.9689999999999
 20
729.04545
 30
0.0
 11
375.9689999999999
 21
729.04545
 31
0.0
  0
LINE
  5
51F
330
1E
100
AcDbEntity
  8
0
100
AcDbLine
 10
373.9689999999999
 20
729.04545
 30
0.0
 11
373.9689999999999
 21
730.8584499999999
 31
0.0
  0
LINE
  5
520
330
1E
100
AcDbEntity
  8
0
100
AcDbLine
 10
374.4499999999999
 20
734.04745
 30
0.0
 11
380.75
 21
728.97245
 31
0.0
  0
LINE
  5
521
330
1E
100
AcDbEntity
  8
0
100
AcDbLine
 10
368.85
 20
740.75445
 30
0.0
 11
376.25
 21
736.2234499999999
 31
0.0
  0
LINE
  5
522
330
1E
100
AcDbEntity
  8
0
100
AcDbLine
 10
369.35
 20
741.90245
 30
0.0
 11
376.85
 21
737.37045
 31
0.0
  0
LINE
  5
523
330
1E
100
AcDbEntity
  8
0
100
AcDbLine
 10
375.5269999999999
 20
662.2044499999999
 30
0.0
 11
375.5269999999999
 21
664.01745
 31
0.0
  0
LINE
  5
524
330
1E
100
AcDbEntity
  8
0
100
AcDbLine
 10
375.5269999999999
 20
662.2044499999999
 30
0.0
 11
377.5269999999999
 21
662.2044499999999
 31
0.0
  0
LINE
  5
525
330
1E
100
AcDbEntity
  8
0
100
AcDbLine
 10
375.5269999999999
 20
664.01745
 30
0.0
 11
377.5269999999999
 21
664.01745
 31
0.0
  0
LINE
  5
526
330
1E
100
AcDbEntity
  8
0
100
AcDbLine
 10
375.5269999999999
 20
664.01745
 30
0.0
 11
375.5269999999999
 21
662.2044499999999
 31
0.0
  0
LINE
  5
527
330
1E
100
AcDbEntity
  8
0
100
AcDbLine
 10
375.5269999999999
 20
711.9984500000001
 30
0.0
 11
375.5269999999999
 21
710.18645
 31
0.0
  0
LINE
  5
528
330
1E
100
AcDbEntity
  8
0
100
AcDbLine
 10
375.5269999999999
 20
711.9984500000001
 30
0.0
 11
377.5269999999999
 21
711.9984500000001
 31
0.0
  0
LINE
  5
529
330
1E
100
AcDbEntity
  8
0
100
AcDbLine
 10
375.9689999999999
 20
643.76745
 30
0.0
 11
375.9689999999999
 21
645.58045
 31
0.0
  0
LINE
  5
52A
330
1E
100
AcDbEntity
  8
0
100
AcDbLine
 10
375.9689999999999
 20
645.58045
 30
0.0
 11
375.9689999999999
 21
643.76745
 31
0.0
  0
LINE
  5
52B
330
1E
100
AcDbEntity
  8
0
100
AcDbLine
 10
375.5269999999999
 20
710.18645
 30
0.0
 11
377.5269999999999
 21
710.18645
 31
0.0
  0
LINE
  5
52C
330
1E
100
AcDbEntity
  8
0
100
AcDbLine
 10
375.5269999999999
 20
710.18645
 30
0.0
 11
375.5269999999999
 21
711.9984500000001
 31
0.0
  0
LINE
  5
52D
330
1E
100
AcDbEntity
  8
0
100
AcDbLine
 10
375.9689999999999
 20
730.8584499999999
 30
0.0
 11
375.9689999999999
 21
729.04545
 31
0.0
  0
LINE
  5
52E
330
1E
100
AcDbEntity
  8
0
100
AcDbLine
 10
375.9689999999999
 20
729.04545
 30
0.0
 11
375.9689999999999
 21
730.8584499999999
 31
0.0
  0
LINE
  5
52F
330
1E
100
AcDbEntity
  8
0
100
AcDbLine
 10
376.25
 20
736.2234499999999
 30
0.0
 11
382.9499999999999
 21
730.96645
 31
0.0
  0
LINE
  5
530
330
1E
100
AcDbEntity
  8
0
100
AcDbLine
 10
374.4499999999999
 20
641.42345
 30
0.0
 11
380.75
 21
646.49845
 31
0.0
  0
LINE
  5
531
330
1E
100
AcDbEntity
  8
0
100
AcDbLine
 10
367.35
 20
637.07345
 30
0.0
 11
374.4499999999999
 21
641.42345
 31
0.0
  0
LINE
  5
532
330
1E
100
AcDbEntity
  8
0
100
AcDbLine
 10
376.85
 20
737.37045
 30
0.0
 11
383.65
 21
732.02345
 31
0.0
  0
LINE
  5
533
330
1E
100
AcDbEntity
  8
0
100
AcDbLine
 10
376.85
 20
746.2454499999999
 30
0.0
 11
383.65
 21
740.89845
 31
0.0
  0
LINE
  5
534
330
1E
100
AcDbEntity
  8
0
100
AcDbLine
 10
376.25
 20
639.2484500000001
 30
0.0
 11
382.9499999999999
 21
644.50445
 31
0.0
  0
LINE
  5
535
330
1E
100
AcDbEntity
  8
0
100
AcDbLine
 10
368.85
 20
634.7164499999999
 30
0.0
 11
376.25
 21
639.2484500000001
 31
0.0
  0
LINE
  5
536
330
1E
100
AcDbEntity
  8
0
100
AcDbLine
 10
380.75
 20
646.49845
 30
0.0
 11
386.35
 21
652.20845
 31
0.0
  0
LINE
  5
537
330
1E
100
AcDbEntity
  8
0
100
AcDbLine
 10
382.9499999999999
 20
644.50445
 30
0.0
 11
388.75
 21
650.57745
 31
0.0
  0
LINE
  5
538
330
1E
100
AcDbEntity
  8
0
100
AcDbLine
 10
383.65
 20
644.29245
 30
0.0
 11
389.55
 21
650.45545
 31
0.0
  0
LINE
  5
539
330
1E
100
AcDbEntity
  8
0
100
AcDbLine
 10
384.748
 20
652.13445
 30
0.0
 11
384.748
 21
653.9474499999999
 31
0.0
  0
LINE
  5
53A
330
1E
100
AcDbEntity
  8
0
100
AcDbLine
 10
382.748
 20
652.13445
 30
0.0
 11
382.748
 21
653.9474499999999
 31
0.0
  0
LINE
  5
53B
330
1E
100
AcDbEntity
  8
0
100
AcDbLine
 10
382.748
 20
652.13445
 30
0.0
 11
384.748
 21
652.13445
 31
0.0
  0
LINE
  5
53C
330
1E
100
AcDbEntity
  8
0
100
AcDbLine
 10
377.5269999999999
 20
662.2044499999999
 30
0.0
 11
377.5269999999999
 21
664.01745
 31
0.0
  0
LINE
  5
53D
330
1E
100
AcDbEntity
  8
0
100
AcDbLine
 10
382.748
 20
654.5938804635759
 30
0.0
 11
382.748
 21
653.9474499999999
 31
0.0
  0
LINE
  5
53E
330
1E
100
AcDbEntity
  8
0
100
AcDbLine
 10
382.748
 20
653.9474499999999
 30
0.0
 11
384.748
 21
653.9474499999999
 31
0.0
  0
LINE
  5
53F
330
1E
100
AcDbEntity
  8
0
100
AcDbLine
 10
382.748
 20
653.9474499999999
 30
0.0
 11
382.748
 21
654.5938804635759
 31
0.0
  0
LINE
  5
540
330
1E
100
AcDbEntity
  8
0
100
AcDbLine
 10
382.748
 20
653.9474499999999
 30
0.0
 11
382.748
 21
652.13445
 31
0.0
  0
LINE
  5
541
330
1E
100
AcDbEntity
  8
0
100
AcDbLine
 10
384.748
 20
653.9474499999999
 30
0.0
 11
384.748
 21
652.13445
 31
0.0
  0
LINE
  5
542
330
1E
100
AcDbEntity
  8
0
100
AcDbLine
 10
377.5269999999999
 20
664.01745
 30
0.0
 11
377.5269999999999
 21
662.2044499999999
 31
0.0
  0
LINE
  5
543
330
1E
100
AcDbEntity
  8
0
100
AcDbLine
 10
389.305
 20
662.21445
 30
0.0
 11
389.305
 21
664.02745
 31
0.0
  0
LINE
  5
544
330
1E
100
AcDbEntity
  8
0
100
AcDbLine
 10
389.305
 20
662.21445
 30
0.0
 11
391.305
 21
662.21445
 31
0.0
  0
LINE
  5
545
330
1E
100
AcDbEntity
  8
0
100
AcDbLine
 10
389.305
 20
664.02745
 30
0.0
 11
391.305
 21
664.02745
 31
0.0
  0
LINE
  5
546
330
1E
100
AcDbEntity
  8
0
100
AcDbLine
 10
389.305
 20
664.02745
 30
0.0
 11
389.305
 21
662.21445
 31
0.0
  0
LINE
  5
547
330
1E
100
AcDbEntity
  8
0
100
AcDbLine
 10
386.35
 20
652.20845
 30
0.0
 11
391.1499999999999
 21
658.64345
 31
0.0
  0
LINE
  5
548
330
1E
100
AcDbEntity
  8
0
100
AcDbLine
 10
391.305
 20
662.21445
 30
0.0
 11
391.305
 21
664.02745
 31
0.0
  0
LINE
  5
549
330
1E
100
AcDbEntity
  8
0
100
AcDbLine
 10
391.305
 20
664.02745
 30
0.0
 11
391.305
 21
662.21445
 31
0.0
  0
LINE
  5
54A
330
1E
100
AcDbEntity
  8
0
100
AcDbLine
 10
391.1499999999999
 20
658.64345
 30
0.0
 11
394.75
 21
665.44045
 31
0.0
  0
LINE
  5
54B
330
1E
100
AcDbEntity
  8
0
100
AcDbLine
 10
388.75
 20
650.57745
 30
0.0
 11
393.75
 21
657.2834499999999
 31
0.0
  0
LINE
  5
54C
330
1E
100
AcDbEntity
  8
0
100
AcDbLine
 10
393.75
 20
657.2834499999999
 30
0.0
 11
397.4499999999999
 21
664.3524499999999
 31
0.0
  0
LINE
  5
54D
330
1E
100
AcDbEntity
  8
0
100
AcDbLine
 10
389.55
 20
650.45545
 30
0.0
 11
394.55
 21
657.25345
 31
0.0
  0
LINE
  5
54E
330
1E
100
AcDbEntity
  8
0
100
AcDbLine
 10
397.4499999999999
 20
664.3524499999999
 30
0.0
 11
400.35
 21
672.32845
 31
0.0
  0
LINE
  5
54F
330
1E
100
AcDbEntity
  8
0
100
AcDbLine
 10
394.55
 20
657.25345
 30
0.0
 11
398.45
 21
664.4134499999999
 31
0.0
  0
LINE
  5
550
330
1E
100
AcDbEntity
  8
0
100
AcDbLine
 10
381.639
 20
674.20045
 30
0.0
 11
381.639
 21
676.01345
 31
0.0
  0
LINE
  5
551
330
1E
100
AcDbEntity
  8
0
100
AcDbLine
 10
381.639
 20
674.20045
 30
0.0
 11
383.639
 21
674.20045
 31
0.0
  0
LINE
  5
552
330
1E
100
AcDbEntity
  8
0
100
AcDbLine
 10
383.639
 20
674.20045
 30
0.0
 11
383.639
 21
676.01345
 31
0.0
  0
LINE
  5
553
330
1E
100
AcDbEntity
  8
0
100
AcDbLine
 10
381.639
 20
676.01345
 30
0.0
 11
383.639
 21
676.01345
 31
0.0
  0
LINE
  5
554
330
1E
100
AcDbEntity
  8
0
100
AcDbLine
 10
381.639
 20
676.01345
 30
0.0
 11
381.639
 21
676.2861839890709
 31
0.0
  0
LINE
  5
555
330
1E
100
AcDbEntity
  8
0
100
AcDbLine
 10
381.639
 20
676.01345
 30
0.0
 11
381.639
 21
674.20045
 31
0.0
  0
LINE
  5
556
330
1E
100
AcDbEntity
  8
0
100
AcDbLine
 10
383.639
 20
676.01345
 30
0.0
 11
383.639
 21
674.20045
 31
0.0
  0
LINE
  5
557
330
1E
100
AcDbEntity
  8
0
100
AcDbLine
 10
395.861
 20
674.2094499999999
 30
0.0
 11
395.861
 21
676.02245
 31
0.0
  0
LINE
  5
558
330
1E
100
AcDbEntity
  8
0
100
AcDbLine
 10
393.861
 20
674.2094499999999
 30
0.0
 11
393.861
 21
676.02245
 31
0.0
  0
LINE
  5
559
330
1E
100
AcDbEntity
  8
0
100
AcDbLine
 10
393.861
 20
674.2094499999999
 30
0.0
 11
395.861
 21
674.2094499999999
 31
0.0
  0
LINE
  5
55A
330
1E
100
AcDbEntity
  8
0
100
AcDbLine
 10
381.639
 20
676.2861839890709
 30
0.0
 11
381.639
 21
676.01345
 31
0.0
  0
LINE
  5
55B
330
1E
100
AcDbEntity
  8
0
100
AcDbLine
 10
393.861
 20
676.02245
 30
0.0
 11
395.861
 21
676.02245
 31
0.0
  0
LINE
  5
55C
330
1E
100
AcDbEntity
  8
0
100
AcDbLine
 10
393.861
 20
676.02245
 30
0.0
 11
393.861
 21
674.2094499999999
 31
0.0
  0
LINE
  5
55D
330
1E
100
AcDbEntity
  8
0
100
AcDbLine
 10
395.861
 20
676.02245
 30
0.0
 11
395.861
 21
674.2094499999999
 31
0.0
  0
LINE
  5
55E
330
1E
100
AcDbEntity
  8
0
100
AcDbLine
 10
394.75
 20
665.44045
 30
0.0
 11
397.4499999999999
 21
673.59745
 31
0.0
  0
LINE
  5
55F
330
1E
100
AcDbEntity
  8
0
100
AcDbLine
 10
397.4499999999999
 20
673.59745
 30
0.0
 11
399.1499999999999
 21
680.03245
 31
0.0
  0
LINE
  5
560
330
1E
100
AcDbEntity
  8
0
100
AcDbLine
 10
399.1499999999999
 20
680.03245
 30
0.0
 11
399.75
 21
687.73545
 31
0.0
  0
LINE
  5
561
330
1E
100
AcDbEntity
  8
0
100
AcDbLine
 10
400.35
 20
672.32845
 30
0.0
 11
402.05
 21
679.8504499999999
 31
0.0
  0
LINE
  5
562
330
1E
100
AcDbEntity
  8
0
100
AcDbLine
 10
398.45
 20
664.4134499999999
 30
0.0
 11
401.25
 21
672.11645
 31
0.0
  0
LINE
  5
563
330
1E
100
AcDbEntity
  8
0
100
AcDbLine
 10
402.05
 20
679.8504499999999
 30
0.0
 11
402.7499999999999
 21
687.73545
 31
0.0
  0
LINE
  5
564
330
1E
100
AcDbEntity
  8
0
100
AcDbLine
 10
401.25
 20
672.11645
 30
0.0
 11
403.0499999999999
 21
680.18245
 31
0.0
  0
LINE
  5
565
330
1E
100
AcDbEntity
  8
0
100
AcDbLine
 10
385.7499999999999
 20
686.19545
 30
0.0
 11
385.7499999999999
 21
688.00845
 31
0.0
  0
LINE
  5
566
330
1E
100
AcDbEntity
  8
0
100
AcDbLine
 10
383.75
 20
686.19545
 30
0.0
 11
383.75
 21
688.00845
 31
0.0
  0
LINE
  5
567
330
1E
100
AcDbEntity
  8
0
100
AcDbLine
 10
383.75
 20
686.19545
 30
0.0
 11
385.7499999999999
 21
686.19545
 31
0.0
  0
LINE
  5
568
330
1E
100
AcDbEntity
  8
0
100
AcDbLine
 10
383.75
 20
688.00845
 30
0.0
 11
385.7499999999999
 21
688.00845
 31
0.0
  0
LINE
  5
569
330
1E
100
AcDbEntity
  8
0
100
AcDbLine
 10
383.75
 20
688.00845
 30
0.0
 11
383.75
 21
686.19545
 31
0.0
  0
LINE
  5
56A
330
1E
100
AcDbEntity
  8
0
100
AcDbLine
 10
385.7499999999999
 20
688.00845
 30
0.0
 11
385.7499999999999
 21
686.19545
 31
0.0
  0
LINE
  5
56B
330
1E
100
AcDbEntity
  8
0
100
AcDbLine
 10
395.7499999999999
 20
686.55186025641
 30
0.0
 11
395.7499999999999
 21
686.4064499999999
 31
0.0
  0
LINE
  5
56C
330
1E
100
AcDbEntity
  8
0
100
AcDbLine
 10
395.7499999999999
 20
686.4064499999999
 30
0.0
 11
395.7499999999999
 21
688.21945
 31
0.0
  0
LINE
  5
56D
330
1E
100
AcDbEntity
  8
0
100
AcDbLine
 10
395.7499999999999
 20
686.4064499999999
 30
0.0
 11
397.75
 21
686.4064499999999
 31
0.0
  0
LINE
  5
56E
330
1E
100
AcDbEntity
  8
0
100
AcDbLine
 10
395.7499999999999
 20
686.4064499999999
 30
0.0
 11
395.7499999999999
 21
686.55186025641
 31
0.0
  0
LINE
  5
56F
330
1E
100
AcDbEntity
  8
0
100
AcDbLine
 10
397.75
 20
686.4064499999999
 30
0.0
 11
397.75
 21
688.21945
 31
0.0
  0
LINE
  5
570
330
1E
100
AcDbEntity
  8
0
100
AcDbLine
 10
395.7499999999999
 20
688.21945
 30
0.0
 11
397.75
 21
688.21945
 31
0.0
  0
LINE
  5
571
330
1E
100
AcDbEntity
  8
0
100
AcDbLine
 10
395.7499999999999
 20
688.21945
 30
0.0
 11
395.7499999999999
 21
688.7457064102569
 31
0.0
  0
LINE
  5
572
330
1E
100
AcDbEntity
  8
0
100
AcDbLine
 10
395.7499999999999
 20
688.21945
 30
0.0
 11
395.7499999999999
 21
686.4064499999999
 31
0.0
  0
LINE
  5
573
330
1E
100
AcDbEntity
  8
0
100
AcDbLine
 10
395.7499999999999
 20
688.7457064102569
 30
0.0
 11
395.7499999999999
 21
688.21945
 31
0.0
  0
LINE
  5
574
330
1E
100
AcDbEntity
  8
0
100
AcDbLine
 10
397.75
 20
688.21945
 30
0.0
 11
397.75
 21
686.4064499999999
 31
0.0
  0
LINE
  5
575
330
1E
100
AcDbEntity
  8
0
100
AcDbLine
 10
399.1499999999999
 20
695.4394499999999
 30
0.0
 11
399.75
 21
687.73545
 31
0.0
  0
LINE
  5
576
330
1E
100
AcDbEntity
  8
0
100
AcDbLine
 10
402.05
 20
695.62045
 30
0.0
 11
402.7499999999999
 21
687.73545
 31
0.0
  0
LINE
  5
577
330
1E
100
AcDbEntity
  8
0
100
AcDbLine
 10
381.639
 20
698.19045
 30
0.0
 11
383.639
 21
698.19045
 31
0.0
  0
LINE
  5
578
330
1E
100
AcDbEntity
  8
0
100
AcDbLine
 10
381.639
 20
698.19045
 30
0.0
 11
381.639
 21
698.4547812568311
 31
0.0
  0
LINE
  5
579
330
1E
100
AcDbEntity
  8
0
100
AcDbLine
 10
381.639
 20
698.19045
 30
0.0
 11
381.639
 21
700.00345
 31
0.0
  0
LINE
  5
57A
330
1E
100
AcDbEntity
  8
0
100
AcDbLine
 10
381.639
 20
698.4547812568311
 30
0.0
 11
381.639
 21
698.19045
 31
0.0
  0
LINE
  5
57B
330
1E
100
AcDbEntity
  8
0
100
AcDbLine
 10
383.639
 20
698.19045
 30
0.0
 11
383.639
 21
700.00345
 31
0.0
  0
LINE
  5
57C
330
1E
100
AcDbEntity
  8
0
100
AcDbLine
 10
393.861
 20
698.6034499999999
 30
0.0
 11
395.861
 21
698.6034499999999
 31
0.0
  0
LINE
  5
57D
330
1E
100
AcDbEntity
  8
0
100
AcDbLine
 10
393.861
 20
698.6034499999999
 30
0.0
 11
393.861
 21
700.41645
 31
0.0
  0
LINE
  5
57E
330
1E
100
AcDbEntity
  8
0
100
AcDbLine
 10
383.639
 20
700.00345
 30
0.0
 11
383.639
 21
698.19045
 31
0.0
  0
LINE
  5
57F
330
1E
100
AcDbEntity
  8
0
100
AcDbLine
 10
381.639
 20
700.00345
 30
0.0
 11
381.639
 21
698.19045
 31
0.0
  0
LINE
  5
580
330
1E
100
AcDbEntity
  8
0
100
AcDbLine
 10
381.639
 20
700.00345
 30
0.0
 11
383.639
 21
700.00345
 31
0.0
  0
LINE
  5
581
330
1E
100
AcDbEntity
  8
0
100
AcDbLine
 10
393.861
 20
701.0982061748629
 30
0.0
 11
393.861
 21
700.41645
 31
0.0
  0
LINE
  5
582
330
1E
100
AcDbEntity
  8
0
100
AcDbLine
 10
395.861
 20
700.41645
 30
0.0
 11
395.861
 21
698.6034499999999
 31
0.0
  0
LINE
  5
583
330
1E
100
AcDbEntity
  8
0
100
AcDbLine
 10
393.861
 20
700.41645
 30
0.0
 11
393.861
 21
698.6034499999999
 31
0.0
  0
LINE
  5
584
330
1E
100
AcDbEntity
  8
0
100
AcDbLine
 10
393.861
 20
700.41645
 30
0.0
 11
395.861
 21
700.41645
 31
0.0
  0
LINE
  5
585
330
1E
100
AcDbEntity
  8
0
100
AcDbLine
 10
393.861
 20
700.41645
 30
0.0
 11
393.861
 21
701.0982061748629
 31
0.0
  0
LINE
  5
586
330
1E
100
AcDbEntity
  8
0
100
AcDbLine
 10
395.861
 20
698.6034499999999
 30
0.0
 11
395.861
 21
700.41645
 31
0.0
  0
LINE
  5
587
330
1E
100
AcDbEntity
  8
0
100
AcDbLine
 10
397.4499999999999
 20
701.87445
 30
0.0
 11
399.1499999999999
 21
695.4394499999999
 31
0.0
  0
LINE
  5
588
330
1E
100
AcDbEntity
  8
0
100
AcDbLine
 10
400.35
 20
703.14245
 30
0.0
 11
402.05
 21
695.62045
 31
0.0
  0
LINE
  5
589
330
1E
100
AcDbEntity
  8
0
100
AcDbLine
 10
401.25
 20
704.1994499999999
 30
0.0
 11
403.0499999999999
 21
696.13345
 31
0.0
  0
LINE
  5
58A
330
1E
100
AcDbEntity
  8
0
100
AcDbLine
 10
403.0499999999999
 20
696.13345
 30
0.0
 11
403.7499999999999
 21
688.15845
 31
0.0
  0
LINE
  5
58B
330
1E
100
AcDbEntity
  8
0
100
AcDbLine
 10
403.7499999999999
 20
688.15845
 30
0.0
 11
403.7499999999999
 21
697.0334499999999
 31
0.0
  0
LINE
  5
58C
330
1E
100
AcDbEntity
  8
0
100
AcDbLine
 10
377.5269999999999
 20
710.18645
 30
0.0
 11
377.5269999999999
 21
711.9984500000001
 31
0.0
  0
LINE
  5
58D
330
1E
100
AcDbEntity
  8
0
100
AcDbLine
 10
377.5269999999999
 20
711.9984500000001
 30
0.0
 11
377.5269999999999
 21
710.18645
 31
0.0
  0
LINE
  5
58E
330
1E
100
AcDbEntity
  8
0
100
AcDbLine
 10
391.305
 20
712.4114499999999
 30
0.0
 11
391.305
 21
710.5984499999999
 31
0.0
  0
LINE
  5
58F
330
1E
100
AcDbEntity
  8
0
100
AcDbLine
 10
389.305
 20
712.4114499999999
 30
0.0
 11
389.305
 21
710.5984499999999
 31
0.0
  0
LINE
  5
590
330
1E
100
AcDbEntity
  8
0
100
AcDbLine
 10
389.305
 20
712.4114499999999
 30
0.0
 11
391.305
 21
712.4114499999999
 31
0.0
  0
LINE
  5
591
330
1E
100
AcDbEntity
  8
0
100
AcDbLine
 10
389.305
 20
710.5984499999999
 30
0.0
 11
391.305
 21
710.5984499999999
 31
0.0
  0
LINE
  5
592
330
1E
100
AcDbEntity
  8
0
100
AcDbLine
 10
389.305
 20
710.5984499999999
 30
0.0
 11
389.305
 21
712.4114499999999
 31
0.0
  0
LINE
  5
593
330
1E
100
AcDbEntity
  8
0
100
AcDbLine
 10
391.305
 20
710.5984499999999
 30
0.0
 11
391.305
 21
712.4114499999999
 31
0.0
  0
LINE
  5
594
330
1E
100
AcDbEntity
  8
0
100
AcDbLine
 10
391.1499999999999
 20
716.8284499999999
 30
0.0
 11
394.75
 21
710.03045
 31
0.0
  0
LINE
  5
595
330
1E
100
AcDbEntity
  8
0
100
AcDbLine
 10
394.75
 20
710.03045
 30
0.0
 11
397.4499999999999
 21
701.87445
 31
0.0
  0
LINE
  5
596
330
1E
100
AcDbEntity
  8
0
100
AcDbLine
 10
393.75
 20
718.18745
 30
0.0
 11
397.4499999999999
 21
711.11845
 31
0.0
  0
LINE
  5
597
330
1E
100
AcDbEntity
  8
0
100
AcDbLine
 10
397.4499999999999
 20
711.11845
 30
0.0
 11
400.35
 21
703.14245
 31
0.0
  0
LINE
  5
598
330
1E
100
AcDbEntity
  8
0
100
AcDbLine
 10
382.748
 20
720.67845
 30
0.0
 11
384.748
 21
720.67845
 31
0.0
  0
LINE
  5
599
330
1E
100
AcDbEntity
  8
0
100
AcDbLine
 10
382.748
 20
720.67845
 30
0.0
 11
382.748
 21
722.4914499999999
 31
0.0
  0
LINE
  5
59A
330
1E
100
AcDbEntity
  8
0
100
AcDbLine
 10
384.748
 20
720.67845
 30
0.0
 11
384.748
 21
722.4914499999999
 31
0.0
  0
LINE
  5
59B
330
1E
100
AcDbEntity
  8
0
100
AcDbLine
 10
394.55
 20
719.0634499999999
 30
0.0
 11
398.45
 21
711.90345
 31
0.0
  0
LINE
  5
59C
330
1E
100
AcDbEntity
  8
0
100
AcDbLine
 10
398.45
 20
711.90345
 30
0.0
 11
401.25
 21
704.1994499999999
 31
0.0
  0
LINE
  5
59D
330
1E
100
AcDbEntity
  8
0
100
AcDbLine
 10
384.748
 20
722.6842966315789
 30
0.0
 11
384.748
 21
722.4914499999999
 31
0.0
  0
LINE
  5
59E
330
1E
100
AcDbEntity
  8
0
100
AcDbLine
 10
382.748
 20
722.4914499999999
 30
0.0
 11
382.748
 21
720.67845
 31
0.0
  0
LINE
  5
59F
330
1E
100
AcDbEntity
  8
0
100
AcDbLine
 10
382.748
 20
722.4914499999999
 30
0.0
 11
384.748
 21
722.4914499999999
 31
0.0
  0
LINE
  5
5A0
330
1E
100
AcDbEntity
  8
0
100
AcDbLine
 10
384.748
 20
722.4914499999999
 30
0.0
 11
384.748
 21
722.6842966315789
 31
0.0
  0
LINE
  5
5A1
330
1E
100
AcDbEntity
  8
0
100
AcDbLine
 10
384.748
 20
722.4914499999999
 30
0.0
 11
384.748
 21
720.67845
 31
0.0
  0
LINE
  5
5A2
330
1E
100
AcDbEntity
  8
0
100
AcDbLine
 10
380.75
 20
728.97245
 30
0.0
 11
386.35
 21
723.26245
 31
0.0
  0
LINE
  5
5A3
330
1E
100
AcDbEntity
  8
0
100
AcDbLine
 10
386.35
 20
723.26245
 30
0.0
 11
391.1499999999999
 21
716.8284499999999
 31
0.0
  0
LINE
  5
5A4
330
1E
100
AcDbEntity
  8
0
100
AcDbLine
 10
382.9499999999999
 20
730.96645
 30
0.0
 11
388.75
 21
724.89445
 31
0.0
  0
LINE
  5
5A5
330
1E
100
AcDbEntity
  8
0
100
AcDbLine
 10
388.75
 20
724.89445
 30
0.0
 11
393.75
 21
718.18745
 31
0.0
  0
LINE
  5
5A6
330
1E
100
AcDbEntity
  8
0
100
AcDbLine
 10
383.65
 20
732.02345
 30
0.0
 11
389.55
 21
725.86045
 31
0.0
  0
LINE
  5
5A7
330
1E
100
AcDbEntity
  8
0
100
AcDbLine
 10
389.55
 20
725.86045
 30
0.0
 11
394.55
 21
719.0634499999999
 31
0.0
  0
LINE
  5
5A8
330
1E
100
AcDbEntity
  8
0
100
AcDbLine
 10
383.65
 20
740.89845
 30
0.0
 11
389.55
 21
734.73545
 31
0.0
  0
LINE
  5
5A9
330
1E
100
AcDbEntity
  8
0
100
AcDbLine
 10
389.55
 20
734.73545
 30
0.0
 11
394.55
 21
727.9384499999999
 31
0.0
  0
LINE
  5
5AA
330
1E
100
AcDbEntity
  8
0
100
AcDbLine
 10
394.55
 20
727.9384499999999
 30
0.0
 11
398.45
 21
720.77845
 31
0.0
  0
LINE
  5
5AB
330
1E
100
AcDbEntity
  8
0
100
AcDbLine
 10
398.45
 20
720.77845
 30
0.0
 11
401.25
 21
713.0744499999999
 31
0.0
  0
LINE
  5
5AC
330
1E
100
AcDbEntity
  8
0
100
AcDbLine
 10
401.25
 20
713.0744499999999
 30
0.0
 11
403.0499999999999
 21
705.00845
 31
0.0
  0
LINE
  5
5AD
330
1E
100
AcDbEntity
  8
0
100
AcDbLine
 10
403.0499999999999
 20
705.00845
 30
0.0
 11
403.7499999999999
 21
697.0334499999999
 31
0.0
  0
LINE
  5
5AE
330
1E
100
AcDbEntity
  8
0
100
AcDbLine
 10
403.7499999999999
 20
697.0334499999999
 30
0.0
 11
403.7499999999999
 21
688.15845
 31
0.0
  0
LINE
  5
5AF
330
1E
100
AcDbEntity
  8
0
100
AcDbLine
 10
403.0499999999999
 20
680.18245
 30
0.0
 11
403.7499999999999
 21
688.15845
 31
0.0
  0
LINE
  5
5B0
330
1E
100
AcDbEntity
  8
0
100
AcDbLine
 10
376.85
 20
638.94545
 30
0.0
 11
383.65
 21
644.29245
 31
0.0
  0
LINE
  5
5B1
330
1E
100
AcDbEntity
  8
0
100
AcDbLine
 10
369.35
 20
634.4144499999999
 30
0.0
 11
376.85
 21
638.94545
 31
0.0
  0
LINE
  5
5B2
330
1E
100
AcDbEntity
  8
0
100
AcDbLine
 10
361.45
 20
630.87945
 30
0.0
 11
369.35
 21
634.4144499999999
 31
0.0
  0
LINE
  5
5B3
330
1E
100
AcDbEntity
  8
0
100
AcDbLine
 10
352.95
 20
628.34145
 30
0.0
 11
361.45
 21
630.87945
 31
0.0
  0
LINE
  5
5B4
330
1E
100
AcDbEntity
  8
0
100
AcDbLine
 10
344.05
 20
626.71045
 30
0.0
 11
352.95
 21
628.34145
 31
0.0
  0
LINE
  5
5B5
330
1E
100
AcDbEntity
  8
0
100
AcDbLine
 10
335.25
 20
626.07645
 30
0.0
 11
344.05
 21
626.71045
 31
0.0
  0
LINE
  5
5B6
330
1E
100
AcDbEntity
  8
0
100
AcDbLine
 10
326.75
 20
745.64845
 30
0.0
 11
335.25
 21
746.19245
 31
0.0
  0
LINE
  5
5B7
330
1E
100
AcDbEntity
  8
0
100
AcDbLine
 10
335.25
 20
748.9114499999999
 30
0.0
 11
343.9499999999999
 21
748.27745
 31
0.0
  0
LINE
  5
5B8
330
1E
100
AcDbEntity
  8
0
100
AcDbLine
 10
335.25
 20
750.2404499999999
 30
0.0
 11
344.05
 21
749.60545
 31
0.0
  0
LINE
  5
5B9
330
1E
100
AcDbEntity
  8
0
100
AcDbLine
 10
344.05
 20
749.60545
 30
0.0
 11
352.95
 21
747.97445
 31
0.0
  0
LINE
  5
5BA
330
1E
100
AcDbEntity
  8
0
100
AcDbLine
 10
369.35
 20
750.77745
 30
0.0
 11
376.85
 21
746.2454499999999
 31
0.0
  0
LINE
  5
5BB
330
1E
100
AcDbEntity
  8
0
100
AcDbLine
 10
361.45
 20
754.31145
 30
0.0
 11
369.35
 21
750.77745
 31
0.0
  0
LINE
  5
5BC
330
1E
100
AcDbEntity
  8
0
100
AcDbLine
 10
352.95
 20
756.84945
 30
0.0
 11
361.45
 21
754.31145
 31
0.0
  0
LINE
  5
5BD
330
1E
100
AcDbEntity
  8
0
100
AcDbLine
 10
344.05
 20
758.48045
 30
0.0
 11
352.95
 21
756.84945
 31
0.0
  0
LINE
  5
5BE
330
1E
100
AcDbEntity
  8
0
100
AcDbLine
 10
335.25
 20
759.11545
 30
0.0
 11
344.05
 21
758.48045
 31
0.0
  0
LINE
  5
5BF
330
1E
100
AcDbEntity
  8
0
100
AcDbLine
 10
326.55
 20
748.27745
 30
0.0
 11
335.25
 21
748.9114499999999
 31
0.0
  0
LINE
  5
5C0
330
1E
100
AcDbEntity
  8
0
100
AcDbLine
 10
326.4499999999999
 20
758.48045
 30
0.0
 11
335.25
 21
759.11545
 31
0.0
  0
LINE
  5
5C1
330
1E
100
AcDbEntity
  8
0
100
AcDbLine
 10
239.25
 20
533.51345
 30
0.0
 11
239.25
 21
502.91345
 31
0.0
  0
LINE
  5
5C2
330
1E
100
AcDbEntity
  8
0
100
AcDbLine
 10
235.25
 20
533.51345
 30
0.0
 11
239.25
 21
533.51345
 31
0.0
  0
LINE
  5
5C3
330
1E
100
AcDbEntity
  8
0
100
AcDbLine
 10
231.7499999999999
 20
533.01345
 30
0.0
 11
235.25
 21
533.01345
 31
0.0
  0
LINE
  5
5C4
330
1E
100
AcDbEntity
  8
0
100
AcDbLine
 10
231.7499999999999
 20
533.01345
 30
0.0
 11
231.7499999999999
 21
502.31345
 31
0.0
  0
LINE
  5
5C5
330
1E
100
AcDbEntity
  8
0
100
AcDbLine
 10
231.25
 20
533.51345
 30
0.0
 11
235.25
 21
533.51345
 31
0.0
  0
LINE
  5
5C6
330
1E
100
AcDbEntity
  8
0
100
AcDbLine
 10
231.25
 20
533.51345
 30
0.0
 11
231.25
 21
502.91345
 31
0.0
  0
LINE
  5
5C7
330
1E
100
AcDbEntity
  8
0
100
AcDbLine
 10
231.25
 20
533.51345
 30
0.0
 11
231.7499999999999
 21
533.01345
 31
0.0
  0
LINE
  5
5C8
330
1E
100
AcDbEntity
  8
0
100
AcDbLine
 10
145.9859999999999
 20
529.51345
 30
0.0
 11
185.25
 21
529.51345
 31
0.0
  0
LINE
  5
5C9
330
1E
100
AcDbEntity
  8
0
100
AcDbLine
 10
145.9859999999999
 20
529.51345
 30
0.0
 11
146.25
 21
529.05245
 31
0.0
  0
LINE
  5
5CA
330
1E
100
AcDbEntity
  8
0
100
AcDbLine
 10
70.25
 20
498.51345
 30
0.0
 11
70.25
 21
494.5134499999999
 31
0.0
  0
LINE
  5
5CB
330
1E
100
AcDbEntity
  8
0
100
AcDbLine
 10
70.25
 20
498.51345
 30
0.0
 11
70.25
 21
502.51345
 31
0.0
  0
LINE
  5
5CC
330
1E
100
AcDbEntity
  8
0
100
AcDbLine
 10
31.75
 20
494.71345
 30
0.0
 11
31.75
 21
464.01345
 31
0.0
  0
LINE
  5
5CD
330
1E
100
AcDbEntity
  8
0
100
AcDbLine
 10
0.7499999999999979
 20
495.0134499999999
 30
0.0
 11
0.7499999999999979
 21
498.51345
 31
0.0
  0
LINE
  5
5CE
330
1E
100
AcDbEntity
  8
0
100
AcDbLine
 10
0.7499999999999979
 20
495.0134499999999
 30
0.0
 11
31.45
 21
495.0134499999999
 31
0.0
  0
LINE
  5
5CF
330
1E
100
AcDbEntity
  8
0
100
AcDbLine
 10
0.25
 20
494.5134499999999
 30
0.0
 11
30.85
 21
494.5134499999999
 31
0.0
  0
LINE
  5
5D0
330
1E
100
AcDbEntity
  8
0
100
AcDbLine
 10
0.249999999999998
 20
494.5134499999999
 30
0.0
 11
0.249999999999998
 21
498.51345
 31
0.0
  0
LINE
  5
5D1
330
1E
100
AcDbEntity
  8
0
100
AcDbLine
 10
0.249999999999998
 20
494.5134499999999
 30
0.0
 11
30.85
 21
494.5134499999999
 31
0.0
  0
LINE
  5
5D2
330
1E
100
AcDbEntity
  8
0
100
AcDbLine
 10
0.249999999999998
 20
494.5134499999999
 30
0.0
 11
0.7499999999999979
 21
495.0134499999999
 31
0.0
  0
LINE
  5
5D7
330
1E
100
AcDbEntity
  8
0
100
AcDbLine
 10
316.094
 20
81.67244999999999
 30
0.0
 11
323.169
 21
102.3214499999999
 31
0.0
  0
LINE
  5
5D8
330
1E
100
AcDbEntity
  8
0
100
AcDbLine
 10
186.6785037052229
 20
18.6325490736015
 30
0.0
 11
192.057761881369
 21
15.30750192966559
 31
0.0
  0
ENDSEC
  0
SECTION
  2
OBJECTS
  0
DICTIONARY
  5
C
330
0
100
AcDbDictionary
281
     1
  3
ACAD_GROUP
350
D
  3
ACAD_LAYOUT
350
19
  3
ACAD_MLINESTYLE
350
16
  3
ACAD_PLOTSETTINGS
350
18
  3
ACAD_PLOTSTYLENAME
350
E
  3
AcDbVariableDictionary
350
5D9
  0
DICTIONARY
  5
D
102
{ACAD_REACTORS
330
C
102
}
330
C
100
AcDbDictionary
281
     1
  0
DICTIONARY
  5
19
102
{ACAD_REACTORS
330
C
102
}
330
C
100
AcDbDictionary
281
     1
  3
Layout1
350
1D
  3
Model
350
21
  0
DICTIONARY
  5
16
102
{ACAD_REACTORS
330
C
102
}
330
C
100
AcDbDictionary
281
     1
  3
Standard
350
17
  0
DICTIONARY
  5
18
102
{ACAD_REACTORS
330
C
102
}
330
C
100
AcDbDictionary
281
     1
  0
ACDBDICTIONARYWDFLT
  5
E
102
{ACAD_REACTORS
330
C
102
}
330
C
100
AcDbDictionary
281
     1
  3
Normal
350
F
100
AcDbDictionaryWithDefault
340
F
  0
DICTIONARY
  5
5D9
102
{ACAD_REACTORS
330
C
102
}
330
C
100
AcDbDictionary
281
     1
  3
DIMASSOC
350
5DA
  0
LAYOUT
  5
1D
102
{ACAD_REACTORS
330
19
102
}
330
19
100
AcDbPlotSettings
  1

  2
hp deskjet 980c series
  4

  6

 40
0.0
 41
0.0
 42
0.0
 43
0.0
 44
0.0
 45
0.0
 46
0.0
 47
0.0
 48
0.0
 49
0.0
140
0.0
141
0.0
142
1.0
143
1.0
 70
   688
 72
     0
 73
     0
 74
     5
  7

 75
    16
147
1.0
148
0.0
149
0.0
100
AcDbLayout
  1
Layout1
 70
     1
 71
     1
 10
0.0
 20
0.0
 11
12.0
 21
9.0
 12
0.0
 22
0.0
 32
0.0
 14
1.000000000000000E+20
 24
1.000000000000000E+20
 34
1.000000000000000E+20
 15
-1.000000000000000E+20
 25
-1.000000000000000E+20
 35
-1.000000000000000E+20
146
0.0
 13
0.0
 23
0.0
 33
0.0
 16
1.0
 26
0.0
 36
0.0
 17
0.0
 27
1.0
 37
0.0
 76
     0
330
1A
  0
LAYOUT
  5
21
102
{ACAD_REACTORS
330
19
102
}
330
19
100
AcDbPlotSettings
  1

  2
hp deskjet 980c series
  4

  6

 40
0.0
 41
0.0
 42
0.0
 43
0.0
 44
0.0
 45
0.0
 46
0.0
 47
0.0
 48
0.0
 49
0.0
140
0.0
141
0.0
142
1.0
143
1.0
 70
  1712
 72
     0
 73
     0
 74
     0
  7

 75
     0
147
1.0
148
0.0
149
0.0
100
AcDbLayout
  1
Model
 70
     1
 71
     0
 10
0.0
 20
0.0
 11
12.0
 21
9.0
 12
0.0
 22
0.0
 32
0.0
 14
0.0
 24
0.0
 34
0.0
 15
0.0
 25
0.0
 35
0.0
146
0.0
 13
0.0
 23
0.0
 33
0.0
 16
1.0
 26
0.0
 36
0.0
 17
0.0
 27
1.0
 37
0.0
 76
     0
330
1E
  0
MLINESTYLE
  5
17
102
{ACAD_REACTORS
330
16
102
}
330
16
100
AcDbMlineStyle
  2
STANDARD
 70
     0
  3

 62
   256
 51
90.0
 52
90.0
 71
     2
 49
0.5
 62
   256
  6
BYLAYER
 49
-0.5
 62
   256
  6
BYLAYER
  0
ACDBPLACEHOLDER
  5
F
102
{ACAD_REACTORS
330
E
102
}
330
E
  0
DICTIONARYVAR
  5
5DA
102
{ACAD_REACTORS
330
5D9
102
}
330
5D9
100
DictionaryVariables
280
     0
  1
1
  0
ENDSEC
  0
EOF
