  0
SECTION
  2
HEADER
  9
$ACADVER
  1
AC1015
  9
$ACADMAINTVER
 70
    13
  9
$DWGCODEPAGE
  3
ANSI_1252
  9
$INSBASE
 10
0.0
 20
0.0
 30
0.0
  9
$EXTMIN
 10
0.0000000000000009
 20
0.000000000000012
 30
0.0
  9
$EXTMAX
 10
62.0
 20
249.0
 30
0.0
  9
$LIMMIN
 10
0.0
 20
0.0
  9
$LIMMAX
 10
12.0
 20
9.0
  9
$ORTHOMODE
 70
     0
  9
$REGENMODE
 70
     1
  9
$FILLMODE
 70
     1
  9
$QTEXTMODE
 70
     0
  9
$MIRRTEXT
 70
     1
  9
$LTSCALE
 40
1.0
  9
$ATTMODE
 70
     1
  9
$TEXTSIZE
 40
0.2
  9
$TRACEWID
 40
0.05
  9
$TEXTSTYLE
  7
STANDARD
  9
$CLAYER
  8
0
  9
$CELTYPE
  6
CONTINUOUS
  9
$CECOLOR
 62
   256
  9
$CELTSCALE
 40
1.0
  9
$DISPSILH
 70
     0
  9
$DIMSCALE
 40
1.0
  9
$DIMASZ
 40
0.18
  9
$DIMEXO
 40
0.0625
  9
$DIMDLI
 40
0.38
  9
$DIMRND
 40
0.0
  9
$DIMDLE
 40
0.0
  9
$DIMEXE
 40
0.18
  9
$DIMTP
 40
0.0
  9
$DIMTM
 40
0.0
  9
$DIMTXT
 40
0.18
  9
$DIMCEN
 40
0.09
  9
$DIMTSZ
 40
0.0
  9
$DIMTOL
 70
     0
  9
$DIMLIM
 70
     0
  9
$DIMTIH
 70
     1
  9
$DIMTOH
 70
     1
  9
$DIMSE1
 70
     0
  9
$DIMSE2
 70
     0
  9
$DIMTAD
 70
     0
  9
$DIMZIN
 70
     0
  9
$DIMBLK
  1

  9
$DIMASO
 70
     1
  9
$DIMSHO
 70
     1
  9
$DIMPOST
  1

  9
$DIMAPOST
  1

  9
$DIMALT
 70
     0
  9
$DIMALTD
 70
     2
  9
$DIMALTF
 40
25.4
  9
$DIMLFAC
 40
1.0
  9
$DIMTOFL
 70
     0
  9
$DIMTVP
 40
0.0
  9
$DIMTIX
 70
     0
  9
$DIMSOXD
 70
     0
  9
$DIMSAH
 70
     0
  9
$DIMBLK1
  1

  9
$DIMBLK2
  1

  9
$DIMSTYLE
  2
STANDARD
  9
$DIMCLRD
 70
     0
  9
$DIMCLRE
 70
     0
  9
$DIMCLRT
 70
     0
  9
$DIMTFAC
 40
1.0
  9
$DIMGAP
 40
0.09
  9
$DIMJUST
 70
     0
  9
$DIMSD1
 70
     0
  9
$DIMSD2
 70
     0
  9
$DIMTOLJ
 70
     1
  9
$DIMTZIN
 70
     0
  9
$DIMALTZ
 70
     0
  9
$DIMALTTZ
 70
     0
  9
$DIMUPT
 70
     0
  9
$DIMDEC
 70
     4
  9
$DIMTDEC
 70
     4
  9
$DIMALTU
 70
     2
  9
$DIMALTTD
 70
     2
  9
$DIMTXSTY
  7
STANDARD
  9
$DIMAUNIT
 70
     0
  9
$DIMADEC
 70
     0
  9
$DIMALTRND
 40
0.0
  9
$DIMAZIN
 70
     0
  9
$DIMDSEP
 70
    46
  9
$DIMATFIT
 70
     3
  9
$DIMFRAC
 70
     0
  9
$DIMLDRBLK
  1

  9
$DIMLUNIT
 70
     2
  9
$DIMLWD
 70
    -2
  9
$DIMLWE
 70
    -2
  9
$DIMTMOVE
 70
     0
  9
$LUNITS
 70
     2
  9
$LUPREC
 70
     4
  9
$SKETCHINC
 40
0.1
  9
$FILLETRAD
 40
0.0
  9
$AUNITS
 70
     0
  9
$AUPREC
 70
     0
  9
$MENU
  1
.
  9
$ELEVATION
 40
0.0
  9
$PELEVATION
 40
0.0
  9
$THICKNESS
 40
0.0
  9
$LIMCHECK
 70
     0
  9
$CHAMFERA
 40
0.0
  9
$CHAMFERB
 40
0.0
  9
$CHAMFERC
 40
0.0
  9
$CHAMFERD
 40
0.0
  9
$SKPOLY
 70
     0
  9
$TDCREATE
 40
2454687.467024189
  9
$TDUCREATE
 40
2454687.383690856
  9
$TDUPDATE
 40
2454720.927187314
  9
$TDUUPDATE
 40
2454720.843853981
  9
$TDINDWG
 40
0.0004725463
  9
$TDUSRTIMER
 40
0.0004723611
  9
$USRTIMER
 70
     1
  9
$ANGBASE
 50
0.0
  9
$ANGDIR
 70
     0
  9
$PDMODE
 70
     0
  9
$PDSIZE
 40
0.0
  9
$PLINEWID
 40
0.0
  9
$SPLFRAME
 70
     0
  9
$SPLINETYPE
 70
     6
  9
$SPLINESEGS
 70
     8
  9
$HANDSEED
  5
1E6
  9
$SURFTAB1
 70
     6
  9
$SURFTAB2
 70
     6
  9
$SURFTYPE
 70
     6
  9
$SURFU
 70
     6
  9
$SURFV
 70
     6
  9
$UCSBASE
  2

  9
$UCSNAME
  2

  9
$UCSORG
 10
0.0
 20
0.0
 30
0.0
  9
$UCSXDIR
 10
1.0
 20
0.0
 30
0.0
  9
$UCSYDIR
 10
0.0
 20
1.0
 30
0.0
  9
$UCSORTHOREF
  2

  9
$UCSORTHOVIEW
 70
     1
  9
$UCSORGTOP
 10
0.0
 20
0.0
 30
0.0
  9
$UCSORGBOTTOM
 10
0.0
 20
0.0
 30
0.0
  9
$UCSORGLEFT
 10
0.0
 20
0.0
 30
0.0
  9
$UCSORGRIGHT
 10
0.0
 20
0.0
 30
0.0
  9
$UCSORGFRONT
 10
0.0
 20
0.0
 30
0.0
  9
$UCSORGBACK
 10
0.0
 20
0.0
 30
0.0
  9
$PUCSBASE
  2

  9
$PUCSNAME
  2

  9
$PUCSORG
 10
0.0
 20
0.0
 30
0.0
  9
$PUCSXDIR
 10
1.0
 20
0.0
 30
0.0
  9
$PUCSYDIR
 10
0.0
 20
1.0
 30
0.0
  9
$PUCSORTHOREF
  2

  9
$PUCSORTHOVIEW
 70
     0
  9
$PUCSORGTOP
 10
0.0
 20
0.0
 30
0.0
  9
$PUCSORGBOTTOM
 10
0.0
 20
0.0
 30
0.0
  9
$PUCSORGLEFT
 10
0.0
 20
0.0
 30
0.0
  9
$PUCSORGRIGHT
 10
0.0
 20
0.0
 30
0.0
  9
$PUCSORGFRONT
 10
0.0
 20
0.0
 30
0.0
  9
$PUCSORGBACK
 10
0.0
 20
0.0
 30
0.0
  9
$USERI1
 70
     0
  9
$USERI2
 70
     0
  9
$USERI3
 70
     0
  9
$USERI4
 70
     0
  9
$USERI5
 70
     0
  9
$USERR1
 40
0.0
  9
$USERR2
 40
0.0
  9
$USERR3
 40
0.0
  9
$USERR4
 40
0.0
  9
$USERR5
 40
0.0
  9
$WORLDVIEW
 70
     1
  9
$SHADEDGE
 70
     3
  9
$SHADEDIF
 70
    70
  9
$TILEMODE
 70
     1
  9
$MAXACTVP
 70
    64
  9
$PINSBASE
 10
0.0
 20
0.0
 30
0.0
  9
$PLIMCHECK
 70
     0
  9
$PEXTMIN
 10
1.000000000000000E+20
 20
1.000000000000000E+20
 30
1.000000000000000E+20
  9
$PEXTMAX
 10
-1.000000000000000E+20
 20
-1.000000000000000E+20
 30
-1.000000000000000E+20
  9
$PLIMMIN
 10
0.0
 20
0.0
  9
$PLIMMAX
 10
12.0
 20
9.0
  9
$UNITMODE
 70
     0
  9
$VISRETAIN
 70
     1
  9
$PLINEGEN
 70
     0
  9
$PSLTSCALE
 70
     1
  9
$TREEDEPTH
 70
  3020
  9
$CMLSTYLE
  2
Standard
  9
$CMLJUST
 70
     0
  9
$CMLSCALE
 40
1.0
  9
$PROXYGRAPHICS
 70
     1
  9
$MEASUREMENT
 70
     0
  9
$CELWEIGHT
370
    -1
  9
$ENDCAPS
280
     0
  9
$JOINSTYLE
280
     0
  9
$LWDISPLAY
290
     0
  9
$INSUNITS
 70
     0
  9
$HYPERLINKBASE
  1

  9
$STYLESHEET
  1

  9
$XEDIT
290
     1
  9
$CEPSNTYPE
380
     0
  9
$PSTYLEMODE
290
     1
  9
$FINGERPRINTGUID
  2
{887B749A-D7D5-46D4-839C-2B6AFC4B8652}
  9
$VERSIONGUID
  2
{DE552831-181B-436B-883A-FB2239B239CE}
  9
$EXTNAMES
290
     1
  9
$PSVPSCALE
 40
0.0
  9
$OLESTARTUP
290
     0
  0
ENDSEC
  0
SECTION
  2
CLASSES
  0
CLASS
  1
ACDBDICTIONARYWDFLT
  2
AcDbDictionaryWithDefault
  3
AutoCAD 2000
 90
        0
280
     0
281
     0
  0
CLASS
  1
ACDBPLACEHOLDER
  2
AcDbPlaceHolder
  3
AutoCAD 2000
 90
        0
280
     0
281
     0
  0
CLASS
  1
LAYOUT
  2
AcDbLayout
  3
AutoCAD 2000
 90
        0
280
     0
281
     0
  0
CLASS
  1
DICTIONARYVAR
  2
AcDbDictionaryVar
  3
AutoCAD 2000
 90
        0
280
     0
281
     0
  0
ENDSEC
  0
SECTION
  2
TABLES
  0
TABLE
  2
VPORT
  5
F9
330
0
100
AcDbSymbolTable
 70
     3
  0
VPORT
  5
1E5
330
F9
100
AcDbSymbolTableRecord
100
AcDbViewportTableRecord
  2
*Active
 70
     0
 10
0.0
 20
0.0
 11
1.0
 21
1.0
 12
31.0
 22
124.5
 13
0.0
 23
0.0
 14
1.0
 24
1.0
 15
0.0
 25
0.0
 16
0.0
 26
0.0
 36
1.0
 17
0.0
 27
0.0
 37
0.0
 40
250.9104859335038
 41
2.078104993597951
 42
50.0
 43
0.0
 44
0.0
 50
0.0
 51
0.0
 71
     0
 72
   100
 73
     1
 74
     3
 75
     0
 76
     0
 77
     0
 78
     0
281
     0
 65
     1
110
0.0
120
0.0
130
0.0
111
1.0
121
0.0
131
0.0
112
0.0
122
1.0
132
0.0
 79
     1
146
0.0
  0
ENDTAB
  0
TABLE
  2
LTYPE
  5
F6
330
0
100
AcDbSymbolTable
 70
     1
  0
LTYPE
  5
104
330
F6
100
AcDbSymbolTableRecord
100
AcDbLinetypeTableRecord
  2
ByBlock
 70
     0
  3

 72
    65
 73
     0
 40
0.0
  0
LTYPE
  5
105
330
F6
100
AcDbSymbolTableRecord
100
AcDbLinetypeTableRecord
  2
ByLayer
 70
     0
  3

 72
    65
 73
     0
 40
0.0
  0
LTYPE
  5
106
330
F6
100
AcDbSymbolTableRecord
100
AcDbLinetypeTableRecord
  2
CONTINUOUS
 70
     0
  3
Solid line
 72
    65
 73
     0
 40
0.0
  0
ENDTAB
  0
TABLE
  2
LAYER
  5
F3
330
0
100
AcDbSymbolTable
 70
     1
  0
LAYER
  5
101
330
F3
100
AcDbSymbolTableRecord
100
AcDbLayerTableRecord
  2
0
 70
     0
 62
     7
  6
CONTINUOUS
370
    -3
390
100
  0
ENDTAB
  0
TABLE
  2
STYLE
  5
F4
330
0
100
AcDbSymbolTable
 70
     1
  0
STYLE
  5
102
330
F4
100
AcDbSymbolTableRecord
100
AcDbTextStyleTableRecord
  2
STANDARD
 70
     0
 40
0.0
 41
1.0
 50
0.0
 71
     0
 42
0.2
  3
txt
  4

  0
ENDTAB
  0
TABLE
  2
VIEW
  5
F7
330
0
100
AcDbSymbolTable
 70
     0
  0
ENDTAB
  0
TABLE
  2
UCS
  5
F8
330
0
100
AcDbSymbolTable
 70
     0
  0
ENDTAB
  0
TABLE
  2
APPID
  5
FA
330
0
100
AcDbSymbolTable
 70
     1
  0
APPID
  5
103
330
FA
100
AcDbSymbolTableRecord
100
AcDbRegAppTableRecord
  2
ACAD
 70
     0
  0
ENDTAB
  0
TABLE
  2
DIMSTYLE
  5
FB
330
0
100
AcDbSymbolTable
 70
     1
100
AcDbDimStyleTable
 71
     0
  0
DIMSTYLE
105
114
330
FB
100
AcDbSymbolTableRecord
100
AcDbDimStyleTableRecord
  2
STANDARD
 70
     0
279
     2
340
102
  0
ENDTAB
  0
TABLE
  2
BLOCK_RECORD
  5
F2
330
0
100
AcDbSymbolTable
 70
     2
  0
BLOCK_RECORD
  5
10F
330
F2
100
AcDbSymbolTableRecord
100
AcDbBlockTableRecord
  2
*Model_Space
340
112
  0
BLOCK_RECORD
  5
10B
330
F2
100
AcDbSymbolTableRecord
100
AcDbBlockTableRecord
  2
*Paper_Space
340
10E
  0
BLOCK_RECORD
  5
116
330
F2
100
AcDbSymbolTableRecord
100
AcDbBlockTableRecord
  2
$MODEL_SPACE
340
0
  0
BLOCK_RECORD
  5
119
330
F2
100
AcDbSymbolTableRecord
100
AcDbBlockTableRecord
  2
$PAPER_SPACE
340
0
  0
ENDTAB
  0
ENDSEC
  0
SECTION
  2
BLOCKS
  0
BLOCK
  5
110
330
10F
100
AcDbEntity
  8
0
100
AcDbBlockBegin
  2
*Model_Space
 70
     0
 10
0.0
 20
0.0
 30
0.0
  3
*Model_Space
  1

  0
ENDBLK
  5
111
330
10F
100
AcDbEntity
  8
0
100
AcDbBlockEnd
  0
BLOCK
  5
10C
330
10B
100
AcDbEntity
 67
     1
  8
0
100
AcDbBlockBegin
  2
*Paper_Space
 70
     0
 10
0.0
 20
0.0
 30
0.0
  3
*Paper_Space
  1

  0
ENDBLK
  5
10D
330
10B
100
AcDbEntity
 67
     1
  8
0
100
AcDbBlockEnd
  0
BLOCK
  5
117
330
116
100
AcDbEntity
  8
0
100
AcDbBlockBegin
  2
$MODEL_SPACE
 70
     0
 10
0.0
 20
0.0
 30
0.0
  3
$MODEL_SPACE
  1

  0
ENDBLK
  5
118
330
116
100
AcDbEntity
  8
0
100
AcDbBlockEnd
  0
BLOCK
  5
11A
330
119
100
AcDbEntity
  8
0
100
AcDbBlockBegin
  2
$PAPER_SPACE
 70
     0
 10
0.0
 20
0.0
 30
0.0
  3
$PAPER_SPACE
  1

  0
ENDBLK
  5
11B
330
119
100
AcDbEntity
  8
0
100
AcDbBlockEnd
  0
ENDSEC
  0
SECTION
  2
ENTITIES
  0
LINE
  5
11C
330
10F
100
AcDbEntity
  8
0
100
AcDbLine
 10
20.4231
 20
9.597910000000007
 30
0.0
 11
21.52309999999999
 21
7.267070000000009
 31
0.0
  0
LINE
  5
11D
330
10F
100
AcDbEntity
  8
0
100
AcDbLine
 10
20.4231
 20
9.012410000000009
 30
0.0
 11
21.52309999999999
 21
6.681580000000009
 31
0.0
  0
LINE
  5
11E
330
10F
100
AcDbEntity
  8
0
100
AcDbLine
 10
20.4231
 20
8.426890000000009
 30
0.0
 11
21.52309999999999
 21
6.096090000000009
 31
0.0
  0
LINE
  5
11F
330
10F
100
AcDbEntity
  8
0
100
AcDbLine
 10
20.4231
 20
7.841360000000009
 30
0.0
 11
21.52309999999999
 21
5.510560000000008
 31
0.0
  0
LINE
  5
120
330
10F
100
AcDbEntity
  8
0
100
AcDbLine
 10
23.2154
 20
4.636560000000009
 30
0.0
 11
25.5
 21
3.124050000000008
 31
0.0
  0
LINE
  5
121
330
10F
100
AcDbEntity
  8
0
100
AcDbLine
 10
23.2154
 20
4.051090000000009
 30
0.0
 11
25.5
 21
2.538560000000008
 31
0.0
  0
LINE
  5
122
330
10F
100
AcDbEntity
  8
0
100
AcDbLine
 10
23.2154
 20
3.465560000000008
 30
0.0
 11
25.5
 21
1.953010000000009
 31
0.0
  0
LINE
  5
123
330
10F
100
AcDbEntity
  8
0
100
AcDbLine
 10
28.1231
 20
0.964679000000012
 30
0.0
 11
31.0
 21
0.5854940000000121
 31
0.0
  0
LINE
  5
124
330
10F
100
AcDbEntity
  8
0
100
AcDbLine
 10
25.5
 20
1.36755000000001
 30
0.0
 11
28.1231
 21
0.379182000000012
 31
0.0
  0
LINE
  5
125
330
10F
100
AcDbEntity
  8
0
100
AcDbLine
 10
31.0
 20
0.0000000000000121
 30
0.0
 11
33.8769
 21
0.387548000000012
 31
0.0
  0
LINE
  5
126
330
10F
100
AcDbEntity
  8
0
100
AcDbLine
 10
31.0
 20
0.000000000000012
 30
0.0
 11
33.8769
 21
0.387548000000012
 31
0.0
  0
LINE
  5
127
330
10F
100
AcDbEntity
  8
0
100
AcDbLine
 10
31.0
 20
1.17103000000001
 30
0.0
 11
33.8769
 21
1.55857000000001
 31
0.0
  0
LINE
  5
128
330
10F
100
AcDbEntity
  8
0
100
AcDbLine
 10
31.0
 20
0.5854940000000121
 30
0.0
 11
33.8769
 21
0.973020000000012
 31
0.0
  0
LINE
  5
129
330
10F
100
AcDbEntity
  8
0
100
AcDbLine
 10
33.8769
 20
0.973020000000012
 30
0.0
 11
36.5
 21
1.97812000000001
 31
0.0
  0
LINE
  5
12A
330
10F
100
AcDbEntity
  8
0
100
AcDbLine
 10
33.8769
 20
0.387548000000012
 30
0.0
 11
36.5
 21
1.39266000000001
 31
0.0
  0
LINE
  5
12B
330
10F
100
AcDbEntity
  8
0
100
AcDbLine
 10
28.1231
 20
0.379182000000012
 30
0.0
 11
31.0
 21
0.000000000000012
 31
0.0
  0
LINE
  5
12C
330
10F
100
AcDbEntity
  8
0
100
AcDbLine
 10
28.1231
 20
0.379182000000012
 30
0.0
 11
31.0
 21
0.0000000000000121
 31
0.0
  0
LINE
  5
12D
330
10F
100
AcDbEntity
  8
0
100
AcDbLine
 10
25.5
 20
4.880580000000009
 30
0.0
 11
28.1231
 21
3.892240000000009
 31
0.0
  0
LINE
  5
12E
330
10F
100
AcDbEntity
  8
0
100
AcDbLine
 10
25.5
 20
4.295060000000009
 30
0.0
 11
28.1231
 21
3.306720000000008
 31
0.0
  0
LINE
  5
12F
330
10F
100
AcDbEntity
  8
0
100
AcDbLine
 10
25.5
 20
3.709580000000008
 30
0.0
 11
28.1231
 21
2.721220000000008
 31
0.0
  0
LINE
  5
130
330
10F
100
AcDbEntity
  8
0
100
AcDbLine
 10
25.5
 20
3.124050000000008
 30
0.0
 11
28.1231
 21
2.13571000000001
 31
0.0
  0
LINE
  5
131
330
10F
100
AcDbEntity
  8
0
100
AcDbLine
 10
25.5
 20
2.538560000000008
 30
0.0
 11
28.1231
 21
1.55021000000001
 31
0.0
  0
LINE
  5
132
330
10F
100
AcDbEntity
  8
0
100
AcDbLine
 10
28.1231
 20
2.13571000000001
 30
0.0
 11
31.0
 21
1.75651000000001
 31
0.0
  0
LINE
  5
133
330
10F
100
AcDbEntity
  8
0
100
AcDbLine
 10
31.0
 20
1.75651000000001
 30
0.0
 11
33.8769
 21
2.144050000000009
 31
0.0
  0
LINE
  5
134
330
10F
100
AcDbEntity
  8
0
100
AcDbLine
 10
28.1231
 20
3.306720000000008
 30
0.0
 11
31.0
 21
2.927540000000009
 31
0.0
  0
LINE
  5
135
330
10F
100
AcDbEntity
  8
0
100
AcDbLine
 10
31.0
 20
2.342010000000009
 30
0.0
 11
33.8769
 21
2.729570000000008
 31
0.0
  0
LINE
  5
136
330
10F
100
AcDbEntity
  8
0
100
AcDbLine
 10
31.0
 20
3.513020000000008
 30
0.0
 11
33.8769
 21
3.900570000000008
 31
0.0
  0
LINE
  5
137
330
10F
100
AcDbEntity
  8
0
100
AcDbLine
 10
31.0
 20
2.927540000000009
 30
0.0
 11
33.8769
 21
3.315050000000008
 31
0.0
  0
LINE
  5
138
330
10F
100
AcDbEntity
  8
0
100
AcDbLine
 10
33.8769
 20
3.315050000000008
 30
0.0
 11
36.5
 21
4.320150000000008
 31
0.0
  0
LINE
  5
139
330
10F
100
AcDbEntity
  8
0
100
AcDbLine
 10
33.8769
 20
2.729570000000008
 30
0.0
 11
36.5
 21
3.734670000000008
 31
0.0
  0
LINE
  5
13A
330
10F
100
AcDbEntity
  8
0
100
AcDbLine
 10
28.1231
 20
2.721220000000008
 30
0.0
 11
31.0
 21
2.342010000000009
 31
0.0
  0
LINE
  5
13B
330
10F
100
AcDbEntity
  8
0
100
AcDbLine
 10
33.8769
 20
2.144050000000009
 30
0.0
 11
36.5
 21
3.149140000000008
 31
0.0
  0
LINE
  5
13C
330
10F
100
AcDbEntity
  8
0
100
AcDbLine
 10
36.5
 20
3.149140000000008
 30
0.0
 11
38.7846
 21
4.703450000000009
 31
0.0
  0
LINE
  5
13D
330
10F
100
AcDbEntity
  8
0
100
AcDbLine
 10
33.8769
 20
1.55857000000001
 30
0.0
 11
36.5
 21
2.563650000000008
 31
0.0
  0
LINE
  5
13E
330
10F
100
AcDbEntity
  8
0
100
AcDbLine
 10
36.5
 20
2.563650000000008
 30
0.0
 11
38.7846
 21
4.117960000000008
 31
0.0
  0
LINE
  5
13F
330
10F
100
AcDbEntity
  8
0
100
AcDbLine
 10
28.1231
 20
1.55021000000001
 30
0.0
 11
31.0
 21
1.17103000000001
 31
0.0
  0
LINE
  5
140
330
10F
100
AcDbEntity
  8
0
100
AcDbLine
 10
36.5
 20
1.97812000000001
 30
0.0
 11
38.7846
 21
3.532420000000008
 31
0.0
  0
LINE
  5
141
330
10F
100
AcDbEntity
  8
0
100
AcDbLine
 10
31.0
 20
3.805770000000008
 30
0.0
 11
33.816
 21
4.164590000000008
 31
0.0
  0
LINE
  5
142
330
10F
100
AcDbEntity
  8
0
100
AcDbLine
 10
28.184
 20
4.164590000000008
 30
0.0
 11
31.0
 21
3.805770000000008
 31
0.0
  0
LINE
  5
143
330
10F
100
AcDbEntity
  8
0
100
AcDbLine
 10
33.816
 20
4.164590000000008
 30
0.0
 11
36.45599999999999
 21
5.121440000000008
 31
0.0
  0
LINE
  5
144
330
10F
100
AcDbEntity
  8
0
100
AcDbLine
 10
33.8769
 20
3.900570000000008
 30
0.0
 11
36.5
 21
4.905680000000009
 31
0.0
  0
LINE
  5
145
330
10F
100
AcDbEntity
  8
0
100
AcDbLine
 10
28.1231
 20
3.892240000000009
 30
0.0
 11
31.0
 21
3.513020000000008
 31
0.0
  0
LINE
  5
146
330
10F
100
AcDbEntity
  8
0
100
AcDbLine
 10
36.5
 20
4.320150000000008
 30
0.0
 11
38.7846
 21
5.874490000000008
 31
0.0
  0
LINE
  5
147
330
10F
100
AcDbEntity
  8
0
100
AcDbLine
 10
36.5
 20
3.734670000000008
 30
0.0
 11
38.7846
 21
5.288960000000009
 31
0.0
  0
LINE
  5
148
330
10F
100
AcDbEntity
  8
0
100
AcDbLine
 10
36.5
 20
4.905680000000009
 30
0.0
 11
38.7846
 21
6.459970000000009
 31
0.0
  0
LINE
  5
149
330
10F
100
AcDbEntity
  8
0
100
AcDbLine
 10
38.7846
 20
4.703450000000009
 30
0.0
 11
40.4769
 21
6.798670000000008
 31
0.0
  0
LINE
  5
14A
330
10F
100
AcDbEntity
  8
0
100
AcDbLine
 10
38.7846
 20
4.117960000000008
 30
0.0
 11
40.4769
 21
6.213150000000008
 31
0.0
  0
LINE
  5
14B
330
10F
100
AcDbEntity
  8
0
100
AcDbLine
 10
38.7846
 20
3.532420000000008
 30
0.0
 11
40.4769
 21
5.627660000000009
 31
0.0
  0
LINE
  5
14C
330
10F
100
AcDbEntity
  8
0
100
AcDbLine
 10
25.5
 20
1.953010000000009
 30
0.0
 11
28.1231
 21
0.964679000000012
 31
0.0
  0
LINE
  5
14D
330
10F
100
AcDbEntity
  8
0
100
AcDbLine
 10
25.5
 20
1.953010000000009
 30
0.0
 11
28.1231
 21
0.964679000000012
 31
0.0
  0
LINE
  5
14E
330
10F
100
AcDbEntity
  8
0
100
AcDbLine
 10
36.5
 20
1.39266000000001
 30
0.0
 11
38.7846
 21
2.946930000000008
 31
0.0
  0
LINE
  5
14F
330
10F
100
AcDbEntity
  8
0
100
AcDbLine
 10
38.7846
 20
2.946930000000008
 30
0.0
 11
40.4769
 21
5.042130000000009
 31
0.0
  0
LINE
  5
150
330
10F
100
AcDbEntity
  8
0
100
AcDbLine
 10
25.5
 20
1.36755000000001
 30
0.0
 11
28.1231
 21
0.379182000000012
 31
0.0
  0
LINE
  5
151
330
10F
100
AcDbEntity
  8
0
100
AcDbLine
 10
23.2154
 20
2.880040000000009
 30
0.0
 11
25.5
 21
1.36755000000001
 31
0.0
  0
LINE
  5
152
330
10F
100
AcDbEntity
  8
0
100
AcDbLine
 10
21.45199999999999
 20
8.829190000000009
 30
0.0
 11
23.212
 21
6.716170000000008
 31
0.0
  0
LINE
  5
153
330
10F
100
AcDbEntity
  8
0
100
AcDbLine
 10
21.52309999999999
 20
8.438040000000009
 30
0.0
 11
23.2154
 21
6.393070000000008
 31
0.0
  0
LINE
  5
154
330
10F
100
AcDbEntity
  8
0
100
AcDbLine
 10
21.52309999999999
 20
7.852540000000009
 30
0.0
 11
23.2154
 21
5.807570000000008
 31
0.0
  0
LINE
  5
155
330
10F
100
AcDbEntity
  8
0
100
AcDbLine
 10
21.52309999999999
 20
7.267070000000009
 30
0.0
 11
23.2154
 21
5.222070000000008
 31
0.0
  0
LINE
  5
156
330
10F
100
AcDbEntity
  8
0
100
AcDbLine
 10
21.52309999999999
 20
6.681580000000009
 30
0.0
 11
23.2154
 21
4.636560000000009
 31
0.0
  0
LINE
  5
157
330
10F
100
AcDbEntity
  8
0
100
AcDbLine
 10
21.52309999999999
 20
6.096090000000009
 30
0.0
 11
23.2154
 21
4.051090000000009
 31
0.0
  0
LINE
  5
158
330
10F
100
AcDbEntity
  8
0
100
AcDbLine
 10
23.2154
 20
5.807570000000008
 30
0.0
 11
25.5
 21
4.295060000000009
 31
0.0
  0
LINE
  5
159
330
10F
100
AcDbEntity
  8
0
100
AcDbLine
 10
25.544
 20
5.121440000000008
 30
0.0
 11
28.184
 21
4.164590000000008
 31
0.0
  0
LINE
  5
15A
330
10F
100
AcDbEntity
  8
0
100
AcDbLine
 10
36.45599999999999
 20
5.121440000000008
 30
0.0
 11
38.788
 21
6.716170000000008
 31
0.0
  0
LINE
  5
15B
330
10F
100
AcDbEntity
  8
0
100
AcDbLine
 10
38.7846
 20
5.874490000000008
 30
0.0
 11
40.4769
 21
7.969630000000009
 31
0.0
  0
LINE
  5
15C
330
10F
100
AcDbEntity
  8
0
100
AcDbLine
 10
38.7846
 20
5.288960000000009
 30
0.0
 11
40.4769
 21
7.384210000000009
 31
0.0
  0
LINE
  5
15D
330
10F
100
AcDbEntity
  8
0
100
AcDbLine
 10
23.2154
 20
5.222070000000008
 30
0.0
 11
25.5
 21
3.709580000000008
 31
0.0
  0
LINE
  5
15E
330
10F
100
AcDbEntity
  8
0
100
AcDbLine
 10
23.212
 20
6.716170000000008
 30
0.0
 11
25.544
 21
5.121440000000008
 31
0.0
  0
LINE
  5
15F
330
10F
100
AcDbEntity
  8
0
100
AcDbLine
 10
38.788
 20
6.716170000000008
 30
0.0
 11
40.548
 21
8.829190000000009
 31
0.0
  0
LINE
  5
160
330
10F
100
AcDbEntity
  8
0
100
AcDbLine
 10
38.7846
 20
6.459970000000009
 30
0.0
 11
40.4769
 21
8.555160000000009
 31
0.0
  0
LINE
  5
161
330
10F
100
AcDbEntity
  8
0
100
AcDbLine
 10
23.2154
 20
6.393070000000008
 30
0.0
 11
25.5
 21
4.880580000000009
 31
0.0
  0
LINE
  5
162
330
10F
100
AcDbEntity
  8
0
100
AcDbLine
 10
40.4769
 20
7.969630000000009
 30
0.0
 11
41.5769
 21
10.3926
 31
0.0
  0
LINE
  5
163
330
10F
100
AcDbEntity
  8
0
100
AcDbLine
 10
40.4769
 20
7.384210000000009
 30
0.0
 11
41.5769
 21
9.807030000000008
 31
0.0
  0
LINE
  5
164
330
10F
100
AcDbEntity
  8
0
100
AcDbLine
 10
40.4769
 20
6.798670000000008
 30
0.0
 11
41.5769
 21
9.221510000000007
 31
0.0
  0
LINE
  5
165
330
10F
100
AcDbEntity
  8
0
100
AcDbLine
 10
40.4769
 20
6.213150000000008
 30
0.0
 11
41.5769
 21
8.635980000000008
 31
0.0
  0
LINE
  5
166
330
10F
100
AcDbEntity
  8
0
100
AcDbLine
 10
40.4769
 20
5.627660000000009
 30
0.0
 11
41.5769
 21
8.050480000000009
 31
0.0
  0
LINE
  5
167
330
10F
100
AcDbEntity
  8
0
100
AcDbLine
 10
40.548
 20
8.829190000000009
 30
0.0
 11
41.604
 21
11.22139999999999
 31
0.0
  0
LINE
  5
168
330
10F
100
AcDbEntity
  8
0
100
AcDbLine
 10
40.4769
 20
8.555160000000009
 30
0.0
 11
41.5769
 21
10.978
 31
0.0
  0
LINE
  5
169
330
10F
100
AcDbEntity
  8
0
100
AcDbLine
 10
41.5769
 20
9.807030000000008
 30
0.0
 11
42.0
 21
12.4555
 31
0.0
  0
LINE
  5
16A
330
10F
100
AcDbEntity
  8
0
100
AcDbLine
 10
41.5769
 20
9.221510000000007
 30
0.0
 11
42.0
 21
11.8701
 31
0.0
  0
LINE
  5
16B
330
10F
100
AcDbEntity
  8
0
100
AcDbLine
 10
41.5769
 20
8.635980000000008
 30
0.0
 11
42.0
 21
11.2846
 31
0.0
  0
LINE
  5
16C
330
10F
100
AcDbEntity
  8
0
100
AcDbLine
 10
41.5769
 20
8.050480000000009
 30
0.0
 11
42.0
 21
10.69909999999999
 31
0.0
  0
LINE
  5
16D
330
10F
100
AcDbEntity
  8
0
100
AcDbLine
 10
21.52309999999999
 20
5.510560000000008
 30
0.0
 11
23.2154
 21
3.465560000000008
 31
0.0
  0
LINE
  5
16E
330
10F
100
AcDbEntity
  8
0
100
AcDbLine
 10
40.4769
 20
5.042130000000009
 30
0.0
 11
41.5769
 21
7.464950000000009
 31
0.0
  0
LINE
  5
16F
330
10F
100
AcDbEntity
  8
0
100
AcDbLine
 10
41.5769
 20
7.464950000000009
 30
0.0
 11
42.0
 21
10.11349999999998
 31
0.0
  0
LINE
  5
170
330
10F
100
AcDbEntity
  8
0
100
AcDbLine
 10
21.52309999999999
 20
4.925070000000008
 30
0.0
 11
23.2154
 21
2.880040000000009
 31
0.0
  0
LINE
  5
171
330
10F
100
AcDbEntity
  8
0
100
AcDbLine
 10
20.4231
 20
7.255870000000007
 30
0.0
 11
21.52309999999999
 21
4.925070000000008
 31
0.0
  0
LINE
  5
172
330
10F
100
AcDbEntity
  8
0
100
AcDbLine
 10
20.4231
 20
10.1834
 30
0.0
 11
21.52309999999999
 21
7.852540000000009
 31
0.0
  0
LINE
  5
173
330
10F
100
AcDbEntity
  8
0
100
AcDbLine
 10
41.5769
 20
10.3926
 30
0.0
 11
42.0
 21
13.0411
 31
0.0
  0
LINE
  5
174
330
10F
100
AcDbEntity
  8
0
100
AcDbLine
 10
20.0
 20
23.58119999999999
 30
0.0
 11
20.0
 21
27.735
 31
0.0
  0
LINE
  5
175
330
10F
100
AcDbEntity
  8
0
100
AcDbLine
 10
20.0
 20
23.58119999999999
 30
0.0
 11
20.0
 21
20.1127
 31
0.0
  0
LINE
  5
176
330
10F
100
AcDbEntity
  8
0
100
AcDbLine
 10
20.0
 20
20.1127
 30
0.0
 11
20.0
 21
13.7731
 31
0.0
  0
LINE
  5
177
330
10F
100
AcDbEntity
  8
0
100
AcDbLine
 10
20.0
 20
20.1127
 30
0.0
 11
20.0
 21
23.58119999999999
 31
0.0
  0
LINE
  5
178
330
10F
100
AcDbEntity
  8
0
100
AcDbLine
 10
20.0
 20
13.7731
 30
0.0
 11
20.0
 21
20.1127
 31
0.0
  0
LINE
  5
179
330
10F
100
AcDbEntity
  8
0
100
AcDbLine
 10
20.0
 20
13.7731
 30
0.0
 11
20.396
 21
11.22139999999999
 31
0.0
  0
LINE
  5
17A
330
10F
100
AcDbEntity
  8
0
100
AcDbLine
 10
20.0
 20
55.4278
 30
0.0
 11
20.0
 21
49.27179999999999
 31
0.0
  0
LINE
  5
17B
330
10F
100
AcDbEntity
  8
0
100
AcDbLine
 10
20.0
 20
55.4278
 30
0.0
 11
20.0
 21
61.6913
 31
0.0
  0
LINE
  5
17C
330
10F
100
AcDbEntity
  8
0
100
AcDbLine
 10
20.0
 20
49.27179999999999
 30
0.0
 11
20.0
 21
43.328
 31
0.0
  0
LINE
  5
17D
330
10F
100
AcDbEntity
  8
0
100
AcDbLine
 10
20.0
 20
49.27179999999999
 30
0.0
 11
20.0
 21
55.4278
 31
0.0
  0
LINE
  5
17E
330
10F
100
AcDbEntity
  8
0
100
AcDbLine
 10
20.0
 20
43.328
 30
0.0
 11
20.0
 21
37.69859999999999
 31
0.0
  0
LINE
  5
17F
330
10F
100
AcDbEntity
  8
0
100
AcDbLine
 10
20.0
 20
43.328
 30
0.0
 11
20.0
 21
49.27179999999999
 31
0.0
  0
LINE
  5
180
330
10F
100
AcDbEntity
  8
0
100
AcDbLine
 10
20.0
 20
37.69859999999999
 30
0.0
 11
20.0
 21
43.328
 31
0.0
  0
LINE
  5
181
330
10F
100
AcDbEntity
  8
0
100
AcDbLine
 10
20.0
 20
37.69859999999999
 30
0.0
 11
20.0
 21
32.4795
 31
0.0
  0
LINE
  5
182
330
10F
100
AcDbEntity
  8
0
100
AcDbLine
 10
20.0
 20
32.4795
 30
0.0
 11
20.0
 21
27.735
 31
0.0
  0
LINE
  5
183
330
10F
100
AcDbEntity
  8
0
100
AcDbLine
 10
20.0
 20
32.4795
 30
0.0
 11
20.0
 21
37.69859999999999
 31
0.0
  0
LINE
  5
184
330
10F
100
AcDbEntity
  8
0
100
AcDbLine
 10
20.0
 20
27.735
 30
0.0
 11
20.0
 21
32.4795
 31
0.0
  0
LINE
  5
185
330
10F
100
AcDbEntity
  8
0
100
AcDbLine
 10
20.0
 20
27.735
 30
0.0
 11
20.0
 21
23.58119999999999
 31
0.0
  0
LINE
  5
186
330
10F
100
AcDbEntity
  8
0
100
AcDbLine
 10
20.0
 20
241.002
 30
0.0
 11
20.0
 21
61.6913
 31
0.0
  0
LINE
  5
187
330
10F
100
AcDbEntity
  8
0
100
AcDbLine
 10
20.0
 20
241.002
 30
0.0
 11
20.396
 21
241.002
 31
0.0
  0
LINE
  5
188
330
10F
100
AcDbEntity
  8
0
100
AcDbLine
 10
20.0
 20
61.6913
 30
0.0
 11
20.0
 21
241.002
 31
0.0
  0
LINE
  5
189
330
10F
100
AcDbEntity
  8
0
100
AcDbLine
 10
20.0
 20
61.6913
 30
0.0
 11
20.0
 21
55.4278
 31
0.0
  0
LINE
  5
18A
330
10F
100
AcDbEntity
  8
0
100
AcDbLine
 10
20.0
 20
13.3338
 30
0.0
 11
20.4231
 21
10.7689
 31
0.0
  0
LINE
  5
18B
330
10F
100
AcDbEntity
  8
0
100
AcDbLine
 10
20.0
 20
13.3338
 30
0.0
 11
20.0351269045358
 21
13.5467532265051
 31
0.0
  0
LINE
  5
18C
330
10F
100
AcDbEntity
  8
0
100
AcDbLine
 10
20.0
 20
12.7483
 30
0.0
 11
20.4231
 21
10.1834
 31
0.0
  0
LINE
  5
18D
330
10F
100
AcDbEntity
  8
0
100
AcDbLine
 10
20.0
 20
12.7483
 30
0.0
 11
20.0482904247646
 21
13.0410557067389
 31
0.0
  0
LINE
  5
18E
330
10F
100
AcDbEntity
  8
0
100
AcDbLine
 10
20.0
 20
12.1628
 30
0.0
 11
20.4231
 21
9.597910000000007
 31
0.0
  0
LINE
  5
18F
330
10F
100
AcDbEntity
  8
0
100
AcDbLine
 10
20.0
 20
12.1628
 30
0.0
 11
20.04828948343079
 21
12.4555614132554
 31
0.0
  0
LINE
  5
190
330
10F
100
AcDbEntity
  8
0
100
AcDbLine
 10
20.0
 20
11.5774
 30
0.0
 11
20.4231
 21
9.012410000000009
 31
0.0
  0
LINE
  5
191
330
10F
100
AcDbEntity
  8
0
100
AcDbLine
 10
20.0
 20
11.5774
 30
0.0
 11
20.0482822711598
 21
11.8701062763529
 31
0.0
  0
LINE
  5
192
330
10F
100
AcDbEntity
  8
0
100
AcDbLine
 10
20.396
 20
11.22139999999999
 30
0.0
 11
21.45199999999999
 21
8.829190000000009
 31
0.0
  0
LINE
  5
193
330
10F
100
AcDbEntity
  8
0
100
AcDbLine
 10
41.604
 20
11.22139999999999
 30
0.0
 11
42.0
 21
13.7731
 31
0.0
  0
LINE
  5
194
330
10F
100
AcDbEntity
  8
0
100
AcDbLine
 10
41.5769
 20
10.978
 30
0.0
 11
42.0
 21
13.62659999999998
 31
0.0
  0
LINE
  5
195
330
10F
100
AcDbEntity
  8
0
100
AcDbLine
 10
20.4231
 20
10.7689
 30
0.0
 11
21.52309999999999
 21
8.438040000000009
 31
0.0
  0
LINE
  5
196
330
10F
100
AcDbEntity
  8
0
100
AcDbLine
 10
41.604
 20
241.002
 30
0.0
 11
42.0
 21
241.002
 31
0.0
  0
LINE
  5
197
330
10F
100
AcDbEntity
  8
0
100
AcDbLine
 10
38.788
 20
241.002
 30
0.0
 11
40.548
 21
241.002
 31
0.0
  0
LINE
  5
198
330
10F
100
AcDbEntity
  8
0
100
AcDbLine
 10
36.45599999999999
 20
241.002
 30
0.0
 11
38.788
 21
241.002
 31
0.0
  0
LINE
  5
199
330
10F
100
AcDbEntity
  8
0
100
AcDbLine
 10
33.816
 20
241.002
 30
0.0
 11
36.45599999999999
 21
241.002
 31
0.0
  0
LINE
  5
19A
330
10F
100
AcDbEntity
  8
0
100
AcDbLine
 10
31.0
 20
241.002
 30
0.0
 11
33.816
 21
241.002
 31
0.0
  0
LINE
  5
19B
330
10F
100
AcDbEntity
  8
0
100
AcDbLine
 10
40.548
 20
241.002
 30
0.0
 11
41.604
 21
241.002
 31
0.0
  0
LINE
  5
19C
330
10F
100
AcDbEntity
  8
0
100
AcDbLine
 10
28.184
 20
241.002
 30
0.0
 11
31.0
 21
241.002
 31
0.0
  0
LINE
  5
19D
330
10F
100
AcDbEntity
  8
0
100
AcDbLine
 10
25.544
 20
241.002
 30
0.0
 11
28.184
 21
241.002
 31
0.0
  0
LINE
  5
19E
330
10F
100
AcDbEntity
  8
0
100
AcDbLine
 10
23.212
 20
241.002
 30
0.0
 11
25.544
 21
241.002
 31
0.0
  0
LINE
  5
19F
330
10F
100
AcDbEntity
  8
0
100
AcDbLine
 10
21.45199999999999
 20
241.002
 30
0.0
 11
23.212
 21
241.002
 31
0.0
  0
LINE
  5
1A0
330
10F
100
AcDbEntity
  8
0
100
AcDbLine
 10
20.396
 20
241.002
 30
0.0
 11
21.45199999999999
 21
241.002
 31
0.0
  0
LINE
  5
1A1
330
10F
100
AcDbEntity
  8
0
100
AcDbLine
 10
41.9532267311032
 20
12.7483110548969
 30
0.0
 11
42.0
 21
12.4555
 31
0.0
  0
LINE
  5
1A2
330
10F
100
AcDbEntity
  8
0
100
AcDbLine
 10
20.0
 20
10.9918
 30
0.0
 11
20.4231
 21
8.426890000000009
 31
0.0
  0
LINE
  5
1A3
330
10F
100
AcDbEntity
  8
0
100
AcDbLine
 10
20.0
 20
10.9918
 30
0.0
 11
20.048297825142
 21
11.2846005707614
 31
0.0
  0
LINE
  5
1A4
330
10F
100
AcDbEntity
  8
0
100
AcDbLine
 10
20.0
 20
10.4064
 30
0.0
 11
20.4231
 21
7.841360000000009
 31
0.0
  0
LINE
  5
1A5
330
10F
100
AcDbEntity
  8
0
100
AcDbLine
 10
20.0
 20
10.4064
 30
0.0
 11
20.0482830241276
 21
10.6990994294136
 31
0.0
  0
LINE
  5
1A6
330
10F
100
AcDbEntity
  8
0
100
AcDbLine
 10
42.0
 20
23.58119999999999
 30
0.0
 11
42.0
 21
20.1127
 31
0.0
  0
LINE
  5
1A7
330
10F
100
AcDbEntity
  8
0
100
AcDbLine
 10
42.0
 20
23.58119999999999
 30
0.0
 11
42.0
 21
27.735
 31
0.0
  0
LINE
  5
1A8
330
10F
100
AcDbEntity
  8
0
100
AcDbLine
 10
42.0
 20
20.1127
 30
0.0
 11
42.0
 21
13.7731
 31
0.0
  0
LINE
  5
1A9
330
10F
100
AcDbEntity
  8
0
100
AcDbLine
 10
42.0
 20
20.1127
 30
0.0
 11
42.0
 21
23.58119999999999
 31
0.0
  0
LINE
  5
1AA
330
10F
100
AcDbEntity
  8
0
100
AcDbLine
 10
42.0
 20
13.7731
 30
0.0
 11
42.0
 21
20.1127
 31
0.0
  0
LINE
  5
1AB
330
10F
100
AcDbEntity
  8
0
100
AcDbLine
 10
42.0
 20
49.27179999999999
 30
0.0
 11
42.0
 21
43.328
 31
0.0
  0
LINE
  5
1AC
330
10F
100
AcDbEntity
  8
0
100
AcDbLine
 10
42.0
 20
49.27179999999999
 30
0.0
 11
42.0
 21
55.4278
 31
0.0
  0
LINE
  5
1AD
330
10F
100
AcDbEntity
  8
0
100
AcDbLine
 10
42.0
 20
43.328
 30
0.0
 11
42.0
 21
37.69859999999999
 31
0.0
  0
LINE
  5
1AE
330
10F
100
AcDbEntity
  8
0
100
AcDbLine
 10
42.0
 20
43.328
 30
0.0
 11
42.0
 21
49.27179999999999
 31
0.0
  0
LINE
  5
1AF
330
10F
100
AcDbEntity
  8
0
100
AcDbLine
 10
42.0
 20
55.4278
 30
0.0
 11
42.0
 21
61.6913
 31
0.0
  0
LINE
  5
1B0
330
10F
100
AcDbEntity
  8
0
100
AcDbLine
 10
42.0
 20
55.4278
 30
0.0
 11
42.0
 21
49.27179999999999
 31
0.0
  0
LINE
  5
1B1
330
10F
100
AcDbEntity
  8
0
100
AcDbLine
 10
42.0
 20
241.002
 30
0.0
 11
42.0
 21
61.6913
 31
0.0
  0
LINE
  5
1B2
330
10F
100
AcDbEntity
  8
0
100
AcDbLine
 10
42.0
 20
241.002
 30
0.0
 11
44.7
 21
241.002
 31
0.0
  0
LINE
  5
1B3
330
10F
100
AcDbEntity
  8
0
100
AcDbLine
 10
42.0
 20
61.6913
 30
0.0
 11
42.0
 21
241.002
 31
0.0
  0
LINE
  5
1B4
330
10F
100
AcDbEntity
  8
0
100
AcDbLine
 10
42.0
 20
61.6913
 30
0.0
 11
42.0
 21
55.4278
 31
0.0
  0
LINE
  5
1B5
330
10F
100
AcDbEntity
  8
0
100
AcDbLine
 10
42.0
 20
37.69859999999999
 30
0.0
 11
42.0
 21
32.4795
 31
0.0
  0
LINE
  5
1B6
330
10F
100
AcDbEntity
  8
0
100
AcDbLine
 10
42.0
 20
37.69859999999999
 30
0.0
 11
42.0
 21
43.328
 31
0.0
  0
LINE
  5
1B7
330
10F
100
AcDbEntity
  8
0
100
AcDbLine
 10
58.5
 20
241.002
 30
0.0
 11
60.0
 21
241.502
 31
0.0
  0
LINE
  5
1B8
330
10F
100
AcDbEntity
  8
0
100
AcDbLine
 10
57.5
 20
241.002
 30
0.0
 11
58.5
 21
241.002
 31
0.0
  0
LINE
  5
1B9
330
10F
100
AcDbEntity
  8
0
100
AcDbLine
 10
54.8
 20
241.002
 30
0.0
 11
57.5
 21
241.002
 31
0.0
  0
LINE
  5
1BA
330
10F
100
AcDbEntity
  8
0
100
AcDbLine
 10
44.7
 20
241.002
 30
0.0
 11
50.4
 21
241.002
 31
0.0
  0
LINE
  5
1BB
330
10F
100
AcDbEntity
  8
0
100
AcDbLine
 10
50.4
 20
241.002
 30
0.0
 11
54.8
 21
241.002
 31
0.0
  0
LINE
  5
1BC
330
10F
100
AcDbEntity
  8
0
100
AcDbLine
 10
42.0
 20
32.4795
 30
0.0
 11
42.0
 21
27.735
 31
0.0
  0
LINE
  5
1BD
330
10F
100
AcDbEntity
  8
0
100
AcDbLine
 10
42.0
 20
32.4795
 30
0.0
 11
42.0
 21
37.69859999999999
 31
0.0
  0
LINE
  5
1BE
330
10F
100
AcDbEntity
  8
0
100
AcDbLine
 10
42.0
 20
27.735
 30
0.0
 11
42.0
 21
32.4795
 31
0.0
  0
LINE
  5
1BF
330
10F
100
AcDbEntity
  8
0
100
AcDbLine
 10
42.0
 20
27.735
 30
0.0
 11
42.0
 21
23.58119999999999
 31
0.0
  0
LINE
  5
1C0
330
10F
100
AcDbEntity
  8
0
100
AcDbLine
 10
41.9884679018736
 20
13.6987907707343
 30
0.0
 11
42.0
 21
13.62659999999998
 31
0.0
  0
LINE
  5
1C1
330
10F
100
AcDbEntity
  8
0
100
AcDbLine
 10
41.95323471834178
 20
13.33385
 30
0.0
 11
42.0
 21
13.0411
 31
0.0
  0
LINE
  5
1C2
330
10F
100
AcDbEntity
  8
0
100
AcDbLine
 10
41.9532415580689
 20
12.16280718340519
 30
0.0
 11
42.0
 21
11.8701
 31
0.0
  0
LINE
  5
1C3
330
10F
100
AcDbEntity
  8
0
100
AcDbLine
 10
41.9532346300586
 20
11.5773505526515
 30
0.0
 11
42.0
 21
11.2846
 31
0.0
  0
LINE
  5
1C4
330
10F
100
AcDbEntity
  8
0
100
AcDbLine
 10
41.95323577771399
 20
10.99185442110349
 30
0.0
 11
42.0
 21
10.69909999999999
 31
0.0
  0
LINE
  5
1C5
330
10F
100
AcDbEntity
  8
0
100
AcDbLine
 10
41.9532277906564
 20
10.4063044218586
 30
0.0
 11
42.0
 21
10.11349999999998
 31
0.0
  0
LINE
  5
1C6
330
10F
100
AcDbEntity
  8
0
100
AcDbLine
 10
20.0
 20
9.820850000000007
 30
0.0
 11
20.4231
 21
7.255870000000007
 31
0.0
  0
LINE
  5
1C7
330
10F
100
AcDbEntity
  8
0
100
AcDbLine
 10
20.0
 20
9.820850000000007
 30
0.0
 11
20.04829370135218
 21
10.1136198635865
 31
0.0
  0
LINE
  5
1C8
330
10F
100
AcDbEntity
  8
0
100
AcDbLine
 10
11.59999999999999
 20
241.002
 30
0.0
 11
17.3
 21
241.002
 31
0.0
  0
LINE
  5
1C9
330
10F
100
AcDbEntity
  8
0
100
AcDbLine
 10
17.3
 20
241.002
 30
0.0
 11
20.0
 21
241.002
 31
0.0
  0
LINE
  5
1CA
330
10F
100
AcDbEntity
  8
0
100
AcDbLine
 10
7.2
 20
241.002
 30
0.0
 11
11.59999999999999
 21
241.002
 31
0.0
  0
LINE
  5
1CB
330
10F
100
AcDbEntity
  8
0
100
AcDbLine
 10
60.0
 20
241.502
 30
0.0
 11
60.5
 21
242.002
 31
0.0
  0
LINE
  5
1CC
330
10F
100
AcDbEntity
  8
0
100
AcDbLine
 10
4.5
 20
241.002
 30
0.0
 11
7.2
 21
241.002
 31
0.0
  0
LINE
  5
1CD
330
10F
100
AcDbEntity
  8
0
100
AcDbLine
 10
3.5
 20
241.002
 30
0.0
 11
4.5
 21
241.002
 31
0.0
  0
LINE
  5
1CE
330
10F
100
AcDbEntity
  8
0
100
AcDbLine
 10
60.5
 20
242.002
 30
0.0
 11
61.0
 21
243.502
 31
0.0
  0
LINE
  5
1CF
330
10F
100
AcDbEntity
  8
0
100
AcDbLine
 10
61.0
 20
243.502
 30
0.0
 11
62.0
 21
249.0
 31
0.0
  0
LINE
  5
1D0
330
10F
100
AcDbEntity
  8
0
100
AcDbLine
 10
2.0
 20
241.502
 30
0.0
 11
3.5
 21
241.002
 31
0.0
  0
LINE
  5
1D1
330
10F
100
AcDbEntity
  8
0
100
AcDbLine
 10
1.5
 20
242.002
 30
0.0
 11
2.0
 21
241.502
 31
0.0
  0
LINE
  5
1D2
330
10F
100
AcDbEntity
  8
0
100
AcDbLine
 10
1.1
 20
249.0
 30
0.0
 11
4.2
 21
249.0
 31
0.0
  0
LINE
  5
1D3
330
10F
100
AcDbEntity
  8
0
100
AcDbLine
 10
4.2
 20
249.0
 30
0.0
 11
9.099999999999999
 21
249.0
 31
0.0
  0
LINE
  5
1D4
330
10F
100
AcDbEntity
  8
0
100
AcDbLine
 10
1.1
 20
249.0
 30
0.0
 11
4.2
 21
249.0
 31
0.0
  0
LINE
  5
1D5
330
10F
100
AcDbEntity
  8
0
100
AcDbLine
 10
9.099999999999999
 20
249.0
 30
0.0
 11
15.6
 21
249.0
 31
0.0
  0
LINE
  5
1D6
330
10F
100
AcDbEntity
  8
0
100
AcDbLine
 10
15.6
 20
249.0
 30
0.0
 11
23.0
 21
249.0
 31
0.0
  0
LINE
  5
1D7
330
10F
100
AcDbEntity
  8
0
100
AcDbLine
 10
31.0
 20
249.0
 30
0.0
 11
39.0
 21
249.0
 31
0.0
  0
LINE
  5
1D8
330
10F
100
AcDbEntity
  8
0
100
AcDbLine
 10
57.8
 20
249.0
 30
0.0
 11
60.89999999999999
 21
249.0
 31
0.0
  0
LINE
  5
1D9
330
10F
100
AcDbEntity
  8
0
100
AcDbLine
 10
60.89999999999999
 20
249.0
 30
0.0
 11
62.0
 21
249.0
 31
0.0
  0
LINE
  5
1DA
330
10F
100
AcDbEntity
  8
0
100
AcDbLine
 10
52.9
 20
249.0
 30
0.0
 11
57.8
 21
249.0
 31
0.0
  0
LINE
  5
1DB
330
10F
100
AcDbEntity
  8
0
100
AcDbLine
 10
39.0
 20
249.0
 30
0.0
 11
46.39999999999999
 21
249.0
 31
0.0
  0
LINE
  5
1DC
330
10F
100
AcDbEntity
  8
0
100
AcDbLine
 10
46.39999999999999
 20
249.0
 30
0.0
 11
52.9
 21
249.0
 31
0.0
  0
LINE
  5
1DD
330
10F
100
AcDbEntity
  8
0
100
AcDbLine
 10
23.0
 20
249.0
 30
0.0
 11
31.0
 21
249.0
 31
0.0
  0
LINE
  5
1DE
330
10F
100
AcDbEntity
  8
0
100
AcDbLine
 10
1.0
 20
243.502
 30
0.0
 11
1.5
 21
242.002
 31
0.0
  0
LINE
  5
1DF
330
10F
100
AcDbEntity
  8
0
100
AcDbLine
 10
0.0000000000000009
 20
249.0
 30
0.0
 11
1.0
 21
243.502
 31
0.0
  0
LINE
  5
1E0
330
10F
100
AcDbEntity
  8
0
100
AcDbLine
 10
0.0000000000000009
 20
249.0
 30
0.0
 11
1.1
 21
249.0
 31
0.0
  0
ENDSEC
  0
SECTION
  2
OBJECTS
  0
DICTIONARY
  5
FD
330
0
100
AcDbDictionary
281
     1
  3
ACAD_GROUP
350
FE
  3
ACAD_LAYOUT
350
10A
  3
ACAD_MLINESTYLE
350
107
  3
ACAD_PLOTSETTINGS
350
109
  3
ACAD_PLOTSTYLENAME
350
FF
  3
AcDbVariableDictionary
350
1E3
  0
DICTIONARY
  5
FE
102
{ACAD_REACTORS
330
FD
102
}
330
FD
100
AcDbDictionary
281
     1
  0
DICTIONARY
  5
10A
102
{ACAD_REACTORS
330
FD
102
}
330
FD
100
AcDbDictionary
281
     1
  3
Layout1
350
10E
  3
Model
350
112
  0
DICTIONARY
  5
107
102
{ACAD_REACTORS
330
FD
102
}
330
FD
100
AcDbDictionary
281
     1
  3
Standard
350
108
  0
DICTIONARY
  5
109
102
{ACAD_REACTORS
330
FD
102
}
330
FD
100
AcDbDictionary
281
     1
  0
ACDBDICTIONARYWDFLT
  5
FF
102
{ACAD_REACTORS
330
FD
102
}
330
FD
100
AcDbDictionary
281
     1
  3
Normal
350
100
100
AcDbDictionaryWithDefault
340
100
  0
DICTIONARY
  5
1E3
102
{ACAD_REACTORS
330
FD
102
}
330
FD
100
AcDbDictionary
281
     1
  3
DIMASSOC
350
1E4
  0
LAYOUT
  5
10E
102
{ACAD_REACTORS
330
10A
102
}
330
10A
100
AcDbPlotSettings
  1

  2
hp deskjet 980c series
  4

  6

 40
0.0
 41
0.0
 42
0.0
 43
0.0
 44
0.0
 45
0.0
 46
0.0
 47
0.0
 48
0.0
 49
0.0
140
0.0
141
0.0
142
1.0
143
1.0
 70
   688
 72
     0
 73
     0
 74
     5
  7

 75
    16
147
1.0
148
0.0
149
0.0
100
AcDbLayout
  1
Layout1
 70
     1
 71
     1
 10
0.0
 20
0.0
 11
12.0
 21
9.0
 12
0.0
 22
0.0
 32
0.0
 14
1.000000000000000E+20
 24
1.000000000000000E+20
 34
1.000000000000000E+20
 15
-1.000000000000000E+20
 25
-1.000000000000000E+20
 35
-1.000000000000000E+20
146
0.0
 13
0.0
 23
0.0
 33
0.0
 16
1.0
 26
0.0
 36
0.0
 17
0.0
 27
1.0
 37
0.0
 76
     0
330
10B
  0
LAYOUT
  5
112
102
{ACAD_REACTORS
330
10A
102
}
330
10A
100
AcDbPlotSettings
  1

  2
hp deskjet 980c series
  4

  6

 40
0.0
 41
0.0
 42
0.0
 43
0.0
 44
0.0
 45
0.0
 46
0.0
 47
0.0
 48
0.0
 49
0.0
140
0.0
141
0.0
142
1.0
143
1.0
 70
  1712
 72
     0
 73
     0
 74
     0
  7

 75
     0
147
1.0
148
0.0
149
0.0
100
AcDbLayout
  1
Model
 70
     1
 71
     0
 10
0.0
 20
0.0
 11
12.0
 21
9.0
 12
0.0
 22
0.0
 32
0.0
 14
0.0
 24
0.0
 34
0.0
 15
0.0
 25
0.0
 35
0.0
146
0.0
 13
0.0
 23
0.0
 33
0.0
 16
1.0
 26
0.0
 36
0.0
 17
0.0
 27
1.0
 37
0.0
 76
     0
330
10F
  0
MLINESTYLE
  5
108
102
{ACAD_REACTORS
330
107
102
}
330
107
100
AcDbMlineStyle
  2
STANDARD
 70
     0
  3

 62
   256
 51
90.0
 52
90.0
 71
     2
 49
0.5
 62
   256
  6
BYLAYER
 49
-0.5
 62
   256
  6
BYLAYER
  0
ACDBPLACEHOLDER
  5
100
102
{ACAD_REACTORS
330
FF
102
}
330
FF
  0
DICTIONARYVAR
  5
1E4
102
{ACAD_REACTORS
330
1E3
102
}
330
1E3
100
DictionaryVariables
280
     0
  1
1
  0
ENDSEC
  0
EOF
