  0
SECTION
  2
HEADER
  9
$ACADVER
  1
AC1009
  9
$INSBASE
 10
0.0
 20
0.0
 30
0.0
  9
$EXTMIN
 10
0.0
 20
-0.0000000000000058
 30
0.0
  9
$EXTMAX
 10
84.0
 20
203.0
 30
0.0
  9
$LIMMIN
 10
0.0
 20
0.0
  9
$LIMMAX
 10
12.0
 20
9.0
  9
$ORTHOMODE
 70
     0
  9
$REGENMODE
 70
     1
  9
$FILLMODE
 70
     1
  9
$QTEXTMODE
 70
     0
  9
$MIRRTEXT
 70
     1
  9
$DRAGMODE
 70
     2
  9
$LTSCALE
 40
1.0
  9
$OSMODE
 70
    37
  9
$ATTMODE
 70
     1
  9
$TEXTSIZE
 40
0.2
  9
$TRACEWID
 40
0.05
  9
$TEXTSTYLE
  7
STANDARD
  9
$CLAYER
  8
0
  9
$CELTYPE
  6
CONTINUOUS
  9
$CECOLOR
 62
   256
  9
$DIMSCALE
 40
1.0
  9
$DIMASZ
 40
0.18
  9
$DIMEXO
 40
0.0625
  9
$DIMDLI
 40
0.38
  9
$DIMRND
 40
0.0
  9
$DIMDLE
 40
0.0
  9
$DIMEXE
 40
0.18
  9
$DIMTP
 40
0.0
  9
$DIMTM
 40
0.0
  9
$DIMTXT
 40
0.18
  9
$DIMCEN
 40
0.09
  9
$DIMTSZ
 40
0.0
  9
$DIMTOL
 70
     0
  9
$DIMLIM
 70
     0
  9
$DIMTIH
 70
     1
  9
$DIMTOH
 70
     1
  9
$DIMSE1
 70
     0
  9
$DIMSE2
 70
     0
  9
$DIMTAD
 70
     0
  9
$DIMZIN
 70
     0
  9
$DIMBLK
  1

  9
$DIMASO
 70
     1
  9
$DIMSHO
 70
     1
  9
$DIMPOST
  1

  9
$DIMAPOST
  1

  9
$DIMALT
 70
     0
  9
$DIMALTD
 70
     2
  9
$DIMALTF
 40
25.399999999999999
  9
$DIMLFAC
 40
1.0
  9
$DIMTOFL
 70
     0
  9
$DIMTVP
 40
0.0
  9
$DIMTIX
 70
     0
  9
$DIMSOXD
 70
     0
  9
$DIMSAH
 70
     0
  9
$DIMBLK1
  1

  9
$DIMBLK2
  1

  9
$DIMSTYLE
  2
STANDARD
  9
$DIMCLRD
 70
     0
  9
$DIMCLRE
 70
     0
  9
$DIMCLRT
 70
     0
  9
$DIMTFAC
 40
1.0
  9
$DIMGAP
 40
0.09
  9
$LUNITS
 70
     2
  9
$LUPREC
 70
     4
  9
$SKETCHINC
 40
0.1
  9
$FILLETRAD
 40
0.0
  9
$AUNITS
 70
     0
  9
$AUPREC
 70
     0
  9
$MENU
  1
.
  9
$ELEVATION
 40
0.0
  9
$PELEVATION
 40
0.0
  9
$THICKNESS
 40
0.0
  9
$LIMCHECK
 70
     0
  9
$BLIPMODE
 70
     0
  9
$CHAMFERA
 40
0.0
  9
$CHAMFERB
 40
0.0
  9
$SKPOLY
 70
     0
  9
$TDCREATE
 40
2454675.445282835
  9
$TDUPDATE
 40
2454675.4488796638
  9
$TDINDWG
 40
0.0035970023
  9
$TDUSRTIMER
 40
0.0035970023
  9
$USRTIMER
 70
     1
  9
$ANGBASE
 50
0.0
  9
$ANGDIR
 70
     0
  9
$PDMODE
 70
     0
  9
$PDSIZE
 40
0.0
  9
$PLINEWID
 40
0.0
  9
$COORDS
 70
     1
  9
$SPLFRAME
 70
     0
  9
$SPLINETYPE
 70
     6
  9
$SPLINESEGS
 70
     8
  9
$ATTDIA
 70
     0
  9
$ATTREQ
 70
     1
  9
$HANDLING
 70
 22529
  9
$HANDSEED
  5
28E
  9
$SURFTAB1
 70
     6
  9
$SURFTAB2
 70
     6
  9
$SURFTYPE
 70
     6
  9
$SURFU
 70
     6
  9
$SURFV
 70
     6
  9
$UCSNAME
  2

  9
$UCSORG
 10
0.0
 20
0.0
 30
0.0
  9
$UCSXDIR
 10
1.0
 20
0.0
 30
0.0
  9
$UCSYDIR
 10
0.0
 20
1.0
 30
0.0
  9
$PUCSNAME
  2

  9
$PUCSORG
 10
0.0
 20
0.0
 30
0.0
  9
$PUCSXDIR
 10
1.0
 20
0.0
 30
0.0
  9
$PUCSYDIR
 10
0.0
 20
1.0
 30
0.0
  9
$USERI1
 70
     0
  9
$USERI2
 70
     0
  9
$USERI3
 70
     0
  9
$USERI4
 70
     0
  9
$USERI5
 70
     0
  9
$USERR1
 40
0.0
  9
$USERR2
 40
0.0
  9
$USERR3
 40
0.0
  9
$USERR4
 40
0.0
  9
$USERR5
 40
0.0
  9
$WORLDVIEW
 70
     1
  9
$SHADEDGE
 70
     3
  9
$SHADEDIF
 70
    70
  9
$TILEMODE
 70
     1
  9
$MAXACTVP
 70
    64
  9
$PLIMCHECK
 70
     0
  9
$PEXTMIN
 10
1.0000000000000000E+020
 20
1.0000000000000000E+020
 30
1.0000000000000000E+020
  9
$PEXTMAX
 10
-1.0000000000000000E+020
 20
-1.0000000000000000E+020
 30
-1.0000000000000000E+020
  9
$PLIMMIN
 10
0.0
 20
0.0
  9
$PLIMMAX
 10
12.0
 20
9.0
  9
$UNITMODE
 70
     0
  9
$VISRETAIN
 70
     1
  9
$PLINEGEN
 70
     0
  9
$PSLTSCALE
 70
     1
  0
ENDSEC
  0
SECTION
  2
TABLES
  0
TABLE
  2
VPORT
 70
     3
  0
VPORT
  2
*ACTIVE
 70
     0
 10
0.0
 20
0.0
 11
1.0
 21
1.0
 12
42.0
 22
101.5
 13
0.0
 23
0.0
 14
1.0
 24
1.0
 15
0.0
 25
0.0
 16
0.0
 26
0.0
 36
1.0
 17
0.0
 27
0.0
 37
0.0
 40
204.55754475703321
 41
2.0435339308578739
 42
50.0
 43
0.0
 44
0.0
 50
0.0
 51
0.0
 71
     0
 72
   100
 73
     1
 74
     3
 75
     0
 76
     0
 77
     0
 78
     0
  0
ENDTAB
  0
TABLE
  2
LTYPE
 70
     1
  0
LTYPE
  2
CONTINUOUS
 70
     0
  3
Solid line
 72
    65
 73
     0
 40
0.0
  0
ENDTAB
  0
TABLE
  2
LAYER
 70
     1
  0
LAYER
  2
0
 70
     0
 62
     7
  6
CONTINUOUS
  0
ENDTAB
  0
TABLE
  2
STYLE
 70
     1
  0
STYLE
  2
STANDARD
 70
     0
 40
0.0
 41
1.0
 50
0.0
 71
     0
 42
0.2
  3
txt
  4

  0
ENDTAB
  0
TABLE
  2
VIEW
 70
     0
  0
ENDTAB
  0
TABLE
  2
UCS
 70
     0
  0
ENDTAB
  0
TABLE
  2
APPID
 70
     1
  0
APPID
  2
ACAD
 70
     0
  0
ENDTAB
  0
TABLE
  2
DIMSTYLE
 70
     1
  0
DIMSTYLE
  2
STANDARD
 70
     0
  3

  4

  5

  6

  7

 40
1.0
 41
0.18
 42
0.0625
 43
0.38
 44
0.18
 45
0.0
 46
0.0
 47
0.0
 48
0.0
140
0.18
141
0.09
142
0.0
143
25.399999999999999
144
1.0
145
0.0
146
1.0
147
0.09
 71
     0
 72
     0
 73
     1
 74
     1
 75
     0
 76
     0
 77
     0
 78
     0
170
     0
171
     2
172
     0
173
     0
174
     0
175
     0
176
     0
177
     0
178
     0
  0
ENDTAB
  0
ENDSEC
  0
SECTION
  2
BLOCKS
  0
BLOCK
  8
0
  2
$MODEL_SPACE
 70
     0
 10
0.0
 20
0.0
 30
0.0
  3
$MODEL_SPACE
  1

  0
ENDBLK
  5
20
  8
0
  0
BLOCK
 67
     1
  8
0
  2
$PAPER_SPACE
 70
     0
 10
0.0
 20
0.0
 30
0.0
  3
$PAPER_SPACE
  1

  0
ENDBLK
  5
1C
 67
     1
  8
0
  0
ENDSEC
  0
SECTION
  2
ENTITIES
  0
LINE
  5
22
  8
0
 10
0.36
 20
34.439999999999991
 30
0.0
 11
1.3200000000000001
 21
32.039999999999999
 31
0.0
  0
LINE
  5
23
  8
0
 10
0.36
 20
39.560000000000002
 30
0.0
 11
1.3200000000000001
 21
41.960000000000001
 31
0.0
  0
LINE
  5
24
  8
0
 10
0.0
 20
37.0
 30
0.0
 11
0.36
 21
34.439999999999991
 31
0.0
  0
LINE
  5
25
  8
0
 10
0.0
 20
37.0
 30
0.0
 11
0.36
 21
39.560000000000002
 31
0.0
  0
LINE
  5
26
  8
0
 10
0.36
 20
39.560000000000002
 30
0.0
 11
1.3200000000000001
 21
41.960000000000001
 31
0.0
  0
LINE
  5
27
  8
0
 10
0.36
 20
34.439999999999991
 30
0.0
 11
1.3200000000000001
 21
32.039999999999999
 31
0.0
  0
LINE
  5
28
  8
0
 10
0.36
 20
164.44
 30
0.0
 11
1.3200000000000001
 21
162.03999999999999
 31
0.0
  0
LINE
  5
29
  8
0
 10
0.36
 20
169.55999999999989
 30
0.0
 11
1.3200000000000001
 21
171.95999999999989
 31
0.0
  0
LINE
  5
2A
  8
0
 10
0.36
 20
169.55999999999989
 30
0.0
 11
1.3200000000000001
 21
171.95999999999989
 31
0.0
  0
LINE
  5
2B
  8
0
 10
0.0
 20
167.0
 30
0.0
 11
0.36
 21
164.44
 31
0.0
  0
LINE
  5
2C
  8
0
 10
0.0
 20
167.0
 30
0.0
 11
0.36
 21
169.55999999999989
 31
0.0
  0
LINE
  5
2D
  8
0
 10
7.4400000000000004
 20
27.359999999999999
 30
0.0
 11
10.0
 21
27.0
 31
0.0
  0
LINE
  5
2E
  8
0
 10
6.5617599999999996
 20
31.029399999999999
 30
0.0
 11
8.2294100000000014
 21
30.350000000000001
 31
0.0
  0
LINE
  5
2F
  8
0
 10
6.5205900000000003
 20
30.947099999999999
 30
0.0
 11
8.2088199999999993
 21
30.2471
 31
0.0
  0
LINE
  5
30
  8
0
 10
5.04
 20
28.32
 30
0.0
 11
7.4400000000000004
 21
27.359999999999999
 31
0.0
  0
LINE
  5
31
  8
0
 10
2.919999999999999
 20
29.920000000000002
 30
0.0
 11
5.04
 21
28.32
 31
0.0
  0
LINE
  5
32
  8
0
 10
1.3200000000000001
 20
41.960000000000001
 30
0.0
 11
2.919999999999999
 21
44.079999999999998
 31
0.0
  0
LINE
  5
33
  8
0
 10
5.1205899999999991
 20
32.120600000000003
 30
0.0
 11
6.5617599999999996
 21
31.029399999999999
 31
0.0
  0
LINE
  5
34
  8
0
 10
5.058819999999999
 20
32.058799999999998
 30
0.0
 11
6.5205900000000003
 21
30.947099999999999
 31
0.0
  0
LINE
  5
35
  8
0
 10
4.0294099999999986
 20
33.561799999999998
 30
0.0
 11
5.1205899999999991
 21
32.120600000000003
 31
0.0
  0
LINE
  5
36
  8
0
 10
3.3500000000000001
 20
38.770600000000002
 30
0.0
 11
4.0294099999999986
 21
40.438200000000002
 31
0.0
  0
LINE
  5
37
  8
0
 10
4.0294099999999986
 20
40.438200000000002
 30
0.0
 11
5.1205899999999991
 21
41.879399999999997
 31
0.0
  0
LINE
  5
38
  8
0
 10
3.94706
 20
40.479399999999991
 30
0.0
 11
5.058819999999999
 21
41.941200000000002
 31
0.0
  0
LINE
  5
39
  8
0
 10
3.2470599999999989
 20
38.791200000000003
 30
0.0
 11
3.94706
 21
40.479399999999991
 31
0.0
  0
LINE
  5
3A
  8
0
 10
5.1205899999999991
 20
41.879399999999997
 30
0.0
 11
6.5617599999999996
 21
42.970599999999997
 31
0.0
  0
LINE
  5
3B
  8
0
 10
5.058819999999999
 20
41.941200000000002
 30
0.0
 11
6.5205900000000003
 21
43.052900000000001
 31
0.0
  0
LINE
  5
3C
  8
0
 10
6.5617599999999996
 20
42.970599999999997
 30
0.0
 11
8.2294100000000014
 21
43.649999999999999
 31
0.0
  0
LINE
  5
3D
  8
0
 10
6.5205900000000003
 20
43.052900000000001
 30
0.0
 11
8.2088199999999993
 21
43.75289999999999
 31
0.0
  0
LINE
  5
3E
  8
0
 10
3.3500000000000001
 20
35.229399999999998
 30
0.0
 11
4.0294099999999986
 21
33.561799999999998
 31
0.0
  0
LINE
  5
3F
  8
0
 10
3.1029399999999998
 20
37.0
 30
0.0
 11
3.3500000000000001
 21
35.229399999999998
 31
0.0
  0
LINE
  5
40
  8
0
 10
3.1029399999999998
 20
37.0
 30
0.0
 11
3.3500000000000001
 21
38.770600000000002
 31
0.0
  0
LINE
  5
41
  8
0
 10
3.2470599999999989
 20
35.208799999999997
 30
0.0
 11
3.94706
 21
33.520600000000002
 31
0.0
  0
LINE
  5
42
  8
0
 10
3.0
 20
37.0
 30
0.0
 11
3.2470599999999989
 21
35.208799999999997
 31
0.0
  0
LINE
  5
43
  8
0
 10
3.0
 20
37.0
 30
0.0
 11
3.2470599999999989
 21
38.791200000000003
 31
0.0
  0
LINE
  5
44
  8
0
 10
5.3114600000000003
 20
86.777999999999992
 30
0.0
 11
5.6572300000000002
 21
98.176599999999993
 31
0.0
  0
LINE
  5
45
  8
0
 10
5.3114600000000003
 20
86.777999999999992
 30
0.0
 11
5.7075800000000001
 21
77.239599999999996
 31
0.0
  0
LINE
  5
4A
  8
0
 10
5.6572300000000002
 20
98.176599999999993
 30
0.0
 11
6.9020000000000001
 21
110.477
 31
0.0
  0
LINE
  5
4B
  8
0
 10
7.1559100000000004
 20
63.657400000000003
 30
0.0
 11
8.6042500000000004
 21
58.758899999999997
 31
0.0
  0
LINE
  5
4C
  8
0
 10
6.3760399999999988
 20
70.114500000000007
 30
0.0
 11
7.1559100000000004
 21
63.657400000000003
 31
0.0
  0
LINE
  5
4D
  8
0
 10
5.7075800000000001
 20
77.239599999999996
 30
0.0
 11
6.3760399999999988
 21
70.114500000000007
 31
0.0
  0
LINE
  5
4E
  8
0
 10
6.9020000000000001
 20
110.477
 30
0.0
 11
8.6654100000000014
 21
118.5899999999999
 31
0.0
  0
LINE
  5
53
  8
0
 10
7.4400000000000004
 20
46.640000000000001
 30
0.0
 11
10.0
 21
47.0
 31
0.0
  0
LINE
  5
54
  8
0
 10
5.04
 20
45.68
 30
0.0
 11
7.4400000000000004
 21
46.640000000000001
 31
0.0
  0
LINE
  5
55
  8
0
 10
2.919999999999999
 20
44.079999999999998
 30
0.0
 11
5.04
 21
45.68
 31
0.0
  0
LINE
  5
56
  8
0
 10
1.3200000000000001
 20
32.039999999999999
 30
0.0
 11
2.919999999999999
 21
29.920000000000002
 31
0.0
  0
LINE
  5
57
  8
0
 10
10.0
 20
27.0
 30
0.0
 11
14.0
 21
27.0
 31
0.0
  0
LINE
  5
58
  8
0
 10
10.0
 20
30.102900000000002
 30
0.0
 11
11.770599999999989
 21
30.350000000000001
 31
0.0
  0
LINE
  5
59
  8
0
 10
8.2294100000000014
 20
43.649999999999999
 30
0.0
 11
10.0
 21
43.897100000000002
 31
0.0
  0
LINE
  5
5A
  8
0
 10
8.2088199999999993
 20
43.75289999999999
 30
0.0
 11
10.0
 21
44.0
 31
0.0
  0
LINE
  5
5B
  8
0
 10
10.0
 20
43.897100000000002
 30
0.0
 11
11.770599999999989
 21
43.649999999999999
 31
0.0
  0
LINE
  5
5E
  8
0
 10
8.6654100000000014
 20
118.5899999999999
 30
0.0
 11
10.428800000000001
 21
123.807
 31
0.0
  0
LINE
  5
5F
  8
0
 10
8.6042500000000004
 20
58.758899999999997
 30
0.0
 11
10.6096
 21
55.864400000000003
 31
0.0
  0
LINE
  5
62
  8
0
 10
10.0
 20
44.0
 30
0.0
 11
11.791199999999989
 21
43.75289999999999
 31
0.0
  0
LINE
  5
63
  8
0
 10
8.2294100000000014
 20
30.350000000000001
 30
0.0
 11
10.0
 21
30.102900000000002
 31
0.0
  0
LINE
  5
64
  8
0
 10
8.2088199999999993
 20
30.2471
 30
0.0
 11
10.0
 21
30.0
 31
0.0
  0
LINE
  5
65
  8
0
 10
10.0
 20
47.0
 30
0.0
 11
28.0
 21
47.0
 31
0.0
  0
LINE
  5
66
  8
0
 10
10.0
 20
47.0
 30
0.0
 11
28.0
 21
47.0
 31
0.0
  0
LINE
  5
67
  8
0
 10
10.0
 20
27.0
 30
0.0
 11
14.0
 21
27.0
 31
0.0
  0
LINE
  5
68
  8
0
 10
10.0
 20
27.0
 30
0.0
 11
14.0
 21
27.0
 31
0.0
  0
LINE
  5
69
  8
0
 10
10.0
 20
27.0
 30
0.0
 11
14.0
 21
27.0
 31
0.0
  0
LINE
  5
6A
  8
0
 10
14.21599999999999
 20
4.4639999999999898
 30
0.0
 11
14.792
 21
3.0239999999999991
 31
0.0
  0
LINE
  5
6B
  8
0
 10
15.752000000000001
 20
1.7519999999999889
 30
0.0
 11
17.024000000000001
 21
0.791999999999995
 31
0.0
  0
LINE
  5
6C
  8
0
 10
18.463999999999999
 20
0.215999999999995
 30
0.0
 11
20.0
 21
-0.0000000000000053
 31
0.0
  0
LINE
  5
6D
  8
0
 10
20.0
 20
-0.0000000000000053
 30
0.0
 11
21.535999999999991
 21
0.215999999999995
 31
0.0
  0
LINE
  5
6E
  8
0
 10
21.535999999999991
 20
0.215999999999995
 30
0.0
 11
22.975999999999999
 21
0.791999999999995
 31
0.0
  0
LINE
  5
6F
  8
0
 10
20.0
 20
-0.0000000000000058
 30
0.0
 11
21.535999999999991
 21
0.215999999999994
 31
0.0
  0
LINE
  5
70
  8
0
 10
18.463999999999999
 20
0.215999999999994
 30
0.0
 11
20.0
 21
-0.0000000000000058
 31
0.0
  0
LINE
  5
71
  8
0
 10
22.975999999999999
 20
0.791999999999995
 30
0.0
 11
24.248000000000001
 21
1.7519999999999889
 31
0.0
  0
LINE
  5
72
  8
0
 10
24.248000000000001
 20
1.7519999999999889
 30
0.0
 11
25.207999999999998
 21
3.0239999999999991
 31
0.0
  0
LINE
  5
73
  8
0
 10
17.024000000000001
 20
0.791999999999995
 30
0.0
 11
18.463999999999999
 21
0.215999999999995
 31
0.0
  0
LINE
  5
74
  8
0
 10
17.024000000000001
 20
0.7919999999999942
 30
0.0
 11
18.463999999999999
 21
0.215999999999994
 31
0.0
  0
LINE
  5
75
  8
0
 10
15.752000000000001
 20
1.7519999999999889
 30
0.0
 11
17.024000000000001
 21
0.7919999999999942
 31
0.0
  0
LINE
  5
76
  8
0
 10
15.752000000000001
 20
1.7519999999999889
 30
0.0
 11
17.024000000000001
 21
0.7919999999999942
 31
0.0
  0
LINE
  5
77
  8
0
 10
25.207999999999998
 20
3.0239999999999991
 30
0.0
 11
25.783999999999999
 21
4.4639999999999898
 31
0.0
  0
LINE
  5
78
  8
0
 10
25.207999999999998
 20
3.0239999999999991
 30
0.0
 11
25.783999999999999
 21
4.4639999999999898
 31
0.0
  0
LINE
  5
79
  8
0
 10
25.783999999999999
 20
4.4639999999999898
 30
0.0
 11
26.0
 21
5.9999999999999902
 31
0.0
  0
LINE
  5
7A
  8
0
 10
25.783999999999999
 20
4.4639999999999898
 30
0.0
 11
26.0
 21
5.9999999999999902
 31
0.0
  0
LINE
  5
7B
  8
0
 10
14.792
 20
3.0239999999999991
 30
0.0
 11
15.752000000000001
 21
1.7519999999999889
 31
0.0
  0
LINE
  5
7C
  8
0
 10
14.792
 20
3.0239999999999898
 30
0.0
 11
15.752000000000001
 21
1.7519999999999889
 31
0.0
  0
LINE
  5
7D
  8
0
 10
14.21599999999999
 20
4.4639999999999898
 30
0.0
 11
14.792
 21
3.0239999999999898
 31
0.0
  0
LINE
  5
7E
  8
0
 10
14.0
 20
27.0
 30
0.0
 11
26.5
 21
27.0
 31
0.0
  0
LINE
  5
7F
  8
0
 10
13.4382
 20
42.970599999999997
 30
0.0
 11
14.8794
 21
41.879399999999997
 31
0.0
  0
LINE
  5
80
  8
0
 10
11.770599999999989
 20
43.649999999999999
 30
0.0
 11
13.4382
 21
42.970599999999997
 31
0.0
  0
LINE
  5
81
  8
0
 10
10.428800000000001
 20
123.807
 30
0.0
 11
12.1577
 21
126.6399999999999
 31
0.0
  0
LINE
  5
82
  8
0
 10
10.6096
 20
55.864400000000003
 30
0.0
 11
13.1721
 21
53.971800000000002
 31
0.0
  0
LINE
  5
86
  8
0
 10
12.1577
 20
126.6399999999999
 30
0.0
 11
14.19769999999999
 21
129.404
 31
0.0
  0
LINE
  5
87
  8
0
 10
13.1721
 20
53.971800000000002
 30
0.0
 11
16.068699999999989
 21
52.0792
 31
0.0
  0
LINE
  5
8A
  8
0
 10
11.791199999999989
 20
43.75289999999999
 30
0.0
 11
13.4794
 21
43.052900000000001
 31
0.0
  0
LINE
  5
8B
  8
0
 10
13.4794
 20
43.052900000000001
 30
0.0
 11
14.9412
 21
41.941200000000002
 31
0.0
  0
LINE
  5
8C
  8
0
 10
13.4382
 20
31.029399999999999
 30
0.0
 11
14.8794
 21
32.120600000000003
 31
0.0
  0
LINE
  5
8D
  8
0
 10
11.770599999999989
 20
30.350000000000001
 30
0.0
 11
13.4382
 21
31.029399999999999
 31
0.0
  0
LINE
  5
8E
  8
0
 10
13.4794
 20
30.947099999999999
 30
0.0
 11
14.9412
 21
32.058799999999998
 31
0.0
  0
LINE
  5
8F
  8
0
 10
14.0
 20
27.0
 30
0.0
 11
14.0
 21
5.9999999999999902
 31
0.0
  0
LINE
  5
90
  8
0
 10
14.0
 20
27.0
 30
0.0
 11
14.0
 21
6.0
 31
0.0
  0
LINE
  5
91
  8
0
 10
14.0
 20
27.0
 30
0.0
 11
26.5
 21
27.0
 31
0.0
  0
LINE
  5
92
  8
0
 10
14.8794
 20
32.120600000000003
 30
0.0
 11
15.97059999999999
 21
33.561799999999998
 31
0.0
  0
LINE
  5
93
  8
0
 10
15.97059999999999
 20
33.561799999999998
 30
0.0
 11
16.649999999999999
 21
35.229399999999998
 31
0.0
  0
LINE
  5
94
  8
0
 10
15.97059999999999
 20
40.438200000000002
 30
0.0
 11
16.649999999999999
 21
38.770600000000002
 31
0.0
  0
LINE
  5
95
  8
0
 10
16.649999999999999
 20
38.770600000000002
 30
0.0
 11
16.897099999999991
 21
37.0
 31
0.0
  0
LINE
  5
96
  8
0
 10
14.19769999999999
 20
129.404
 30
0.0
 11
17.2059
 21
131.857
 31
0.0
  0
LINE
  5
9A
  8
0
 10
14.8794
 20
41.879399999999997
 30
0.0
 11
15.97059999999999
 21
40.438200000000002
 31
0.0
  0
LINE
  5
9B
  8
0
 10
16.068699999999989
 20
52.0792
 30
0.0
 11
20.0
 21
51.0
 31
0.0
  0
LINE
  5
9C
  8
0
 10
14.9412
 20
41.941200000000002
 30
0.0
 11
16.052900000000001
 21
40.479399999999991
 31
0.0
  0
LINE
  5
9D
  8
0
 10
16.052900000000001
 20
40.479399999999991
 30
0.0
 11
16.7529
 21
38.791200000000003
 31
0.0
  0
LINE
  5
9E
  8
0
 10
17.2059
 20
131.857
 30
0.0
 11
21.735399999999998
 21
134.10299999999989
 31
0.0
  0
LINE
  5
9F
  8
0
 10
20.0
 20
51.0
 30
0.0
 11
42.0
 21
51.0
 31
0.0
  0
LINE
  5
A4
  8
0
 10
21.735399999999998
 20
134.10299999999989
 30
0.0
 11
30.003699999999998
 21
136.321
 31
0.0
  0
LINE
  5
A8
  8
0
 10
16.7529
 20
38.791200000000003
 30
0.0
 11
17.0
 21
37.0
 31
0.0
  0
LINE
  5
A9
  8
0
 10
16.649999999999999
 20
35.229399999999998
 30
0.0
 11
16.897099999999991
 21
37.0
 31
0.0
  0
LINE
  5
AA
  8
0
 10
26.0
 20
25.0
 30
0.0
 11
26.576000000000001
 21
25.0
 31
0.0
  0
LINE
  5
AB
  8
0
 10
26.0
 20
25.0
 30
0.0
 11
26.0
 21
13.0
 31
0.0
  0
LINE
  5
AC
  8
0
 10
26.0
 20
25.0
 30
0.0
 11
28.0
 21
33.0
 31
0.0
  0
LINE
  5
AD
  8
0
 10
26.0
 20
13.0
 30
0.0
 11
26.576000000000001
 21
13.0
 31
0.0
  0
LINE
  5
AE
  8
0
 10
26.0
 20
13.0
 30
0.0
 11
26.0
 21
25.0
 31
0.0
  0
LINE
  5
AF
  8
0
 10
28.0
 20
51.0
 30
0.0
 11
28.0
 21
33.0
 31
0.0
  0
LINE
  5
B0
  8
0
 10
28.0
 20
135.85991515846001
 30
0.0
 11
28.0
 21
173.10188895248999
 31
0.0
  0
LINE
  5
B1
  8
0
 10
28.0
 20
33.0
 30
0.0
 11
28.504000000000001
 21
33.0
 31
0.0
  0
LINE
  5
B2
  8
0
 10
28.0
 20
33.0
 30
0.0
 11
28.0
 21
51.0
 31
0.0
  0
LINE
  5
B3
  8
0
 10
26.576000000000001
 20
25.0
 30
0.0
 11
28.111999999999991
 21
25.0
 31
0.0
  0
LINE
  5
B4
  8
0
 10
26.576000000000001
 20
13.0
 30
0.0
 11
28.111999999999991
 21
13.0
 31
0.0
  0
LINE
  5
B5
  8
0
 10
26.0
 20
14.0
 30
0.0
 11
26.0
 21
6.0
 31
0.0
  0
LINE
  5
B6
  8
0
 10
26.0
 20
5.9999999999999902
 30
0.0
 11
26.0
 21
14.0
 31
0.0
  0
LINE
  5
B7
  8
0
 10
14.0
 20
5.9999999999999902
 30
0.0
 11
14.21599999999999
 21
4.4639999999999898
 31
0.0
  0
LINE
  5
B8
  8
0
 10
14.0
 20
5.9999999999999902
 30
0.0
 11
14.0
 21
27.0
 31
0.0
  0
LINE
  5
B9
  8
0
 10
14.0
 20
5.9999999999999902
 30
0.0
 11
14.21599999999999
 21
4.4639999999999898
 31
0.0
  0
LINE
  5
BA
  8
0
 10
14.0
 20
5.9999999999999902
 30
0.0
 11
14.0
 21
27.0
 31
0.0
  0
LINE
  5
BB
  8
0
 10
10.0
 20
157.0
 30
0.0
 11
28.0
 21
157.0
 31
0.0
  0
LINE
  5
BC
  8
0
 10
10.0
 20
157.0
 30
0.0
 11
28.0
 21
157.0
 31
0.0
  0
LINE
  5
BD
  8
0
 10
10.0
 20
157.0
 30
0.0
 11
28.0
 21
157.0
 31
0.0
  0
LINE
  5
BE
  8
0
 10
7.4400000000000004
 20
157.36000000000001
 30
0.0
 11
10.0
 21
157.0
 31
0.0
  0
LINE
  5
BF
  8
0
 10
1.3200000000000001
 20
171.95999999999989
 30
0.0
 11
2.919999999999999
 21
174.08000000000001
 31
0.0
  0
LINE
  5
C0
  8
0
 10
3.1029399999999998
 20
167.0
 30
0.0
 11
3.3500000000000001
 21
165.22900000000001
 31
0.0
  0
LINE
  5
C1
  8
0
 10
3.1029399999999998
 20
167.0
 30
0.0
 11
3.3500000000000001
 21
168.7709999999999
 31
0.0
  0
LINE
  5
C2
  8
0
 10
10.0
 20
160.10299999999989
 30
0.0
 11
11.770599999999989
 21
160.34999999999991
 31
0.0
  0
LINE
  5
C3
  8
0
 10
10.0
 20
160.0
 30
0.0
 11
11.791199999999989
 21
160.24700000000001
 31
0.0
  0
LINE
  5
C4
  8
0
 10
5.1205899999999991
 20
162.12100000000001
 30
0.0
 11
6.5617599999999996
 21
161.02899999999991
 31
0.0
  0
LINE
  5
C5
  8
0
 10
5.058819999999999
 20
162.05899999999991
 30
0.0
 11
6.5205900000000003
 21
160.94699999999989
 31
0.0
  0
LINE
  5
C6
  8
0
 10
11.770599999999989
 20
160.34999999999991
 30
0.0
 11
13.4382
 21
161.02899999999991
 31
0.0
  0
LINE
  5
C7
  8
0
 10
14.8794
 20
162.12100000000001
 30
0.0
 11
15.97059999999999
 21
163.56200000000001
 31
0.0
  0
LINE
  5
C8
  8
0
 10
15.97059999999999
 20
163.56200000000001
 30
0.0
 11
16.649999999999999
 21
165.22900000000001
 31
0.0
  0
LINE
  5
C9
  8
0
 10
16.649999999999999
 20
165.22900000000001
 30
0.0
 11
16.897099999999991
 21
167.0
 31
0.0
  0
LINE
  5
CA
  8
0
 10
16.7529
 20
165.209
 30
0.0
 11
17.0
 21
167.0
 31
0.0
  0
LINE
  5
CB
  8
0
 10
13.4382
 20
161.02899999999991
 30
0.0
 11
14.8794
 21
162.12100000000001
 31
0.0
  0
LINE
  5
CC
  8
0
 10
6.5617599999999996
 20
161.02899999999991
 30
0.0
 11
8.2294100000000014
 21
160.34999999999991
 31
0.0
  0
LINE
  5
CD
  8
0
 10
8.2294100000000014
 20
160.34999999999991
 30
0.0
 11
10.0
 21
160.10299999999989
 31
0.0
  0
LINE
  5
CE
  8
0
 10
6.5205900000000003
 20
160.94699999999989
 30
0.0
 11
8.2088199999999993
 21
160.24700000000001
 31
0.0
  0
LINE
  5
CF
  8
0
 10
8.2088199999999993
 20
160.24700000000001
 30
0.0
 11
10.0
 21
160.0
 31
0.0
  0
LINE
  5
D0
  8
0
 10
4.0294099999999986
 20
163.56200000000001
 30
0.0
 11
5.1205899999999991
 21
162.12100000000001
 31
0.0
  0
LINE
  5
D1
  8
0
 10
3.3500000000000001
 20
165.22900000000001
 30
0.0
 11
4.0294099999999986
 21
163.56200000000001
 31
0.0
  0
LINE
  5
D2
  8
0
 10
3.2470599999999989
 20
165.209
 30
0.0
 11
3.94706
 21
163.52099999999999
 31
0.0
  0
LINE
  5
D3
  8
0
 10
3.3500000000000001
 20
168.7709999999999
 30
0.0
 11
4.0294099999999986
 21
170.43799999999999
 31
0.0
  0
LINE
  5
D4
  8
0
 10
4.0294099999999986
 20
170.43799999999999
 30
0.0
 11
5.1205899999999991
 21
171.87899999999999
 31
0.0
  0
LINE
  5
D5
  8
0
 10
3.94706
 20
170.47900000000001
 30
0.0
 11
5.058819999999999
 21
171.94099999999989
 31
0.0
  0
LINE
  5
D6
  8
0
 10
3.2470599999999989
 20
168.791
 30
0.0
 11
3.94706
 21
170.47900000000001
 31
0.0
  0
LINE
  5
D7
  8
0
 10
5.1205899999999991
 20
171.87899999999999
 30
0.0
 11
6.5617599999999996
 21
172.97099999999989
 31
0.0
  0
LINE
  5
D8
  8
0
 10
6.5617599999999996
 20
172.97099999999989
 30
0.0
 11
8.2294100000000014
 21
173.65000000000001
 31
0.0
  0
LINE
  5
D9
  8
0
 10
5.058819999999999
 20
171.94099999999989
 30
0.0
 11
6.5205900000000003
 21
173.05299999999991
 31
0.0
  0
LINE
  5
DA
  8
0
 10
6.5205900000000003
 20
173.05299999999991
 30
0.0
 11
8.2088199999999993
 21
173.7529999999999
 31
0.0
  0
LINE
  5
DB
  8
0
 10
8.2294100000000014
 20
173.65000000000001
 30
0.0
 11
10.0
 21
173.89699999999999
 31
0.0
  0
LINE
  5
DC
  8
0
 10
8.2088199999999993
 20
173.7529999999999
 30
0.0
 11
10.0
 21
174.0
 31
0.0
  0
LINE
  5
DD
  8
0
 10
10.0
 20
173.89699999999999
 30
0.0
 11
11.770599999999989
 21
173.65000000000001
 31
0.0
  0
LINE
  5
DE
  8
0
 10
13.4382
 20
172.97099999999989
 30
0.0
 11
14.8794
 21
171.87899999999999
 31
0.0
  0
LINE
  5
DF
  8
0
 10
11.770599999999989
 20
173.65000000000001
 30
0.0
 11
13.4382
 21
172.97099999999989
 31
0.0
  0
LINE
  5
E0
  8
0
 10
16.649999999999999
 20
168.7709999999999
 30
0.0
 11
16.897099999999991
 21
167.0
 31
0.0
  0
LINE
  5
E1
  8
0
 10
14.8794
 20
171.87899999999999
 30
0.0
 11
15.97059999999999
 21
170.43799999999999
 31
0.0
  0
LINE
  5
E2
  8
0
 10
15.97059999999999
 20
170.43799999999999
 30
0.0
 11
16.649999999999999
 21
168.7709999999999
 31
0.0
  0
LINE
  5
E3
  8
0
 10
14.9412
 20
171.94099999999989
 30
0.0
 11
16.052900000000001
 21
170.47900000000001
 31
0.0
  0
LINE
  5
E4
  8
0
 10
16.052900000000001
 20
170.47900000000001
 30
0.0
 11
16.7529
 21
168.791
 31
0.0
  0
LINE
  5
E5
  8
0
 10
16.7529
 20
168.791
 30
0.0
 11
17.0
 21
167.0
 31
0.0
  0
LINE
  5
E6
  8
0
 10
13.4794
 20
173.05299999999991
 30
0.0
 11
14.9412
 21
171.94099999999989
 31
0.0
  0
LINE
  5
E7
  8
0
 10
11.791199999999989
 20
173.7529999999999
 30
0.0
 11
13.4794
 21
173.05299999999991
 31
0.0
  0
LINE
  5
E8
  8
0
 10
10.0
 20
174.0
 30
0.0
 11
11.791199999999989
 21
173.7529999999999
 31
0.0
  0
LINE
  5
E9
  8
0
 10
3.0
 20
167.0
 30
0.0
 11
3.2470599999999989
 21
165.209
 31
0.0
  0
LINE
  5
EA
  8
0
 10
3.0
 20
167.0
 30
0.0
 11
3.2470599999999989
 21
168.791
 31
0.0
  0
LINE
  5
EB
  8
0
 10
28.0
 20
173.10188895248999
 30
0.0
 11
28.0
 21
135.85991515846001
 31
0.0
  0
LINE
  5
EC
  8
0
 10
14.21599999999999
 20
184.464
 30
0.0
 11
14.792
 21
183.024
 31
0.0
  0
LINE
  5
ED
  8
0
 10
14.792
 20
188.976
 30
0.0
 11
15.752000000000001
 21
190.24799999999991
 31
0.0
  0
LINE
  5
EE
  8
0
 10
14.21599999999999
 20
187.53599999999989
 30
0.0
 11
14.792
 21
188.976
 31
0.0
  0
LINE
  5
EF
  8
0
 10
14.0
 20
186.0
 30
0.0
 11
14.21599999999999
 21
184.464
 31
0.0
  0
LINE
  5
F0
  8
0
 10
14.0
 20
186.0
 30
0.0
 11
14.21599999999999
 21
187.53599999999989
 31
0.0
  0
LINE
  5
F1
  8
0
 10
17.024000000000001
 20
180.792
 30
0.0
 11
28.0
 21
173.10188895248999
 31
0.0
  0
LINE
  5
F2
  8
0
 10
17.024000000000001
 20
180.792
 30
0.0
 11
28.0
 21
173.10188895248999
 31
0.0
  0
LINE
  5
F4
  8
0
 10
17.024000000000001
 20
191.20799999999991
 30
0.0
 11
18.463999999999999
 21
191.78399999999999
 31
0.0
  0
LINE
  5
F5
  8
0
 10
26.576000000000001
 20
192.0
 30
0.0
 11
28.111999999999991
 21
192.0
 31
0.0
  0
LINE
  5
F6
  8
0
 10
20.0
 20
192.0
 30
0.0
 11
26.576000000000001
 21
192.0
 31
0.0
  0
LINE
  5
F7
  8
0
 10
18.463999999999999
 20
191.78399999999999
 30
0.0
 11
20.0
 21
192.0
 31
0.0
  0
LINE
  5
F8
  8
0
 10
15.752000000000001
 20
190.24799999999991
 30
0.0
 11
17.024000000000001
 21
191.20799999999991
 31
0.0
  0
LINE
  5
F9
  8
0
 10
15.752000000000001
 20
181.75200000000001
 30
0.0
 11
17.024000000000001
 21
180.792
 31
0.0
  0
LINE
  5
FA
  8
0
 10
14.792
 20
183.024
 30
0.0
 11
15.752000000000001
 21
181.75200000000001
 31
0.0
  0
LINE
  5
FB
  8
0
 10
10.0
 20
177.0
 30
0.0
 11
22.436274509803901
 21
177.0
 31
0.0
  0
LINE
  5
FC
  8
0
 10
7.4400000000000004
 20
176.6399999999999
 30
0.0
 11
10.0
 21
177.0
 31
0.0
  0
LINE
  5
FD
  8
0
 10
5.04
 20
175.68000000000001
 30
0.0
 11
7.4400000000000004
 21
176.6399999999999
 31
0.0
  0
LINE
  5
FE
  8
0
 10
2.919999999999999
 20
174.08000000000001
 30
0.0
 11
5.04
 21
175.68000000000001
 31
0.0
  0
LINE
  5
FF
  8
0
 10
2.919999999999999
 20
159.9199999999999
 30
0.0
 11
5.04
 21
158.31999999999991
 31
0.0
  0
LINE
  5
100
  8
0
 10
1.3200000000000001
 20
162.03999999999999
 30
0.0
 11
2.919999999999999
 21
159.9199999999999
 31
0.0
  0
LINE
  5
101
  8
0
 10
5.04
 20
158.31999999999991
 30
0.0
 11
7.4400000000000004
 21
157.36000000000001
 31
0.0
  0
LINE
  5
102
  8
0
 10
0.36
 20
164.44
 30
0.0
 11
1.3200000000000001
 21
162.03999999999999
 31
0.0
  0
LINE
  5
103
  8
0
 10
27.539999999999999
 20
195.0
 30
0.0
 11
28.98
 21
195.0
 31
0.0
  0
LINE
  5
104
  8
0
 10
27.539999999999999
 20
195.0
 30
0.0
 11
28.0
 21
195.0
 31
0.0
  0
LINE
  5
105
  8
0
 10
27.539999999999999
 20
197.0
 30
0.0
 11
28.98
 21
197.0
 31
0.0
  0
LINE
  5
106
  8
0
 10
27.0
 20
197.0
 30
0.0
 11
27.539999999999999
 21
197.0
 31
0.0
  0
LINE
  5
107
  8
0
 10
27.0
 20
197.0
 30
0.0
 11
27.0
 21
195.0
 31
0.0
  0
LINE
  5
108
  8
0
 10
27.0
 20
195.0
 30
0.0
 11
27.539999999999999
 21
195.0
 31
0.0
  0
LINE
  5
109
  8
0
 10
27.0
 20
195.0
 30
0.0
 11
27.0
 21
197.0
 31
0.0
  0
LINE
  5
10A
  8
0
 10
27.539999999999999
 20
199.0
 30
0.0
 11
28.98
 21
199.0
 31
0.0
  0
LINE
  5
10B
  8
0
 10
27.539999999999999
 20
199.0
 30
0.0
 11
28.0
 21
199.0
 31
0.0
  0
LINE
  5
10C
  8
0
 10
27.0
 20
199.0
 30
0.0
 11
27.539999999999999
 21
199.0
 31
0.0
  0
LINE
  5
10D
  8
0
 10
27.0
 20
199.0
 30
0.0
 11
27.0
 21
201.0
 31
0.0
  0
LINE
  5
10E
  8
0
 10
28.0
 20
197.0
 30
0.0
 11
28.0
 21
199.0
 31
0.0
  0
LINE
  5
10F
  8
0
 10
28.0
 20
192.0
 30
0.0
 11
28.0
 21
195.0
 31
0.0
  0
LINE
  5
110
  8
0
 10
28.0
 20
195.0
 30
0.0
 11
28.0
 21
192.0
 31
0.0
  0
LINE
  5
111
  8
0
 10
27.539999999999999
 20
201.0
 30
0.0
 11
28.98
 21
201.0
 31
0.0
  0
LINE
  5
112
  8
0
 10
27.0
 20
201.0
 30
0.0
 11
27.539999999999999
 21
201.0
 31
0.0
  0
LINE
  5
113
  8
0
 10
27.0
 20
201.0
 30
0.0
 11
27.0
 21
199.0
 31
0.0
  0
LINE
  5
114
  8
0
 10
28.0
 20
201.0
 30
0.0
 11
28.0
 21
203.0
 31
0.0
  0
LINE
  5
115
  8
0
 10
28.0
 20
199.0
 30
0.0
 11
28.0
 21
197.0
 31
0.0
  0
LINE
  5
116
  8
0
 10
28.111999999999991
 20
25.0
 30
0.0
 11
30.67199999999999
 21
25.0
 31
0.0
  0
LINE
  5
117
  8
0
 10
29.847999999999999
 20
33.0
 30
0.0
 11
32.088000000000001
 21
33.0
 31
0.0
  0
LINE
  5
11A
  8
0
 10
28.504000000000001
 20
33.0
 30
0.0
 11
29.847999999999999
 21
33.0
 31
0.0
  0
LINE
  5
11B
  8
0
 10
28.111999999999991
 20
13.0
 30
0.0
 11
30.67199999999999
 21
13.0
 31
0.0
  0
LINE
  5
11C
  8
0
 10
28.98
 20
197.0
 30
0.0
 11
31.379999999999988
 21
197.0
 31
0.0
  0
LINE
  5
11D
  8
0
 10
28.98
 20
195.0
 30
0.0
 11
31.379999999999988
 21
195.0
 31
0.0
  0
LINE
  5
11E
  8
0
 10
28.98
 20
201.0
 30
0.0
 11
31.379999999999988
 21
201.0
 31
0.0
  0
LINE
  5
11F
  8
0
 10
28.98
 20
199.0
 30
0.0
 11
31.379999999999988
 21
199.0
 31
0.0
  0
LINE
  5
120
  8
0
 10
28.111999999999991
 20
192.0
 30
0.0
 11
30.67199999999999
 21
192.0
 31
0.0
  0
LINE
  5
122
  8
0
 10
30.67199999999999
 20
13.0
 30
0.0
 11
32.0
 21
13.0
 31
0.0
  0
LINE
  5
123
  8
0
 10
32.0
 20
0.9999999999999969
 30
0.0
 11
42.0
 21
0.9999999999999969
 31
0.0
  0
LINE
  5
124
  8
0
 10
32.0
 20
0.9999999999999969
 30
0.0
 11
32.0
 21
25.0
 31
0.0
  0
LINE
  5
125
  8
0
 10
32.0
 20
0.999999999999996
 30
0.0
 11
32.0
 21
13.0
 31
0.0
  0
LINE
  5
126
  8
0
 10
32.0
 20
0.999999999999996
 30
0.0
 11
42.0
 21
0.999999999999996
 31
0.0
  0
LINE
  5
127
  8
0
 10
30.003699999999998
 20
136.321
 30
0.0
 11
42.0
 21
137.0
 31
0.0
  0
LINE
  5
128
  8
0
 10
30.67199999999999
 20
25.0
 30
0.0
 11
32.0
 21
25.0
 31
0.0
  0
LINE
  5
129
  8
0
 10
31.379999999999988
 20
197.0
 30
0.0
 11
34.560000000000002
 21
197.0
 31
0.0
  0
LINE
  5
12A
  8
0
 10
31.379999999999988
 20
195.0
 30
0.0
 11
34.560000000000002
 21
195.0
 31
0.0
  0
LINE
  5
12B
  8
0
 10
31.379999999999988
 20
201.0
 30
0.0
 11
34.560000000000002
 21
201.0
 31
0.0
  0
LINE
  5
12C
  8
0
 10
31.379999999999988
 20
199.0
 30
0.0
 11
34.560000000000002
 21
199.0
 31
0.0
  0
LINE
  5
12D
  8
0
 10
30.67199999999999
 20
192.0
 30
0.0
 11
34.064
 21
192.0
 31
0.0
  0
LINE
  5
131
  8
0
 10
35.05599999999999
 20
33.0
 30
0.0
 11
38.41599999999999
 21
33.0
 31
0.0
  0
LINE
  5
132
  8
0
 10
32.088000000000001
 20
33.0
 30
0.0
 11
35.05599999999999
 21
33.0
 31
0.0
  0
LINE
  5
133
  8
0
 10
34.560000000000002
 20
197.0
 30
0.0
 11
38.159999999999989
 21
197.0
 31
0.0
  0
LINE
  5
134
  8
0
 10
34.560000000000002
 20
195.0
 30
0.0
 11
38.159999999999989
 21
195.0
 31
0.0
  0
LINE
  5
135
  8
0
 10
34.560000000000002
 20
201.0
 30
0.0
 11
38.159999999999989
 21
201.0
 31
0.0
  0
LINE
  5
136
  8
0
 10
34.560000000000002
 20
199.0
 30
0.0
 11
38.159999999999989
 21
199.0
 31
0.0
  0
LINE
  5
137
  8
0
 10
34.064
 20
192.0
 30
0.0
 11
37.904000000000003
 21
192.0
 31
0.0
  0
LINE
  5
139
  8
0
 10
32.0
 20
25.0
 30
0.0
 11
32.0
 21
0.999999999999996
 31
0.0
  0
LINE
  5
13A
  8
0
 10
32.0
 20
25.0
 30
0.0
 11
42.0
 21
25.0
 31
0.0
  0
LINE
  5
13B
  8
0
 10
32.0
 20
13.0
 30
0.0
 11
32.0
 21
0.999999999999996
 31
0.0
  0
LINE
  5
13C
  8
0
 10
42.0
 20
13.0
 30
0.0
 11
46.095999999999997
 21
13.0
 31
0.0
  0
LINE
  5
13D
  8
0
 10
42.0
 20
33.0
 30
0.0
 11
45.583999999999989
 21
33.0
 31
0.0
  0
LINE
  5
13E
  8
0
 10
42.0
 20
33.0
 30
0.0
 11
42.0
 21
25.0
 31
0.0
  0
LINE
  5
13F
  8
0
 10
42.0
 20
137.0
 30
0.0
 11
53.996299999999998
 21
136.321
 31
0.0
  0
LINE
  5
140
  8
0
 10
42.0
 20
51.0
 30
0.0
 11
42.0
 21
33.0
 31
0.0
  0
LINE
  5
141
  8
0
 10
42.0
 20
51.0
 30
0.0
 11
64.0
 21
51.0
 31
0.0
  0
LINE
  5
143
  8
0
 10
38.41599999999999
 20
33.0
 30
0.0
 11
42.0
 21
33.0
 31
0.0
  0
LINE
  5
145
  8
0
 10
42.0
 20
25.0
 30
0.0
 11
42.0
 21
0.999999999999996
 31
0.0
  0
LINE
  5
146
  8
0
 10
42.0
 20
25.0
 30
0.0
 11
46.095999999999997
 21
25.0
 31
0.0
  0
LINE
  5
147
  8
0
 10
42.0
 20
0.9999999999999969
 30
0.0
 11
42.0
 21
25.0
 31
0.0
  0
LINE
  5
148
  8
0
 10
42.0
 20
187.0
 30
0.0
 11
42.0
 21
137.0
 31
0.0
  0
LINE
  5
149
  8
0
 10
38.159999999999989
 20
197.0
 30
0.0
 11
42.0
 21
197.0
 31
0.0
  0
LINE
  5
14A
  8
0
 10
38.159999999999989
 20
195.0
 30
0.0
 11
42.0
 21
195.0
 31
0.0
  0
LINE
  5
14B
  8
0
 10
38.159999999999989
 20
201.0
 30
0.0
 11
42.0
 21
201.0
 31
0.0
  0
LINE
  5
14C
  8
0
 10
42.0
 20
197.0
 30
0.0
 11
45.840000000000003
 21
197.0
 31
0.0
  0
LINE
  5
14D
  8
0
 10
42.0
 20
195.0
 30
0.0
 11
45.840000000000003
 21
195.0
 31
0.0
  0
LINE
  5
14E
  8
0
 10
42.0
 20
201.0
 30
0.0
 11
45.840000000000003
 21
201.0
 31
0.0
  0
LINE
  5
14F
  8
0
 10
42.0
 20
199.0
 30
0.0
 11
45.840000000000003
 21
199.0
 31
0.0
  0
LINE
  5
150
  8
0
 10
38.159999999999989
 20
199.0
 30
0.0
 11
42.0
 21
199.0
 31
0.0
  0
LINE
  5
151
  8
0
 10
42.0
 20
192.0
 30
0.0
 11
46.095999999999997
 21
192.0
 31
0.0
  0
LINE
  5
152
  8
0
 10
37.904000000000003
 20
192.0
 30
0.0
 11
42.0
 21
192.0
 31
0.0
  0
LINE
  5
153
  8
0
 10
42.0
 20
191.5
 30
0.0
 11
42.0
 21
179.0
 31
0.0
  0
LINE
  5
154
  8
0
 10
42.0
 20
191.5
 30
0.0
 11
52.0
 21
191.5
 31
0.0
  0
LINE
  5
155
  8
0
 10
45.583999999999989
 20
33.0
 30
0.0
 11
48.944000000000003
 21
33.0
 31
0.0
  0
LINE
  5
156
  8
0
 10
42.0
 20
179.0
 30
0.0
 11
52.0
 21
179.0
 31
0.0
  0
LINE
  5
157
  8
0
 10
42.0
 20
179.0
 30
0.0
 11
42.0
 21
191.5
 31
0.0
  0
LINE
  5
158
  8
0
 10
42.0
 20
203.0
 30
0.0
 11
45.583999999999989
 21
203.0
 31
0.0
  0
LINE
  5
159
  8
0
 10
46.095999999999997
 20
25.0
 30
0.0
 11
49.936
 21
25.0
 31
0.0
  0
LINE
  5
15A
  8
0
 10
46.095999999999997
 20
13.0
 30
0.0
 11
49.936
 21
13.0
 31
0.0
  0
LINE
  5
15B
  8
0
 10
48.944000000000003
 20
33.0
 30
0.0
 11
51.911999999999999
 21
33.0
 31
0.0
  0
LINE
  5
15C
  8
0
 10
51.911999999999999
 20
33.0
 30
0.0
 11
54.152000000000001
 21
33.0
 31
0.0
  0
LINE
  5
15D
  8
0
 10
49.936
 20
25.0
 30
0.0
 11
53.328000000000003
 21
25.0
 31
0.0
  0
LINE
  5
15E
  8
0
 10
49.936
 20
13.0
 30
0.0
 11
53.328000000000003
 21
13.0
 31
0.0
  0
LINE
  5
15F
  8
0
 10
46.095999999999997
 20
192.0
 30
0.0
 11
49.936
 21
192.0
 31
0.0
  0
LINE
  5
160
  8
0
 10
45.840000000000003
 20
197.0
 30
0.0
 11
49.439999999999991
 21
197.0
 31
0.0
  0
LINE
  5
161
  8
0
 10
49.439999999999991
 20
197.0
 30
0.0
 11
52.619999999999997
 21
197.0
 31
0.0
  0
LINE
  5
162
  8
0
 10
45.840000000000003
 20
195.0
 30
0.0
 11
49.439999999999991
 21
195.0
 31
0.0
  0
LINE
  5
163
  8
0
 10
49.439999999999991
 20
195.0
 30
0.0
 11
52.619999999999997
 21
195.0
 31
0.0
  0
LINE
  5
164
  8
0
 10
45.840000000000003
 20
201.0
 30
0.0
 11
49.439999999999991
 21
201.0
 31
0.0
  0
LINE
  5
165
  8
0
 10
49.439999999999991
 20
201.0
 30
0.0
 11
52.619999999999997
 21
201.0
 31
0.0
  0
LINE
  5
166
  8
0
 10
45.840000000000003
 20
199.0
 30
0.0
 11
49.439999999999991
 21
199.0
 31
0.0
  0
LINE
  5
167
  8
0
 10
49.439999999999991
 20
199.0
 30
0.0
 11
52.619999999999997
 21
199.0
 31
0.0
  0
LINE
  5
168
  8
0
 10
49.936
 20
192.0
 30
0.0
 11
53.328000000000003
 21
192.0
 31
0.0
  0
LINE
  5
169
  8
0
 10
45.583999999999989
 20
203.0
 30
0.0
 11
48.944000000000003
 21
203.0
 31
0.0
  0
LINE
  5
16A
  8
0
 10
48.944000000000003
 20
203.0
 30
0.0
 11
51.911999999999999
 21
203.0
 31
0.0
  0
LINE
  5
16B
  8
0
 10
53.328000000000003
 20
25.0
 30
0.0
 11
55.887999999999998
 21
25.0
 31
0.0
  0
LINE
  5
16C
  8
0
 10
54.152000000000001
 20
33.0
 30
0.0
 11
55.496000000000002
 21
33.0
 31
0.0
  0
LINE
  5
16F
  8
0
 10
53.996299999999998
 20
136.321
 30
0.0
 11
62.264600000000002
 21
134.10299999999989
 31
0.0
  0
LINE
  5
170
  8
0
 10
56.0
 20
173.10188895248999
 30
0.0
 11
66.975999999999999
 21
180.792
 31
0.0
  0
LINE
  5
171
  8
0
 10
55.496000000000002
 20
33.0
 30
0.0
 11
56.0
 21
33.0
 31
0.0
  0
LINE
  5
172
  8
0
 10
53.328000000000003
 20
13.0
 30
0.0
 11
55.887999999999998
 21
13.0
 31
0.0
  0
LINE
  5
176
  8
0
 10
52.619999999999997
 20
197.0
 30
0.0
 11
55.020000000000003
 21
197.0
 31
0.0
  0
LINE
  5
177
  8
0
 10
52.619999999999997
 20
195.0
 30
0.0
 11
55.020000000000003
 21
195.0
 31
0.0
  0
LINE
  5
178
  8
0
 10
52.619999999999997
 20
201.0
 30
0.0
 11
55.020000000000003
 21
201.0
 31
0.0
  0
LINE
  5
179
  8
0
 10
52.619999999999997
 20
199.0
 30
0.0
 11
55.020000000000003
 21
199.0
 31
0.0
  0
LINE
  5
17A
  8
0
 10
55.020000000000003
 20
197.0
 30
0.0
 11
56.460000000000001
 21
197.0
 31
0.0
  0
LINE
  5
17B
  8
0
 10
55.020000000000003
 20
195.0
 30
0.0
 11
56.460000000000001
 21
195.0
 31
0.0
  0
LINE
  5
17C
  8
0
 10
55.020000000000003
 20
201.0
 30
0.0
 11
56.460000000000001
 21
201.0
 31
0.0
  0
LINE
  5
17D
  8
0
 10
55.020000000000003
 20
199.0
 30
0.0
 11
56.460000000000001
 21
199.0
 31
0.0
  0
LINE
  5
17E
  8
0
 10
53.328000000000003
 20
192.0
 30
0.0
 11
55.887999999999998
 21
192.0
 31
0.0
  0
LINE
  5
180
  8
0
 10
52.0
 20
191.5
 30
0.0
 11
52.0
 21
179.0
 31
0.0
  0
LINE
  5
181
  8
0
 10
52.0
 20
179.0
 30
0.0
 11
52.0
 21
191.5
 31
0.0
  0
LINE
  5
182
  8
0
 10
51.911999999999999
 20
203.0
 30
0.0
 11
54.152000000000001
 21
203.0
 31
0.0
  0
LINE
  5
183
  8
0
 10
54.152000000000001
 20
203.0
 30
0.0
 11
55.496000000000002
 21
203.0
 31
0.0
  0
LINE
  5
184
  8
0
 10
55.887999999999998
 20
25.0
 30
0.0
 11
57.423999999999992
 21
25.0
 31
0.0
  0
LINE
  5
185
  8
0
 10
55.887999999999998
 20
13.0
 30
0.0
 11
57.423999999999992
 21
13.0
 31
0.0
  0
LINE
  5
186
  8
0
 10
55.887999999999998
 20
192.0
 30
0.0
 11
57.423999999999992
 21
192.0
 31
0.0
  0
LINE
  5
187
  8
0
 10
58.0
 20
5.9999999999999902
 30
0.0
 11
58.216000000000001
 21
4.4639999999999898
 31
0.0
  0
LINE
  5
188
  8
0
 10
58.0
 20
5.9999999999999902
 30
0.0
 11
58.0
 21
13.0
 31
0.0
  0
LINE
  5
189
  8
0
 10
58.0
 20
5.9999999999999902
 30
0.0
 11
58.216000000000001
 21
4.4639999999999898
 31
0.0
  0
LINE
  5
18A
  8
0
 10
58.216000000000001
 20
4.4639999999999898
 30
0.0
 11
58.792000000000002
 21
3.0239999999999991
 31
0.0
  0
LINE
  5
18B
  8
0
 10
59.752000000000002
 20
1.7519999999999889
 30
0.0
 11
61.023999999999987
 21
0.791999999999995
 31
0.0
  0
LINE
  5
18C
  8
0
 10
62.463999999999999
 20
0.215999999999995
 30
0.0
 11
64.0
 21
-0.0000000000000053
 31
0.0
  0
LINE
  5
18D
  8
0
 10
64.0
 20
-0.0000000000000053
 30
0.0
 11
65.536000000000001
 21
0.215999999999995
 31
0.0
  0
LINE
  5
18E
  8
0
 10
65.536000000000001
 20
0.215999999999995
 30
0.0
 11
66.975999999999999
 21
0.791999999999995
 31
0.0
  0
LINE
  5
18F
  8
0
 10
65.536000000000001
 20
0.215999999999994
 30
0.0
 11
66.975999999999999
 21
0.7919999999999942
 31
0.0
  0
LINE
  5
190
  8
0
 10
65.536000000000001
 20
0.215999999999994
 30
0.0
 11
66.975999999999999
 21
0.7919999999999942
 31
0.0
  0
LINE
  5
191
  8
0
 10
62.463999999999999
 20
0.215999999999994
 30
0.0
 11
64.0
 21
-0.0000000000000058
 31
0.0
  0
LINE
  5
192
  8
0
 10
66.975999999999999
 20
0.791999999999995
 30
0.0
 11
68.248000000000005
 21
1.7519999999999889
 31
0.0
  0
LINE
  5
193
  8
0
 10
68.248000000000005
 20
1.7519999999999889
 30
0.0
 11
69.207999999999984
 21
3.0239999999999991
 31
0.0
  0
LINE
  5
194
  8
0
 10
61.023999999999987
 20
0.791999999999995
 30
0.0
 11
62.463999999999999
 21
0.215999999999995
 31
0.0
  0
LINE
  5
195
  8
0
 10
61.023999999999987
 20
0.7919999999999942
 30
0.0
 11
62.463999999999999
 21
0.215999999999994
 31
0.0
  0
LINE
  5
196
  8
0
 10
59.752000000000002
 20
1.7519999999999889
 30
0.0
 11
61.023999999999987
 21
0.7919999999999942
 31
0.0
  0
LINE
  5
197
  8
0
 10
69.207999999999984
 20
3.0239999999999991
 30
0.0
 11
69.783999999999992
 21
4.4639999999999898
 31
0.0
  0
LINE
  5
198
  8
0
 10
69.207999999999984
 20
3.0239999999999991
 30
0.0
 11
69.783999999999992
 21
4.4639999999999898
 31
0.0
  0
LINE
  5
199
  8
0
 10
69.783999999999992
 20
4.4639999999999898
 30
0.0
 11
70.0
 21
5.9999999999999902
 31
0.0
  0
LINE
  5
19A
  8
0
 10
58.792000000000002
 20
3.0239999999999991
 30
0.0
 11
59.752000000000002
 21
1.7519999999999889
 31
0.0
  0
LINE
  5
19B
  8
0
 10
58.792000000000002
 20
3.0239999999999898
 30
0.0
 11
59.752000000000002
 21
1.7519999999999889
 31
0.0
  0
LINE
  5
19C
  8
0
 10
58.216000000000001
 20
4.4639999999999898
 30
0.0
 11
58.792000000000002
 21
3.0239999999999898
 31
0.0
  0
LINE
  5
19D
  8
0
 10
70.0
 20
5.9999999999999902
 30
0.0
 11
70.0
 21
27.0
 31
0.0
  0
LINE
  5
19E
  8
0
 10
58.0
 20
13.0
 30
0.0
 11
58.0
 21
25.0
 31
0.0
  0
LINE
  5
19F
  8
0
 10
58.0
 20
13.0
 30
0.0
 11
58.0
 21
5.9999999999999902
 31
0.0
  0
LINE
  5
1A0
  8
0
 10
58.0
 20
13.0
 30
0.0
 11
58.0
 21
6.0
 31
0.0
  0
LINE
  5
1A1
  8
0
 10
56.0
 20
157.0
 30
0.0
 11
74.0
 21
157.0
 31
0.0
  0
LINE
  5
1A2
  8
0
 10
56.0
 20
47.0
 30
0.0
 11
74.0
 21
47.0
 31
0.0
  0
LINE
  5
1A3
  8
0
 10
56.0
 20
51.0
 30
0.0
 11
56.0
 21
33.0
 31
0.0
  0
LINE
  5
1A4
  8
0
 10
56.0
 20
173.10188895248999
 30
0.0
 11
56.0
 21
135.85991515846001
 31
0.0
  0
LINE
  5
1A5
  8
0
 10
56.0
 20
173.10188895248999
 30
0.0
 11
66.975999999999999
 21
180.792
 31
0.0
  0
LINE
  5
1A6
  8
0
 10
57.423999999999992
 20
192.0
 30
0.0
 11
64.0
 21
192.0
 31
0.0
  0
LINE
  5
1A7
  8
0
 10
56.0
 20
135.85991515846001
 30
0.0
 11
56.0
 21
173.10188895248999
 31
0.0
  0
LINE
  5
1A8
  8
0
 10
56.0
 20
33.0
 30
0.0
 11
56.0
 21
51.0
 31
0.0
  0
LINE
  5
1A9
  8
0
 10
56.0
 20
33.0
 30
0.0
 11
58.0
 21
25.0
 31
0.0
  0
LINE
  5
1AA
  8
0
 10
74.0
 20
27.0
 30
0.0
 11
76.560000000000002
 21
27.359999999999999
 31
0.0
  0
LINE
  5
1AB
  8
0
 10
67.102900000000005
 20
37.0
 30
0.0
 11
67.349999999999994
 21
35.229399999999998
 31
0.0
  0
LINE
  5
1AC
  8
0
 10
67.102900000000005
 20
37.0
 30
0.0
 11
67.349999999999994
 21
38.770600000000002
 31
0.0
  0
LINE
  5
1AD
  8
0
 10
68.029399999999995
 20
33.561799999999998
 30
0.0
 11
69.120599999999996
 21
32.120600000000003
 31
0.0
  0
LINE
  5
1AE
  8
0
 10
67.349999999999994
 20
35.229399999999998
 30
0.0
 11
68.029399999999995
 21
33.561799999999998
 31
0.0
  0
LINE
  5
1AF
  8
0
 10
67.947100000000006
 20
33.520600000000002
 30
0.0
 11
69.058800000000005
 21
32.058799999999998
 31
0.0
  0
LINE
  5
1B0
  8
0
 10
67.247100000000003
 20
35.208799999999997
 30
0.0
 11
67.947100000000006
 21
33.520600000000002
 31
0.0
  0
LINE
  5
1B1
  8
0
 10
67.349999999999994
 20
38.770600000000002
 30
0.0
 11
68.029399999999995
 21
40.438200000000002
 31
0.0
  0
LINE
  5
1B2
  8
0
 10
62.264600000000002
 20
134.10299999999989
 30
0.0
 11
66.7941
 21
131.857
 31
0.0
  0
LINE
  5
1B3
  8
0
 10
66.7941
 20
131.857
 30
0.0
 11
69.802300000000002
 21
129.404
 31
0.0
  0
LINE
  5
1B4
  8
0
 10
64.0
 20
51.0
 30
0.0
 11
67.931299999999993
 21
52.0792
 31
0.0
  0
LINE
  5
1B5
  8
0
 10
67.931299999999993
 20
52.0792
 30
0.0
 11
70.8279
 21
53.971800000000002
 31
0.0
  0
LINE
  5
1C0
  8
0
 10
68.029399999999995
 20
40.438200000000002
 30
0.0
 11
69.120599999999996
 21
41.879399999999997
 31
0.0
  0
LINE
  5
1C1
  8
0
 10
67.947100000000006
 20
40.479399999999991
 30
0.0
 11
69.058800000000005
 21
41.941200000000002
 31
0.0
  0
LINE
  5
1C2
  8
0
 10
67.247100000000003
 20
38.791200000000003
 30
0.0
 11
67.947100000000006
 21
40.479399999999991
 31
0.0
  0
LINE
  5
1C3
  8
0
 10
69.120599999999996
 20
41.879399999999997
 30
0.0
 11
70.561800000000005
 21
42.970599999999997
 31
0.0
  0
LINE
  5
1C4
  8
0
 10
69.058800000000005
 20
41.941200000000002
 30
0.0
 11
70.520600000000002
 21
43.052900000000001
 31
0.0
  0
LINE
  5
1C5
  8
0
 10
67.0
 20
37.0
 30
0.0
 11
67.247100000000003
 21
35.208799999999997
 31
0.0
  0
LINE
  5
1C6
  8
0
 10
67.0
 20
37.0
 30
0.0
 11
67.247100000000003
 21
38.791200000000003
 31
0.0
  0
LINE
  5
1C7
  8
0
 10
69.802300000000002
 20
129.404
 30
0.0
 11
71.842299999999994
 21
126.6399999999999
 31
0.0
  0
LINE
  5
1CA
  8
0
 10
70.520600000000002
 20
43.052900000000001
 30
0.0
 11
72.208799999999997
 21
43.75289999999999
 31
0.0
  0
LINE
  5
1CB
  8
0
 10
69.120599999999996
 20
32.120600000000003
 30
0.0
 11
70.561800000000005
 21
31.029399999999999
 31
0.0
  0
LINE
  5
1CC
  8
0
 10
69.058800000000005
 20
32.058799999999998
 30
0.0
 11
70.520600000000002
 21
30.947099999999999
 31
0.0
  0
LINE
  5
1CD
  8
0
 10
70.561800000000005
 20
42.970599999999997
 30
0.0
 11
72.229399999999998
 21
43.649999999999999
 31
0.0
  0
LINE
  5
1CE
  8
0
 10
72.229399999999998
 20
43.649999999999999
 30
0.0
 11
74.0
 21
43.897100000000002
 31
0.0
  0
LINE
  5
1CF
  8
0
 10
71.842299999999994
 20
126.6399999999999
 30
0.0
 11
73.571200000000005
 21
123.807
 31
0.0
  0
LINE
  5
1D0
  8
0
 10
70.8279
 20
53.971800000000002
 30
0.0
 11
73.3904
 21
55.864400000000003
 31
0.0
  0
LINE
  5
1D2
  8
0
 10
73.571200000000005
 20
123.807
 30
0.0
 11
75.334599999999995
 21
118.5899999999999
 31
0.0
  0
LINE
  5
1D3
  8
0
 10
73.3904
 20
55.864400000000003
 30
0.0
 11
75.395799999999994
 21
58.758899999999997
 31
0.0
  0
LINE
  5
1D8
  8
0
 10
74.0
 20
43.897100000000002
 30
0.0
 11
75.770600000000002
 21
43.649999999999999
 31
0.0
  0
LINE
  5
1D9
  8
0
 10
74.0
 20
44.0
 30
0.0
 11
75.791200000000003
 21
43.75289999999999
 31
0.0
  0
LINE
  5
1DA
  8
0
 10
72.208799999999997
 20
43.75289999999999
 30
0.0
 11
74.0
 21
44.0
 31
0.0
  0
LINE
  5
1DB
  8
0
 10
70.561800000000005
 20
31.029399999999999
 30
0.0
 11
72.229399999999998
 21
30.350000000000001
 31
0.0
  0
LINE
  5
1DC
  8
0
 10
72.229399999999998
 20
30.350000000000001
 30
0.0
 11
74.0
 21
30.102900000000002
 31
0.0
  0
LINE
  5
1DD
  8
0
 10
70.520600000000002
 20
30.947099999999999
 30
0.0
 11
72.208799999999997
 21
30.2471
 31
0.0
  0
LINE
  5
1DE
  8
0
 10
72.208799999999997
 20
30.2471
 30
0.0
 11
74.0
 21
30.0
 31
0.0
  0
LINE
  5
1DF
  8
0
 10
74.0
 20
30.102900000000002
 30
0.0
 11
75.770600000000002
 21
30.350000000000001
 31
0.0
  0
LINE
  5
1E0
  8
0
 10
67.102900000000005
 20
167.0
 30
0.0
 11
67.349999999999994
 21
165.22900000000001
 31
0.0
  0
LINE
  5
1E1
  8
0
 10
67.102900000000005
 20
167.0
 30
0.0
 11
67.349999999999994
 21
168.7709999999999
 31
0.0
  0
LINE
  5
1E2
  8
0
 10
68.029399999999995
 20
163.56200000000001
 30
0.0
 11
69.120599999999996
 21
162.12100000000001
 31
0.0
  0
LINE
  5
1E3
  8
0
 10
67.349999999999994
 20
165.22900000000001
 30
0.0
 11
68.029399999999995
 21
163.56200000000001
 31
0.0
  0
LINE
  5
1E4
  8
0
 10
67.247100000000003
 20
165.209
 30
0.0
 11
67.947100000000006
 21
163.52099999999999
 31
0.0
  0
LINE
  5
1E5
  8
0
 10
67.349999999999994
 20
168.7709999999999
 30
0.0
 11
68.029399999999995
 21
170.43799999999999
 31
0.0
  0
LINE
  5
1E6
  8
0
 10
68.029399999999995
 20
170.43799999999999
 30
0.0
 11
69.120599999999996
 21
171.87899999999999
 31
0.0
  0
LINE
  5
1E7
  8
0
 10
67.947100000000006
 20
170.47900000000001
 30
0.0
 11
69.058800000000005
 21
171.94099999999989
 31
0.0
  0
LINE
  5
1E8
  8
0
 10
67.247100000000003
 20
168.791
 30
0.0
 11
67.947100000000006
 21
170.47900000000001
 31
0.0
  0
LINE
  5
1E9
  8
0
 10
69.058800000000005
 20
171.94099999999989
 30
0.0
 11
70.520600000000002
 21
173.05299999999991
 31
0.0
  0
LINE
  5
1EA
  8
0
 10
67.0
 20
167.0
 30
0.0
 11
67.247100000000003
 21
165.209
 31
0.0
  0
LINE
  5
1EB
  8
0
 10
67.0
 20
167.0
 30
0.0
 11
67.247100000000003
 21
168.791
 31
0.0
  0
LINE
  5
1EC
  8
0
 10
69.120599999999996
 20
171.87899999999999
 30
0.0
 11
70.561800000000005
 21
172.97099999999989
 31
0.0
  0
LINE
  5
1ED
  8
0
 10
70.561800000000005
 20
172.97099999999989
 30
0.0
 11
72.229399999999998
 21
173.65000000000001
 31
0.0
  0
LINE
  5
1EE
  8
0
 10
70.520600000000002
 20
173.05299999999991
 30
0.0
 11
72.208799999999997
 21
173.7529999999999
 31
0.0
  0
LINE
  5
1EF
  8
0
 10
72.208799999999997
 20
173.7529999999999
 30
0.0
 11
74.0
 21
174.0
 31
0.0
  0
LINE
  5
1F0
  8
0
 10
69.120599999999996
 20
162.12100000000001
 30
0.0
 11
70.561800000000005
 21
161.02899999999991
 31
0.0
  0
LINE
  5
1F1
  8
0
 10
70.561800000000005
 20
161.02899999999991
 30
0.0
 11
72.229399999999998
 21
160.34999999999991
 31
0.0
  0
LINE
  5
1F2
  8
0
 10
69.058800000000005
 20
162.05899999999991
 30
0.0
 11
70.520600000000002
 21
160.94699999999989
 31
0.0
  0
LINE
  5
1F3
  8
0
 10
70.520600000000002
 20
160.94699999999989
 30
0.0
 11
72.208799999999997
 21
160.24700000000001
 31
0.0
  0
LINE
  5
1F4
  8
0
 10
74.0
 20
173.89699999999999
 30
0.0
 11
75.770600000000002
 21
173.65000000000001
 31
0.0
  0
LINE
  5
1F5
  8
0
 10
74.0
 20
174.0
 30
0.0
 11
75.791200000000003
 21
173.7529999999999
 31
0.0
  0
LINE
  5
1F6
  8
0
 10
72.229399999999998
 20
173.65000000000001
 30
0.0
 11
74.0
 21
173.89699999999999
 31
0.0
  0
LINE
  5
1F7
  8
0
 10
72.229399999999998
 20
160.34999999999991
 30
0.0
 11
74.0
 21
160.10299999999989
 31
0.0
  0
LINE
  5
1F8
  8
0
 10
72.208799999999997
 20
160.24700000000001
 30
0.0
 11
74.0
 21
160.0
 31
0.0
  0
LINE
  5
1F9
  8
0
 10
74.0
 20
160.10299999999989
 30
0.0
 11
75.770600000000002
 21
160.34999999999991
 31
0.0
  0
LINE
  5
1FA
  8
0
 10
74.0
 20
160.0
 30
0.0
 11
75.791200000000003
 21
160.24700000000001
 31
0.0
  0
LINE
  5
1FB
  8
0
 10
68.248000000000005
 20
181.75200000000001
 30
0.0
 11
69.207999999999984
 21
183.024
 31
0.0
  0
LINE
  5
1FC
  8
0
 10
69.207999999999984
 20
183.024
 30
0.0
 11
69.783999999999992
 21
184.464
 31
0.0
  0
LINE
  5
1FD
  8
0
 10
69.783999999999992
 20
184.464
 30
0.0
 11
70.0
 21
186.0
 31
0.0
  0
LINE
  5
1FE
  8
0
 10
66.975999999999999
 20
180.792
 30
0.0
 11
68.248000000000005
 21
181.75200000000001
 31
0.0
  0
LINE
  5
1FF
  8
0
 10
64.0
 20
192.0
 30
0.0
 11
65.536000000000001
 21
191.78399999999999
 31
0.0
  0
LINE
  5
200
  8
0
 10
65.536000000000001
 20
191.78399999999999
 30
0.0
 11
66.975999999999999
 21
191.20799999999991
 31
0.0
  0
LINE
  5
201
  8
0
 10
66.975999999999999
 20
191.20799999999991
 30
0.0
 11
68.248000000000005
 21
190.24799999999991
 31
0.0
  0
LINE
  5
202
  8
0
 10
68.248000000000005
 20
190.24799999999991
 30
0.0
 11
69.207999999999984
 21
188.976
 31
0.0
  0
LINE
  5
203
  8
0
 10
69.207999999999984
 20
188.976
 30
0.0
 11
69.783999999999992
 21
187.53599999999989
 31
0.0
  0
LINE
  5
204
  8
0
 10
69.783999999999992
 20
187.53599999999989
 30
0.0
 11
70.0
 21
186.0
 31
0.0
  0
LINE
  5
205
  8
0
 10
74.0
 20
177.0
 30
0.0
 11
76.560000000000002
 21
176.6399999999999
 31
0.0
  0
LINE
  5
206
  8
0
 10
61.563725490196113
 20
177.0
 30
0.0
 11
74.0
 21
177.0
 31
0.0
  0
LINE
  5
207
  8
0
 10
74.0
 20
157.0
 30
0.0
 11
76.560000000000002
 21
157.36000000000001
 31
0.0
  0
LINE
  5
208
  8
0
 10
76.560000000000002
 20
27.359999999999999
 30
0.0
 11
78.959999999999994
 21
28.32
 31
0.0
  0
LINE
  5
209
  8
0
 10
77.438199999999995
 20
31.029399999999999
 30
0.0
 11
78.879400000000004
 21
32.120600000000003
 31
0.0
  0
LINE
  5
20A
  8
0
 10
75.770600000000002
 20
30.350000000000001
 30
0.0
 11
77.438199999999995
 21
31.029399999999999
 31
0.0
  0
LINE
  5
20B
  8
0
 10
77.479399999999984
 20
30.947099999999999
 30
0.0
 11
78.941199999999995
 21
32.058799999999998
 31
0.0
  0
LINE
  5
20C
  8
0
 10
78.959999999999994
 20
28.32
 30
0.0
 11
81.079999999999998
 21
29.920000000000002
 31
0.0
  0
LINE
  5
20D
  8
0
 10
81.079999999999998
 20
29.920000000000002
 30
0.0
 11
82.680000000000007
 21
32.039999999999999
 31
0.0
  0
LINE
  5
20E
  8
0
 10
78.879400000000004
 20
32.120600000000003
 30
0.0
 11
79.970600000000005
 21
33.561799999999998
 31
0.0
  0
LINE
  5
20F
  8
0
 10
80.650000000000006
 20
38.770600000000002
 30
0.0
 11
80.897099999999995
 21
37.0
 31
0.0
  0
LINE
  5
210
  8
0
 10
79.970600000000005
 20
33.561799999999998
 30
0.0
 11
80.650000000000006
 21
35.229399999999998
 31
0.0
  0
LINE
  5
211
  8
0
 10
80.752899999999997
 20
38.791200000000003
 30
0.0
 11
81.0
 21
37.0
 31
0.0
  0
LINE
  5
212
  8
0
 10
80.650000000000006
 20
35.229399999999998
 30
0.0
 11
80.897099999999995
 21
37.0
 31
0.0
  0
LINE
  5
213
  8
0
 10
82.680000000000007
 20
32.039999999999999
 30
0.0
 11
83.640000000000001
 21
34.439999999999991
 31
0.0
  0
LINE
  5
214
  8
0
 10
83.640000000000001
 20
34.439999999999991
 30
0.0
 11
84.0
 21
37.0
 31
0.0
  0
LINE
  5
215
  8
0
 10
75.770600000000002
 20
43.649999999999999
 30
0.0
 11
77.438199999999995
 21
42.970599999999997
 31
0.0
  0
LINE
  5
216
  8
0
 10
79.970600000000005
 20
40.438200000000002
 30
0.0
 11
80.650000000000006
 21
38.770600000000002
 31
0.0
  0
LINE
  5
217
  8
0
 10
78.879400000000004
 20
41.879399999999997
 30
0.0
 11
79.970600000000005
 21
40.438200000000002
 31
0.0
  0
LINE
  5
218
  8
0
 10
78.941199999999995
 20
41.941200000000002
 30
0.0
 11
80.052899999999994
 21
40.479399999999991
 31
0.0
  0
LINE
  5
219
  8
0
 10
80.052899999999994
 20
40.479399999999991
 30
0.0
 11
80.752899999999997
 21
38.791200000000003
 31
0.0
  0
LINE
  5
21A
  8
0
 10
77.438199999999995
 20
42.970599999999997
 30
0.0
 11
78.879400000000004
 21
41.879399999999997
 31
0.0
  0
LINE
  5
21B
  8
0
 10
77.479399999999984
 20
43.052900000000001
 30
0.0
 11
78.941199999999995
 21
41.941200000000002
 31
0.0
  0
LINE
  5
21C
  8
0
 10
75.791200000000003
 20
43.75289999999999
 30
0.0
 11
77.479399999999984
 21
43.052900000000001
 31
0.0
  0
LINE
  5
21E
  8
0
 10
75.395799999999994
 20
58.758899999999997
 30
0.0
 11
76.844099999999983
 21
63.657400000000003
 31
0.0
  0
LINE
  5
21F
  8
0
 10
77.097999999999999
 20
110.477
 30
0.0
 11
78.342799999999997
 21
98.176599999999993
 31
0.0
  0
LINE
  5
220
  8
0
 10
76.844099999999983
 20
63.657400000000003
 30
0.0
 11
77.623999999999995
 21
70.114500000000007
 31
0.0
  0
LINE
  5
221
  8
0
 10
75.334599999999995
 20
118.5899999999999
 30
0.0
 11
77.097999999999999
 21
110.477
 31
0.0
  0
LINE
  5
223
  8
0
 10
77.623999999999995
 20
70.114500000000007
 30
0.0
 11
78.292400000000001
 21
77.239599999999996
 31
0.0
  0
LINE
  5
225
  8
0
 10
78.292400000000001
 20
77.239599999999996
 30
0.0
 11
78.688500000000005
 21
86.777999999999992
 31
0.0
  0
LINE
  5
227
  8
0
 10
78.342799999999997
 20
98.176599999999993
 30
0.0
 11
78.688500000000005
 21
86.777999999999992
 31
0.0
  0
LINE
  5
22E
  8
0
 10
77.438199999999995
 20
172.97099999999989
 30
0.0
 11
78.879400000000004
 21
171.87899999999999
 31
0.0
  0
LINE
  5
22F
  8
0
 10
75.770600000000002
 20
173.65000000000001
 30
0.0
 11
77.438199999999995
 21
172.97099999999989
 31
0.0
  0
LINE
  5
230
  8
0
 10
75.791200000000003
 20
173.7529999999999
 30
0.0
 11
77.479399999999984
 21
173.05299999999991
 31
0.0
  0
LINE
  5
231
  8
0
 10
78.879400000000004
 20
171.87899999999999
 30
0.0
 11
79.970600000000005
 21
170.43799999999999
 31
0.0
  0
LINE
  5
232
  8
0
 10
77.479399999999984
 20
173.05299999999991
 30
0.0
 11
78.941199999999995
 21
171.94099999999989
 31
0.0
  0
LINE
  5
233
  8
0
 10
77.438199999999995
 20
161.02899999999991
 30
0.0
 11
78.879400000000004
 21
162.12100000000001
 31
0.0
  0
LINE
  5
234
  8
0
 10
75.770600000000002
 20
160.34999999999991
 30
0.0
 11
77.438199999999995
 21
161.02899999999991
 31
0.0
  0
LINE
  5
235
  8
0
 10
78.941199999999995
 20
171.94099999999989
 30
0.0
 11
80.052899999999994
 21
170.47900000000001
 31
0.0
  0
LINE
  5
236
  8
0
 10
78.879400000000004
 20
162.12100000000001
 30
0.0
 11
79.970600000000005
 21
163.56200000000001
 31
0.0
  0
LINE
  5
237
  8
0
 10
76.560000000000002
 20
176.6399999999999
 30
0.0
 11
78.959999999999994
 21
175.68000000000001
 31
0.0
  0
LINE
  5
238
  8
0
 10
78.959999999999994
 20
175.68000000000001
 30
0.0
 11
81.079999999999998
 21
174.08000000000001
 31
0.0
  0
LINE
  5
239
  8
0
 10
76.560000000000002
 20
157.36000000000001
 30
0.0
 11
78.959999999999994
 21
158.31999999999991
 31
0.0
  0
LINE
  5
23A
  8
0
 10
78.959999999999994
 20
158.31999999999991
 30
0.0
 11
81.079999999999998
 21
159.9199999999999
 31
0.0
  0
LINE
  5
23B
  8
0
 10
76.560000000000002
 20
46.640000000000001
 30
0.0
 11
78.959999999999994
 21
45.68
 31
0.0
  0
LINE
  5
23C
  8
0
 10
81.079999999999998
 20
159.9199999999999
 30
0.0
 11
82.680000000000007
 21
162.03999999999999
 31
0.0
  0
LINE
  5
23D
  8
0
 10
79.970600000000005
 20
163.56200000000001
 30
0.0
 11
80.650000000000006
 21
165.22900000000001
 31
0.0
  0
LINE
  5
23E
  8
0
 10
79.970600000000005
 20
170.43799999999999
 30
0.0
 11
80.650000000000006
 21
168.7709999999999
 31
0.0
  0
LINE
  5
23F
  8
0
 10
80.650000000000006
 20
168.7709999999999
 30
0.0
 11
80.897099999999995
 21
167.0
 31
0.0
  0
LINE
  5
240
  8
0
 10
80.052899999999994
 20
170.47900000000001
 30
0.0
 11
80.752899999999997
 21
168.791
 31
0.0
  0
LINE
  5
241
  8
0
 10
80.752899999999997
 20
168.791
 30
0.0
 11
81.0
 21
167.0
 31
0.0
  0
LINE
  5
242
  8
0
 10
80.650000000000006
 20
165.22900000000001
 30
0.0
 11
80.897099999999995
 21
167.0
 31
0.0
  0
LINE
  5
243
  8
0
 10
82.680000000000007
 20
171.95999999999989
 30
0.0
 11
83.640000000000001
 21
169.55999999999989
 31
0.0
  0
LINE
  5
244
  8
0
 10
81.079999999999998
 20
174.08000000000001
 30
0.0
 11
82.680000000000007
 21
171.95999999999989
 31
0.0
  0
LINE
  5
245
  8
0
 10
82.680000000000007
 20
162.03999999999999
 30
0.0
 11
83.640000000000001
 21
164.44
 31
0.0
  0
LINE
  5
246
  8
0
 10
78.959999999999994
 20
45.68
 30
0.0
 11
81.079999999999998
 21
44.079999999999998
 31
0.0
  0
LINE
  5
247
  8
0
 10
81.079999999999998
 20
44.079999999999998
 30
0.0
 11
82.680000000000007
 21
41.960000000000001
 31
0.0
  0
LINE
  5
248
  8
0
 10
83.640000000000001
 20
169.55999999999989
 30
0.0
 11
84.0
 21
167.0
 31
0.0
  0
LINE
  5
249
  8
0
 10
83.640000000000001
 20
164.44
 30
0.0
 11
84.0
 21
167.0
 31
0.0
  0
LINE
  5
24A
  8
0
 10
82.680000000000007
 20
41.960000000000001
 30
0.0
 11
83.640000000000001
 21
39.560000000000002
 31
0.0
  0
LINE
  5
24B
  8
0
 10
83.640000000000001
 20
39.560000000000002
 30
0.0
 11
84.0
 21
37.0
 31
0.0
  0
LINE
  5
24C
  8
0
 10
74.0
 20
47.0
 30
0.0
 11
76.560000000000002
 21
46.640000000000001
 31
0.0
  0
LINE
  5
24D
  8
0
 10
70.0
 20
27.0
 30
0.0
 11
70.0
 21
6.0
 31
0.0
  0
LINE
  5
24E
  8
0
 10
70.0
 20
27.0
 30
0.0
 11
74.0
 21
27.0
 31
0.0
  0
LINE
  5
24F
  8
0
 10
57.5
 20
27.0
 30
0.0
 11
70.0
 21
27.0
 31
0.0
  0
LINE
  5
250
  8
0
 10
58.0
 20
25.0
 30
0.0
 11
58.0
 21
13.0
 31
0.0
  0
LINE
  5
251
  8
0
 10
57.423999999999992
 20
25.0
 30
0.0
 11
58.0
 21
25.0
 31
0.0
  0
LINE
  5
252
  8
0
 10
57.423999999999992
 20
13.0
 30
0.0
 11
58.0
 21
13.0
 31
0.0
  0
LINE
  5
254
  8
0
 10
56.0
 20
195.0
 30
0.0
 11
56.0
 21
192.0
 31
0.0
  0
LINE
  5
255
  8
0
 10
56.0
 20
195.0
 30
0.0
 11
56.460000000000001
 21
195.0
 31
0.0
  0
LINE
  5
256
  8
0
 10
56.0
 20
199.0
 30
0.0
 11
56.0
 21
197.0
 31
0.0
  0
LINE
  5
257
  8
0
 10
56.0
 20
199.0
 30
0.0
 11
56.460000000000001
 21
199.0
 31
0.0
  0
LINE
  5
258
  8
0
 10
56.0
 20
203.0
 30
0.0
 11
56.0
 21
201.0
 31
0.0
  0
LINE
  5
259
  8
0
 10
56.0
 20
197.0
 30
0.0
 11
56.0
 21
199.0
 31
0.0
  0
LINE
  5
25A
  8
0
 10
57.0
 20
195.0
 30
0.0
 11
57.0
 21
197.0
 31
0.0
  0
LINE
  5
25B
  8
0
 10
57.0
 20
197.0
 30
0.0
 11
57.0
 21
195.0
 31
0.0
  0
LINE
  5
25C
  8
0
 10
56.460000000000001
 20
197.0
 30
0.0
 11
57.0
 21
197.0
 31
0.0
  0
LINE
  5
25D
  8
0
 10
56.460000000000001
 20
195.0
 30
0.0
 11
57.0
 21
195.0
 31
0.0
  0
LINE
  5
25E
  8
0
 10
57.0
 20
199.0
 30
0.0
 11
57.0
 21
201.0
 31
0.0
  0
LINE
  5
25F
  8
0
 10
57.0
 20
201.0
 30
0.0
 11
57.0
 21
199.0
 31
0.0
  0
LINE
  5
260
  8
0
 10
56.460000000000001
 20
201.0
 30
0.0
 11
57.0
 21
201.0
 31
0.0
  0
LINE
  5
261
  8
0
 10
56.460000000000001
 20
199.0
 30
0.0
 11
57.0
 21
199.0
 31
0.0
  0
LINE
  5
262
  8
0
 10
56.0
 20
201.0
 30
0.0
 11
56.0
 21
203.0
 31
0.0
  0
LINE
  5
263
  8
0
 10
56.0
 20
192.0
 30
0.0
 11
56.0
 21
195.0
 31
0.0
  0
LINE
  5
264
  8
0
 10
55.496000000000002
 20
203.0
 30
0.0
 11
56.0
 21
203.0
 31
0.0
  0
LINE
  5
265
  8
0
 10
38.41599999999999
 20
203.0
 30
0.0
 11
42.0
 21
203.0
 31
0.0
  0
LINE
  5
266
  8
0
 10
35.05599999999999
 20
203.0
 30
0.0
 11
38.41599999999999
 21
203.0
 31
0.0
  0
LINE
  5
267
  8
0
 10
32.088000000000001
 20
203.0
 30
0.0
 11
35.05599999999999
 21
203.0
 31
0.0
  0
LINE
  5
268
  8
0
 10
29.847999999999999
 20
203.0
 30
0.0
 11
32.088000000000001
 21
203.0
 31
0.0
  0
LINE
  5
269
  8
0
 10
28.504000000000001
 20
203.0
 30
0.0
 11
29.847999999999999
 21
203.0
 31
0.0
  0
LINE
  5
26A
  8
0
 10
28.0
 20
203.0
 30
0.0
 11
28.504000000000001
 21
203.0
 31
0.0
  0
LINE
  5
26B
  8
0
 10
28.0
 20
203.0
 30
0.0
 11
28.0
 21
201.0
 31
0.0
  0
LINE
  5
270
  8
0
 10
3.94706
 20
163.52099999999999
 30
0.0
 11
5.058819999999999
 21
162.05899999999991
 31
0.0
  0
LINE
  5
271
  8
0
 10
11.791199999999989
 20
160.24700000000001
 30
0.0
 11
13.48111785963658
 21
160.9624175132449
 31
0.0
  0
LINE
  5
272
  8
0
 10
13.48111785963658
 20
160.9624175132449
 30
0.0
 11
14.90707425430616
 21
162.0566334435506
 31
0.0
  0
LINE
  5
273
  8
0
 10
14.90707425430616
 20
162.0566334435506
 30
0.0
 11
16.027469607202981
 21
163.43076528740389
 31
0.0
  0
LINE
  5
274
  8
0
 10
16.027469607202981
 20
163.43076528740389
 30
0.0
 11
16.7529
 21
165.209
 31
0.0
  0
LINE
  5
275
  8
0
 10
67.947100000000006
 20
163.52099999999999
 30
0.0
 11
69.058800000000005
 21
162.05899999999991
 31
0.0
  0
LINE
  5
276
  8
0
 10
75.791200000000003
 20
160.24700000000001
 30
0.0
 11
77.443144506439793
 21
160.93697026563319
 31
0.0
  0
LINE
  5
277
  8
0
 10
77.443144506439793
 20
160.93697026563319
 30
0.0
 11
78.945492621471544
 21
162.03118667221159
 31
0.0
  0
LINE
  5
278
  8
0
 10
78.945492621471544
 20
162.03118667221159
 30
0.0
 11
80.014960160793521
 21
163.43076528740389
 31
0.0
  0
LINE
  5
279
  8
0
 10
80.014960160793521
 20
163.43076528740389
 30
0.0
 11
80.727937871488507
 21
165.1357065874829
 31
0.0
  0
LINE
  5
27A
  8
0
 10
80.727937871488507
 20
165.1357065874829
 30
0.0
 11
81.0
 21
167.0
 31
0.0
  0
LINE
  5
27B
  8
0
 10
3.94706
 20
33.520600000000002
 30
0.0
 11
5.058819999999999
 21
32.058799999999998
 31
0.0
  0
LINE
  5
27C
  8
0
 10
10.0
 20
30.0
 30
0.0
 11
11.74371889627775
 21
30.250437396466051
 31
0.0
  0
LINE
  5
27D
  8
0
 10
11.74371889627775
 20
30.250437396466051
 30
0.0
 11
13.4794
 21
30.947099999999999
 31
0.0
  0
LINE
  5
27E
  8
0
 10
14.9412
 20
32.058799999999998
 30
0.0
 11
16.05619010658711
 21
33.471796041605437
 31
0.0
  0
LINE
  5
27F
  8
0
 10
16.05619010658711
 20
33.471796041605437
 30
0.0
 11
16.753155425948531
 21
35.27836820961187
 31
0.0
  0
LINE
  5
280
  8
0
 10
16.753155425948531
 20
35.27836820961187
 30
0.0
 11
17.0
 21
37.0
 31
0.0
  0
LINE
  5
281
  8
0
 10
74.0
 20
30.0
 30
0.0
 11
75.753189989977841
 21
30.2286717364276
 31
0.0
  0
LINE
  5
282
  8
0
 10
75.753189989977841
 20
30.2286717364276
 30
0.0
 11
77.479399999999984
 21
30.947099999999999
 31
0.0
  0
LINE
  5
283
  8
0
 10
78.941199999999995
 20
32.058799999999998
 30
0.0
 11
80.065661200287309
 21
33.493561701643891
 31
0.0
  0
LINE
  5
284
  8
0
 10
80.065661200287309
 20
33.493561701643891
 30
0.0
 11
80.784406564218557
 21
35.21307075322386
 31
0.0
  0
LINE
  5
285
  8
0
 10
80.784406564218557
 20
35.21307075322386
 30
0.0
 11
81.0
 21
37.0
 31
0.0
  0
ENDSEC
  0
EOF
